  0
SECTION
  2
HEADER
  9
$ACADVER
  1
AC1018
  9
$ACADMAINTVER
 70
    77
  9
$DWGCODEPAGE
  3
ANSI_932
  9
$INSBASE
 10
0.0
 20
0.0
 30
0.0
  9
$EXTMIN
 10
530.8960016012378
 20
25.21980634333977
 30
-0.0000000349181948
  9
$EXTMAX
 10
1530.97229426607
 20
1455.248340214891
 30
0.0000000814935747
  9
$LIMMIN
 10
0.0
 20
0.0
  9
$LIMMAX
 10
2100.0
 20
1485.0
  9
$ORTHOMODE
 70
     0
  9
$REGENMODE
 70
     1
  9
$FILLMODE
 70
     1
  9
$QTEXTMODE
 70
     0
  9
$MIRRTEXT
 70
     0
  9
$LTSCALE
 40
5.0
  9
$ATTMODE
 70
     1
  9
$TEXTSIZE
 40
0.2
  9
$TRACEWID
 40
0.05
  9
$TEXTSTYLE
  7
STANDARD
  9
$CLAYER
  8
0
  9
$CELTYPE
  6
CONTINUOUS
  9
$CECOLOR
 62
   256
  9
$CELTSCALE
 40
1.0
  9
$DISPSILH
 70
     0
  9
$DIMSCALE
 40
1.0
  9
$DIMASZ
 40
0.18
  9
$DIMEXO
 40
0.0625
  9
$DIMDLI
 40
0.38
  9
$DIMRND
 40
0.0
  9
$DIMDLE
 40
0.0
  9
$DIMEXE
 40
0.18
  9
$DIMTP
 40
0.0
  9
$DIMTM
 40
0.0
  9
$DIMTXT
 40
0.18
  9
$DIMCEN
 40
0.09
  9
$DIMTSZ
 40
0.0
  9
$DIMTOL
 70
     0
  9
$DIMLIM
 70
     0
  9
$DIMTIH
 70
     1
  9
$DIMTOH
 70
     1
  9
$DIMSE1
 70
     0
  9
$DIMSE2
 70
     0
  9
$DIMTAD
 70
     0
  9
$DIMZIN
 70
     0
  9
$DIMBLK
  1

  9
$DIMASO
 70
     1
  9
$DIMSHO
 70
     1
  9
$DIMPOST
  1

  9
$DIMAPOST
  1

  9
$DIMALT
 70
     0
  9
$DIMALTD
 70
     2
  9
$DIMALTF
 40
25.4
  9
$DIMLFAC
 40
1.0
  9
$DIMTOFL
 70
     0
  9
$DIMTVP
 40
0.0
  9
$DIMTIX
 70
     0
  9
$DIMSOXD
 70
     0
  9
$DIMSAH
 70
     0
  9
$DIMBLK1
  1

  9
$DIMBLK2
  1

  9
$DIMSTYLE
  2
Standard
  9
$DIMCLRD
 70
     0
  9
$DIMCLRE
 70
     0
  9
$DIMCLRT
 70
     0
  9
$DIMTFAC
 40
1.0
  9
$DIMGAP
 40
0.09
  9
$DIMJUST
 70
     0
  9
$DIMSD1
 70
     0
  9
$DIMSD2
 70
     0
  9
$DIMTOLJ
 70
     1
  9
$DIMTZIN
 70
     0
  9
$DIMALTZ
 70
     0
  9
$DIMALTTZ
 70
     0
  9
$DIMUPT
 70
     0
  9
$DIMDEC
 70
     4
  9
$DIMTDEC
 70
     4
  9
$DIMALTU
 70
     2
  9
$DIMALTTD
 70
     2
  9
$DIMTXSTY
  7
STANDARD
  9
$DIMAUNIT
 70
     0
  9
$DIMADEC
 70
     0
  9
$DIMALTRND
 40
0.0
  9
$DIMAZIN
 70
     0
  9
$DIMDSEP
 70
    46
  9
$DIMATFIT
 70
     3
  9
$DIMFRAC
 70
     0
  9
$DIMLDRBLK
  1

  9
$DIMLUNIT
 70
     2
  9
$DIMLWD
 70
    -2
  9
$DIMLWE
 70
    -2
  9
$DIMTMOVE
 70
     0
  9
$LUNITS
 70
     2
  9
$LUPREC
 70
     4
  9
$SKETCHINC
 40
0.1
  9
$FILLETRAD
 40
0.0
  9
$AUNITS
 70
     0
  9
$AUPREC
 70
     0
  9
$MENU
  1
.
  9
$ELEVATION
 40
0.0
  9
$PELEVATION
 40
0.0
  9
$THICKNESS
 40
0.0
  9
$LIMCHECK
 70
     0
  9
$CHAMFERA
 40
0.0
  9
$CHAMFERB
 40
0.0
  9
$CHAMFERC
 40
0.0
  9
$CHAMFERD
 40
0.0
  9
$SKPOLY
 70
     0
  9
$TDCREATE
 40
2454846.605704803
  9
$TDUCREATE
 40
2454846.230704803
  9
$TDUPDATE
 40
2454846.617913831
  9
$TDUUPDATE
 40
2454846.242913831
  9
$TDINDWG
 40
0.0103808796
  9
$TDUSRTIMER
 40
0.0103806944
  9
$USRTIMER
 70
     1
  9
$ANGBASE
 50
0.0
  9
$ANGDIR
 70
     0
  9
$PDMODE
 70
     0
  9
$PDSIZE
 40
0.0
  9
$PLINEWID
 40
0.0
  9
$SPLFRAME
 70
     0
  9
$SPLINETYPE
 70
     6
  9
$SPLINESEGS
 70
     8
  9
$HANDSEED
  5
186
  9
$SURFTAB1
 70
     6
  9
$SURFTAB2
 70
     6
  9
$SURFTYPE
 70
     6
  9
$SURFU
 70
     6
  9
$SURFV
 70
     6
  9
$UCSBASE
  2

  9
$UCSNAME
  2

  9
$UCSORG
 10
0.0
 20
0.0
 30
0.0
  9
$UCSXDIR
 10
1.0
 20
0.0
 30
0.0
  9
$UCSYDIR
 10
0.0
 20
1.0
 30
0.0
  9
$UCSORTHOREF
  2

  9
$UCSORTHOVIEW
 70
     0
  9
$UCSORGTOP
 10
0.0
 20
0.0
 30
0.0
  9
$UCSORGBOTTOM
 10
0.0
 20
0.0
 30
0.0
  9
$UCSORGLEFT
 10
0.0
 20
0.0
 30
0.0
  9
$UCSORGRIGHT
 10
0.0
 20
0.0
 30
0.0
  9
$UCSORGFRONT
 10
0.0
 20
0.0
 30
0.0
  9
$UCSORGBACK
 10
0.0
 20
0.0
 30
0.0
  9
$PUCSBASE
  2

  9
$PUCSNAME
  2

  9
$PUCSORG
 10
0.0
 20
0.0
 30
0.0
  9
$PUCSXDIR
 10
1.0
 20
0.0
 30
0.0
  9
$PUCSYDIR
 10
0.0
 20
1.0
 30
0.0
  9
$PUCSORTHOREF
  2

  9
$PUCSORTHOVIEW
 70
     0
  9
$PUCSORGTOP
 10
0.0
 20
0.0
 30
0.0
  9
$PUCSORGBOTTOM
 10
0.0
 20
0.0
 30
0.0
  9
$PUCSORGLEFT
 10
0.0
 20
0.0
 30
0.0
  9
$PUCSORGRIGHT
 10
0.0
 20
0.0
 30
0.0
  9
$PUCSORGFRONT
 10
0.0
 20
0.0
 30
0.0
  9
$PUCSORGBACK
 10
0.0
 20
0.0
 30
0.0
  9
$USERI1
 70
     0
  9
$USERI2
 70
     0
  9
$USERI3
 70
     0
  9
$USERI4
 70
     0
  9
$USERI5
 70
     0
  9
$USERR1
 40
0.0
  9
$USERR2
 40
0.0
  9
$USERR3
 40
0.0
  9
$USERR4
 40
0.0
  9
$USERR5
 40
0.0
  9
$WORLDVIEW
 70
     1
  9
$SHADEDGE
 70
     3
  9
$SHADEDIF
 70
    70
  9
$TILEMODE
 70
     1
  9
$MAXACTVP
 70
    64
  9
$PINSBASE
 10
0.0
 20
0.0
 30
0.0
  9
$PLIMCHECK
 70
     0
  9
$PEXTMIN
 10
1.000000000000000E+20
 20
1.000000000000000E+20
 30
1.000000000000000E+20
  9
$PEXTMAX
 10
-1.000000000000000E+20
 20
-1.000000000000000E+20
 30
-1.000000000000000E+20
  9
$PLIMMIN
 10
0.0
 20
0.0
  9
$PLIMMAX
 10
12.0
 20
9.0
  9
$UNITMODE
 70
     0
  9
$VISRETAIN
 70
     1
  9
$PLINEGEN
 70
     0
  9
$PSLTSCALE
 70
     1
  9
$TREEDEPTH
 70
  3020
  9
$CMLSTYLE
  2
Standard
  9
$CMLJUST
 70
     0
  9
$CMLSCALE
 40
1.0
  9
$PROXYGRAPHICS
 70
     1
  9
$MEASUREMENT
 70
     0
  9
$CELWEIGHT
370
    -1
  9
$ENDCAPS
280
     0
  9
$JOINSTYLE
280
     0
  9
$LWDISPLAY
290
     0
  9
$INSUNITS
 70
     0
  9
$HYPERLINKBASE
  1

  9
$STYLESHEET
  1

  9
$XEDIT
290
     1
  9
$CEPSNTYPE
380
     0
  9
$PSTYLEMODE
290
     1
  9
$FINGERPRINTGUID
  2
{4DB7C4AC-3CAB-4D1A-9091-E2FB3EF977C5}
  9
$VERSIONGUID
  2
{178E000E-3B01-4F07-9638-69A10E8BB50D}
  9
$EXTNAMES
290
     1
  9
$PSVPSCALE
 40
0.0
  9
$OLESTARTUP
290
     0
  9
$SORTENTS
280
   127
  9
$INDEXCTL
280
     0
  9
$HIDETEXT
280
     0
  9
$XCLIPFRAME
290
     0
  9
$HALOGAP
280
     0
  9
$OBSCOLOR
 70
   257
  9
$OBSLTYPE
280
     0
  9
$INTERSECTIONDISPLAY
280
     0
  9
$INTERSECTIONCOLOR
 70
   257
  9
$DIMASSOC
280
     1
  9
$PROJECTNAME
  1

  0
ENDSEC
  0
SECTION
  2
CLASSES
  0
CLASS
  1
ACDBDICTIONARYWDFLT
  2
AcDbDictionaryWithDefault
  3
ObjectDBX Classes
 90
        0
 91
        1
280
     0
281
     0
  0
CLASS
  1
TABLESTYLE
  2
AcDbTableStyle
  3
ObjectDBX Classes
 90
     2047
 91
        1
280
     0
281
     0
  0
CLASS
  1
DICTIONARYVAR
  2
AcDbDictionaryVar
  3
ObjectDBX Classes
 90
        0
 91
        3
280
     0
281
     0
  0
ENDSEC
  0
SECTION
  2
TABLES
  0
TABLE
  2
VPORT
  5
8
330
0
100
AcDbSymbolTable
 70
     2
  0
VPORT
  5
185
330
8
100
AcDbSymbolTableRecord
100
AcDbViewportTableRecord
  2
*Active
 70
     0
 10
0.0
 20
0.0
 11
1.0
 21
1.0
 12
1030.934147933654
 22
740.2340732791154
 13
0.0
 23
0.0
 14
1.0
 24
1.0
 15
0.0
 25
0.0
 16
0.0
 26
0.0
 36
1.0
 17
0.0
 27
0.0
 37
0.0
 40
1443.009125706996
 41
2.069696969696969
 42
50.0
 43
0.0
 44
0.0
 50
0.0
 51
0.0
 71
     0
 72
   100
 73
     1
 74
     1
 75
     0
 76
     0
 77
     0
 78
     0
281
     0
 65
     1
110
0.0
120
0.0
130
0.0
111
1.0
121
0.0
131
0.0
112
0.0
122
1.0
132
0.0
 79
     0
146
0.0
  0
ENDTAB
  0
TABLE
  2
LTYPE
  5
5
330
0
100
AcDbSymbolTable
 70
    35
  0
LTYPE
  5
13
330
5
100
AcDbSymbolTableRecord
100
AcDbLinetypeTableRecord
  2
ByBlock
 70
     0
  3

 72
    65
 73
     0
 40
0.0
  0
LTYPE
  5
14
330
5
100
AcDbSymbolTableRecord
100
AcDbLinetypeTableRecord
  2
ByLayer
 70
     0
  3

 72
    65
 73
     0
 40
0.0
  0
LTYPE
  5
15
330
5
100
AcDbSymbolTableRecord
100
AcDbLinetypeTableRecord
  2
CONTINUOUS
 70
     0
  3
実線
 72
    65
 73
     0
 40
0.0
  0
LTYPE
  5
26
330
5
100
AcDbSymbolTableRecord
100
AcDbLinetypeTableRecord
  2
DASHED1
 70
     0
  3
--  --  --  --  --  --  --  --  
 72
    65
 73
     2
 40
2.5
 49
1.25
 74
     0
 49
-1.25
 74
     0
  0
LTYPE
  5
27
330
5
100
AcDbSymbolTableRecord
100
AcDbLinetypeTableRecord
  2
DASHED2
 70
     0
  3
----    ----    ----    ----    
 72
    65
 73
     2
 40
5.0
 49
2.5
 74
     0
 49
-2.5
 74
     0
  0
LTYPE
  5
28
330
5
100
AcDbSymbolTableRecord
100
AcDbLinetypeTableRecord
  2
DASHED3
 70
     0
  3
------  ------  ------  ------  
 72
    65
 73
     2
 40
5.0
 49
3.75
 74
     0
 49
-1.25
 74
     0
  0
LTYPE
  5
29
330
5
100
AcDbSymbolTableRecord
100
AcDbLinetypeTableRecord
  2
CENTER1
 70
     0
  3
----- - ----- - ----- - ----- - 
 72
    65
 73
     4
 40
10.0
 49
6.25
 74
     0
 49
-1.25
 74
     0
 49
1.25
 74
     0
 49
-1.25
 74
     0
  0
LTYPE
  5
2A
330
5
100
AcDbSymbolTableRecord
100
AcDbLinetypeTableRecord
  2
CENTER2
 70
     0
  3
----------  --  ----------  --  
 72
    65
 73
     4
 40
20.0
 49
12.5
 74
     0
 49
-2.5
 74
     0
 49
2.5
 74
     0
 49
-2.5
 74
     0
  0
LTYPE
  5
2B
330
5
100
AcDbSymbolTableRecord
100
AcDbLinetypeTableRecord
  2
PHANTOM1
 70
     0
  3
--- - - --- - - --- - - --- - - 
 72
    65
 73
     6
 40
10.0
 49
3.25
 74
     0
 49
-1.25
 74
     0
 49
1.25
 74
     0
 49
-1.25
 74
     0
 49
1.25
 74
     0
 49
-1.25
 74
     0
  0
LTYPE
  5
2C
330
5
100
AcDbSymbolTableRecord
100
AcDbLinetypeTableRecord
  2
PHANTOM2
 70
     0
  3
--------  -  -  --------  -  -  
 72
    65
 73
     6
 40
20.0
 49
10.0
 74
     0
 49
-2.5
 74
     0
 49
1.25
 74
     0
 49
-2.5
 74
     0
 49
1.25
 74
     0
 49
-2.5
 74
     0
  0
LTYPE
  5
2D
330
5
100
AcDbSymbolTableRecord
100
AcDbLinetypeTableRecord
  2
DOT
 70
     0
  3
-   -   -   -   -   -   -   -   
 72
    65
 73
     2
 40
2.5
 49
0.625
 74
     0
 49
-1.875
 74
     0
  0
LTYPE
  5
2E
330
5
100
AcDbSymbolTableRecord
100
AcDbLinetypeTableRecord
  2
DUMMY
 70
     0
  3
ダミー
 72
    65
 73
     0
 40
0.0
  0
LTYPE
  5
2F
330
5
100
AcDbSymbolTableRecord
100
AcDbLinetypeTableRecord
  2
RAND1
 70
     0
  3
ランダム線1
 72
    65
 73
     4
 40
10.0
 49
1.0
 74
     0
 49
-2.0
 74
     0
 49
3.0
 74
     0
 49
-4.0
 74
     0
  0
LTYPE
  5
30
330
5
100
AcDbSymbolTableRecord
100
AcDbLinetypeTableRecord
  2
RAND2
 70
     0
  3
ランダム線2
 72
    65
 73
     4
 40
14.0
 49
2.0
 74
     0
 49
-3.0
 74
     0
 49
4.0
 74
     0
 49
-5.0
 74
     0
  0
LTYPE
  5
31
330
5
100
AcDbSymbolTableRecord
100
AcDbLinetypeTableRecord
  2
RAND3
 70
     0
  3
ランダム線3
 72
    65
 73
     4
 40
18.0
 49
3.0
 74
     0
 49
-4.0
 74
     0
 49
5.0
 74
     0
 49
-6.0
 74
     0
  0
LTYPE
  5
32
330
5
100
AcDbSymbolTableRecord
100
AcDbLinetypeTableRecord
  2
RAND4
 70
     0
  3
ランダム線4
 72
    65
 73
     4
 40
22.0
 49
4.0
 74
     0
 49
-5.0
 74
     0
 49
6.0
 74
     0
 49
-7.0
 74
     0
  0
LTYPE
  5
33
330
5
100
AcDbSymbolTableRecord
100
AcDbLinetypeTableRecord
  2
RAND5
 70
     0
  3
ランダム線5
 72
    65
 73
     4
 40
26.0
 49
5.0
 74
     0
 49
-6.0
 74
     0
 49
7.0
 74
     0
 49
-8.0
 74
     0
  0
LTYPE
  5
34
330
5
100
AcDbSymbolTableRecord
100
AcDbLinetypeTableRecord
  2
LONG1
 70
     0
  3
----------  --  ----------  --  
 72
    65
 73
     4
 40
40.0
 49
32.5
 74
     0
 49
-2.5
 74
     0
 49
2.5
 74
     0
 49
-2.5
 74
     0
  0
LTYPE
  5
35
330
5
100
AcDbSymbolTableRecord
100
AcDbLinetypeTableRecord
  2
LONG2
 70
     0
  3
--------  -  -  --------  -  -  
 72
    65
 73
     6
 40
40.0
 49
30.0
 74
     0
 49
-2.5
 74
     0
 49
1.25
 74
     0
 49
-2.5
 74
     0
 49
1.25
 74
     0
 49
-2.5
 74
     0
  0
LTYPE
  5
36
330
5
100
AcDbSymbolTableRecord
100
AcDbLinetypeTableRecord
  2
LONG3
 70
     0
  3
+++++++++++++++..+++++++++++++++
 72
    65
 73
     2
 40
40.0
 49
37.5
 74
     0
 49
-2.5
 74
     0
  0
LTYPE
  5
37
330
5
100
AcDbSymbolTableRecord
100
AcDbLinetypeTableRecord
  2
LONG4
 70
     0
  3
+++++++++++++++..+++++++++++++++
 72
    65
 73
     2
 40
80.0
 49
75.0
 74
     0
 49
-5.0
 74
     0
  0
LTYPE
  5
38
330
5
100
AcDbSymbolTableRecord
100
AcDbLinetypeTableRecord
  2
LONG5
 70
     0
  3
----------  --  ----------  --  
 72
    65
 73
     4
 40
60.0
 49
37.5
 74
     0
 49
-7.5
 74
     0
 49
7.5
 74
     0
 49
-7.5
 74
     0
  0
LTYPE
  5
39
330
5
100
AcDbSymbolTableRecord
100
AcDbLinetypeTableRecord
  2
DASHED
 70
     0
  3
-------   -------------   ------
 72
    65
 73
     2
 40
7.5
 49
6.0
 74
     0
 49
-1.5
 74
     0
  0
LTYPE
  5
3A
330
5
100
AcDbSymbolTableRecord
100
AcDbLinetypeTableRecord
  2
DASHED_SPACED
 70
     0
  3
----        --------        ----
 72
    65
 73
     2
 40
12.0
 49
6.0
 74
     0
 49
-6.0
 74
     0
  0
LTYPE
  5
3B
330
5
100
AcDbSymbolTableRecord
100
AcDbLinetypeTableRecord
  2
LONG_DASHED_DOTTED
 70
     0
  3
------------- --- --------------
 72
    65
 73
     4
 40
15.25
 49
12.0
 74
     0
 49
-1.5
 74
     0
 49
0.25
 74
     0
 49
-1.5
 74
     0
  0
LTYPE
  5
3C
330
5
100
AcDbSymbolTableRecord
100
AcDbLinetypeTableRecord
  2
LONG_DASHED_DOUBLE-DOTTED
 70
     0
  3
----------- --- --- ------------
 72
    65
 73
     6
 40
17.0
 49
12.0
 74
     0
 49
-1.5
 74
     0
 49
0.25
 74
     0
 49
-1.5
 74
     0
 49
0.25
 74
     0
 49
-1.5
 74
     0
  0
LTYPE
  5
3D
330
5
100
AcDbSymbolTableRecord
100
AcDbLinetypeTableRecord
  2
LONG_DASHED_TRIPLICATE-DOTTED
 70
     0
  3
--------- --- --- --- ----------
 72
    65
 73
     8
 40
18.75
 49
12.0
 74
     0
 49
-1.5
 74
     0
 49
0.25
 74
     0
 49
-1.5
 74
     0
 49
0.25
 74
     0
 49
-1.5
 74
     0
 49
0.25
 74
     0
 49
-1.5
 74
     0
  0
LTYPE
  5
3E
330
5
100
AcDbSymbolTableRecord
100
AcDbLinetypeTableRecord
  2
DOTTED
 70
     0
  3
   -       -       -       -    
 72
    65
 73
     2
 40
1.75
 49
0.25
 74
     0
 49
-1.5
 74
     0
  0
LTYPE
  5
3F
330
5
100
AcDbSymbolTableRecord
100
AcDbLinetypeTableRecord
  2
CHAIN
 70
     0
  3
-------------- -- --------------
 72
    65
 73
     4
 40
18.5
 49
12.0
 74
     0
 49
-1.5
 74
     0
 49
3.5
 74
     0
 49
-1.5
 74
     0
  0
LTYPE
  5
40
330
5
100
AcDbSymbolTableRecord
100
AcDbLinetypeTableRecord
  2
CHAIN_DOUBLE_DASH
 70
     0
  3
------------ -- -- -------------
 72
    65
 73
     6
 40
23.5
 49
12.0
 74
     0
 49
-1.5
 74
     0
 49
3.5
 74
     0
 49
-1.5
 74
     0
 49
3.5
 74
     0
 49
-1.5
 74
     0
  0
LTYPE
  5
41
330
5
100
AcDbSymbolTableRecord
100
AcDbLinetypeTableRecord
  2
DASHED_DOTTED
 70
     0
  3
-----------     -     ----------
 72
    65
 73
     4
 40
9.25
 49
6.0
 74
     0
 49
-1.5
 74
     0
 49
0.25
 74
     0
 49
-1.5
 74
     0
  0
LTYPE
  5
42
330
5
100
AcDbSymbolTableRecord
100
AcDbLinetypeTableRecord
  2
DOUBLE-DASHED_DOTTED
 70
     0
  3
------   -----------   -   -----
 72
    65
 73
     6
 40
16.75
 49
6.0
 74
     0
 49
-1.5
 74
     0
 49
6.0
 74
     0
 49
-1.5
 74
     0
 49
0.25
 74
     0
 49
-1.5
 74
     0
  0
LTYPE
  5
43
330
5
100
AcDbSymbolTableRecord
100
AcDbLinetypeTableRecord
  2
DASHED_DOUBLE-DOTTED
 70
     0
  3
---------    -    -    ---------
 72
    65
 73
     6
 40
11.0
 49
6.0
 74
     0
 49
-1.5
 74
     0
 49
0.25
 74
     0
 49
-1.5
 74
     0
 49
0.25
 74
     0
 49
-1.5
 74
     0
  0
LTYPE
  5
44
330
5
100
AcDbSymbolTableRecord
100
AcDbLinetypeTableRecord
  2
DOUBLE-DASHED_DOUBLE-DOTTED
 70
     0
  3
-----   ---------   -   -   ----
 72
    65
 73
     8
 40
18.5
 49
6.0
 74
     0
 49
-1.5
 74
     0
 49
6.0
 74
     0
 49
-1.5
 74
     0
 49
0.25
 74
     0
 49
-1.5
 74
     0
 49
0.25
 74
     0
 49
-1.5
 74
     0
  0
LTYPE
  5
45
330
5
100
AcDbSymbolTableRecord
100
AcDbLinetypeTableRecord
  2
DASHED_TRIPLICATE-DOTTED
 70
     0
  3
-------    -    -    -    ------
 72
    65
 73
     8
 40
12.75
 49
6.0
 74
     0
 49
-1.5
 74
     0
 49
0.25
 74
     0
 49
-1.5
 74
     0
 49
0.25
 74
     0
 49
-1.5
 74
     0
 49
0.25
 74
     0
 49
-1.5
 74
     0
  0
LTYPE
  5
46
330
5
100
AcDbSymbolTableRecord
100
AcDbLinetypeTableRecord
  2
DOUBLE-DASHED_TRIPLICATE-DOTTED
 70
     0
  3
-----  ---------  -  -  -  -----
 72
    65
 73
    10
 40
20.25
 49
6.0
 74
     0
 49
-1.5
 74
     0
 49
6.0
 74
     0
 49
-1.5
 74
     0
 49
0.25
 74
     0
 49
-1.5
 74
     0
 49
0.25
 74
     0
 49
-1.5
 74
     0
 49
0.25
 74
     0
 49
-1.5
 74
     0
  0
LTYPE
  5
47
330
5
100
AcDbSymbolTableRecord
100
AcDbLinetypeTableRecord
  2
UNDEFINED
 70
     0
  3
--------------------------------
 72
    65
 73
     0
 40
0.0
  0
ENDTAB
  0
TABLE
  2
LAYER
  5
2
330
0
100
AcDbSymbolTable
 70
    15
  0
LAYER
  5
10
330
2
100
AcDbSymbolTableRecord
100
AcDbLayerTableRecord
  2
0
 70
     0
 62
     7
  6
CONTINUOUS
370
    -3
390
F
  0
LAYER
  5
49
330
2
100
AcDbSymbolTableRecord
100
AcDbLayerTableRecord
  2
_2-2_IN_LINE
 70
     0
 62
     7
  6
CONTINUOUS
370
    -3
390
F
  0
LAYER
  5
4A
330
2
100
AcDbSymbolTableRecord
100
AcDbLayerTableRecord
  2
_2-3_
 70
     0
 62
     7
  6
CONTINUOUS
370
    -3
390
F
  0
LAYER
  5
4B
330
2
100
AcDbSymbolTableRecord
100
AcDbLayerTableRecord
  2
_2-4_OUT_LINE
 70
     0
 62
     7
  6
CONTINUOUS
370
    -3
390
F
  0
LAYER
  5
4C
330
2
100
AcDbSymbolTableRecord
100
AcDbLayerTableRecord
  2
_2-5_金属
 70
     0
 62
     7
  6
CONTINUOUS
370
    -3
390
F
  0
LAYER
  5
4D
330
2
100
AcDbSymbolTableRecord
100
AcDbLayerTableRecord
  2
_2-A_MOJI
 70
     0
 62
     7
  6
CONTINUOUS
370
    -3
390
F
  0
LAYER
  5
4E
330
2
100
AcDbSymbolTableRecord
100
AcDbLayerTableRecord
  2
_2-B_DIM
 70
     0
 62
     7
  6
CONTINUOUS
370
    -3
390
F
  0
LAYER
  5
4F
330
2
100
AcDbSymbolTableRecord
100
AcDbLayerTableRecord
  2
_2-D_ハッチ他
 70
     0
 62
     7
  6
CONTINUOUS
370
    -3
390
F
  0
LAYER
  5
50
330
2
100
AcDbSymbolTableRecord
100
AcDbLayerTableRecord
  2
_2-E_CON他
 70
     0
 62
     7
  6
CONTINUOUS
370
    -3
390
F
  0
LAYER
  5
51
330
2
100
AcDbSymbolTableRecord
100
AcDbLayerTableRecord
  2
_F-2_
 70
     0
 62
     7
  6
CONTINUOUS
370
    -3
390
F
  0
LAYER
  5
52
330
2
100
AcDbSymbolTableRecord
100
AcDbLayerTableRecord
  2
_F-5_
 70
     0
 62
     7
  6
CONTINUOUS
370
    -3
390
F
  0
LAYER
  5
53
330
2
100
AcDbSymbolTableRecord
100
AcDbLayerTableRecord
  2
_F-7_
 70
     0
 62
     7
  6
CONTINUOUS
370
    -3
390
F
  0
LAYER
  5
54
330
2
100
AcDbSymbolTableRecord
100
AcDbLayerTableRecord
  2
_F-8_
 70
     0
 62
     7
  6
CONTINUOUS
370
    -3
390
F
  0
LAYER
  5
55
330
2
100
AcDbSymbolTableRecord
100
AcDbLayerTableRecord
  2
_F-A_
 70
     0
 62
     7
  6
CONTINUOUS
370
    -3
390
F
  0
LAYER
  5
56
330
2
100
AcDbSymbolTableRecord
100
AcDbLayerTableRecord
  2
ADD_LINE
 70
     0
 62
     7
  6
CONTINUOUS
370
    -3
390
F
  0
ENDTAB
  0
TABLE
  2
STYLE
  5
3
330
0
100
AcDbSymbolTable
 70
     2
  0
STYLE
  5
11
330
3
100
AcDbSymbolTableRecord
100
AcDbTextStyleTableRecord
  2
STANDARD
 70
     0
 40
0.0
 41
1.0
 50
0.0
 71
     0
 42
0.2
  3
txt
  4
bigfont.shx
  0
STYLE
  5
48
330
3
100
AcDbSymbolTableRecord
100
AcDbTextStyleTableRecord
  2
TATEGAKI
 70
     4
 40
0.0
 41
1.0
 50
0.0
 71
     0
 42
1.0
  3
txt
  4
bigfont.shx
  0
ENDTAB
  0
TABLE
  2
VIEW
  5
6
330
0
100
AcDbSymbolTable
 70
     0
  0
ENDTAB
  0
TABLE
  2
UCS
  5
7
330
0
100
AcDbSymbolTable
 70
     0
  0
ENDTAB
  0
TABLE
  2
APPID
  5
9
330
0
100
AcDbSymbolTable
 70
     1
  0
APPID
  5
12
330
9
100
AcDbSymbolTableRecord
100
AcDbRegAppTableRecord
  2
ACAD
 70
     0
  0
ENDTAB
  0
TABLE
  2
DIMSTYLE
  5
A
330
0
100
AcDbSymbolTable
 70
     1
100
AcDbDimStyleTable
 71
     0
  0
DIMSTYLE
105
174
330
A
100
AcDbSymbolTableRecord
100
AcDbDimStyleTableRecord
  2
Standard
 70
     0
340
11
  0
ENDTAB
  0
TABLE
  2
BLOCK_RECORD
  5
1
330
0
100
AcDbSymbolTable
 70
     0
  0
BLOCK_RECORD
  5
22
330
1
100
AcDbSymbolTableRecord
100
AcDbBlockTableRecord
  2
*Model_Space
340
25
  0
BLOCK_RECORD
  5
1E
330
1
100
AcDbSymbolTableRecord
100
AcDbBlockTableRecord
  2
*Paper_Space
340
21
  0
ENDTAB
  0
ENDSEC
  0
SECTION
  2
BLOCKS
  0
BLOCK
  5
23
330
22
100
AcDbEntity
  8
0
100
AcDbBlockBegin
  2
*Model_Space
 70
     0
 10
0.0
 20
0.0
 30
0.0
  3
*Model_Space
  1

  0
ENDBLK
  5
24
330
22
100
AcDbEntity
  8
0
100
AcDbBlockEnd
  0
BLOCK
  5
1F
330
1E
100
AcDbEntity
 67
     1
  8
0
100
AcDbBlockBegin
  2
*Paper_Space
 70
     0
 10
0.0
 20
0.0
 30
0.0
  3
*Paper_Space
  1

  0
ENDBLK
  5
20
330
1E
100
AcDbEntity
 67
     1
  8
0
100
AcDbBlockEnd
  0
ENDSEC
  0
SECTION
  2
ENTITIES
  0
LINE
  5
5A
330
22
100
AcDbEntity
  8
ADD_LINE
  6
DOT
 62
   136
100
AcDbLine
 10
530.9337027591651
 20
1455.244874194604
 30
0.0
 11
530.9337027591651
 21
25.24487419460343
 31
0.0
  0
LINE
  5
5B
330
22
100
AcDbEntity
  8
ADD_LINE
  6
DOT
 62
   136
100
AcDbLine
 10
530.9337027591651
 20
1455.244874194604
 30
0.0
 11
1530.933702759165
 21
1455.244874194604
 31
0.0
  0
LINE
  5
5C
330
22
100
AcDbEntity
  8
ADD_LINE
  6
DOT
 62
   136
100
AcDbLine
 10
1530.933702759165
 20
1455.244874194604
 30
0.0
 11
1530.933702759165
 21
25.24487419460343
 31
0.0
  0
LINE
  5
5D
330
22
100
AcDbEntity
  8
ADD_LINE
  6
DOT
 62
   136
100
AcDbLine
 10
1530.933702759165
 20
25.24487419460343
 30
0.0
 11
530.9337027591607
 21
25.24487419460343
 31
0.0
  0
LINE
  5
5E
330
22
100
AcDbEntity
  8
ADD_LINE
  6
DOT
 62
   136
100
AcDbLine
 10
630.9337027591652
 20
785.2448741946034
 30
0.0
 11
1430.933702759165
 21
785.2448741946034
 31
0.0
  0
LINE
  5
5F
330
22
100
AcDbEntity
  8
ADD_LINE
  6
DOT
 62
   136
100
AcDbLine
 10
650.9337027591652
 20
805.2448741946033
 30
0.0
 11
650.9337027591652
 21
765.2448741946034
 31
0.0
  0
LINE
  5
60
330
22
100
AcDbEntity
  8
ADD_LINE
  6
DOT
 62
   136
100
AcDbLine
 10
935.9337027591651
 20
805.2448741946033
 30
0.0
 11
935.9337027591651
 21
765.2448741946034
 31
0.0
  0
LINE
  5
61
330
22
100
AcDbEntity
  8
ADD_LINE
  6
DOT
 62
   136
100
AcDbLine
 10
785.9337027591651
 20
805.2448741946033
 30
0.0
 11
785.9337027591651
 21
765.2448741946034
 31
0.0
  0
LINE
  5
62
330
22
100
AcDbEntity
  8
ADD_LINE
  6
DOT
 62
   136
100
AcDbLine
 10
630.9337027591652
 20
145.2448741946034
 30
0.0
 11
1430.933702759165
 21
145.2448741946034
 31
0.0
  0
LINE
  5
63
330
22
100
AcDbEntity
  8
ADD_LINE
  6
DOT
 62
   136
100
AcDbLine
 10
650.9337027591652
 20
165.2448741946034
 30
0.0
 11
650.9337027591652
 21
125.2448741946034
 31
0.0
  0
LINE
  5
64
330
22
100
AcDbEntity
  8
ADD_LINE
  6
DOT
 62
   136
100
AcDbLine
 10
935.9337027591651
 20
165.2448741946034
 30
0.0
 11
935.9337027591651
 21
125.2448741946034
 31
0.0
  0
LINE
  5
65
330
22
100
AcDbEntity
  8
ADD_LINE
  6
DOT
 62
   136
100
AcDbLine
 10
785.9337027591651
 20
165.2448741946034
 30
0.0
 11
785.9337027591651
 21
125.2448741946034
 31
0.0
  0
LINE
  5
66
330
22
100
AcDbEntity
  8
ADD_LINE
  6
DOT
 62
   136
100
AcDbLine
 10
1315.933702759165
 20
805.2448741946033
 30
0.0
 11
1315.933702759165
 21
765.2448741946034
 31
0.0
  0
LINE
  5
67
330
22
100
AcDbEntity
  8
ADD_LINE
  6
DOT
 62
   136
100
AcDbLine
 10
1210.933702759165
 20
805.2448741946033
 30
0.0
 11
1210.933702759165
 21
765.2448741946034
 31
0.0
  0
LINE
  5
68
330
22
100
AcDbEntity
  8
ADD_LINE
  6
DOT
 62
   136
100
AcDbLine
 10
1315.933702759165
 20
165.2448741946034
 30
0.0
 11
1315.933702759165
 21
125.2448741946034
 31
0.0
  0
LINE
  5
69
330
22
100
AcDbEntity
  8
ADD_LINE
  6
DOT
 62
   136
100
AcDbLine
 10
1210.933702759165
 20
165.2448741946034
 30
0.0
 11
1210.933702759165
 21
125.2448741946034
 31
0.0
  0
LINE
  5
6A
330
22
100
AcDbEntity
  8
_2-E_CON他
  6
Continuous
 62
     4
100
AcDbLine
 10
831.3684991878641
 20
905.1843594405305
 30
0.0
 11
981.3684991878641
 21
1055.184359440531
 31
0.0
  0
LINE
  5
6B
330
22
100
AcDbEntity
  8
_2-E_CON他
  6
Continuous
 62
     4
100
AcDbLine
 10
845.5106348115927
 20
905.1843594405305
 30
0.0
 11
995.5106348115952
 21
1055.184359440531
 31
0.0
  0
LINE
  5
6C
330
22
100
AcDbEntity
  8
_2-E_CON他
  6
Continuous
 62
     4
100
AcDbLine
 10
838.4395669997307
 20
905.1843594405305
 30
0.0
 11
988.4395669997307
 21
1055.184359440531
 31
0.0
  0
LINE
  5
6D
330
22
100
AcDbEntity
  8
_2-E_CON他
  6
Continuous
 62
     4
100
AcDbLine
 10
705.9337027591651
 20
972.678495199965
 30
0.0
 11
788.4395669997307
 21
1055.184359440531
 31
0.0
  0
LINE
  5
6E
330
22
100
AcDbEntity
  8
_2-E_CON他
  6
Continuous
 62
     4
100
AcDbLine
 10
705.9337027591651
 20
979.7495630118318
 30
0.0
 11
781.3684991878641
 21
1055.184359440531
 31
0.0
  0
LINE
  5
6F
330
22
100
AcDbEntity
  8
_F-7_
  6
Continuous
 62
     1
100
AcDbLine
 10
630.9337027591652
 20
1355.244874194603
 30
0.0
 11
1430.933702759165
 21
1355.244874194603
 31
0.0
  0
LINE
  5
70
330
22
100
AcDbEntity
  8
_F-7_
  6
Continuous
 62
     1
100
AcDbLine
 10
630.9337027591652
 20
765.2448741946034
 30
0.0
 11
1430.933702759165
 21
765.2448741946034
 31
0.0
  0
LINE
  5
71
330
22
100
AcDbEntity
  8
_F-7_
  6
Continuous
 62
     1
100
AcDbLine
 10
1430.933702759165
 20
1355.244874194603
 30
0.0
 11
1430.933702759165
 21
765.2448741946034
 31
0.0
  0
LINE
  5
72
330
22
100
AcDbEntity
  8
_F-7_
  6
Continuous
 62
     1
100
AcDbLine
 10
630.9337027591652
 20
1355.244874194603
 30
0.0
 11
630.9337027591652
 21
765.2448741946034
 31
0.0
  0
LINE
  5
73
330
22
100
AcDbEntity
  8
_F-7_
  6
Continuous
 62
     1
100
AcDbLine
 10
630.9337027591652
 20
715.2448741946034
 30
0.0
 11
1430.933702759165
 21
715.2448741946034
 31
0.0
  0
LINE
  5
74
330
22
100
AcDbEntity
  8
_F-7_
  6
Continuous
 62
     1
100
AcDbLine
 10
630.9337027591652
 20
715.2448741946034
 30
0.0
 11
630.9337027591652
 21
125.2448741946034
 31
0.0
  0
LINE
  5
75
330
22
100
AcDbEntity
  8
_F-7_
  6
Continuous
 62
     1
100
AcDbLine
 10
1430.933702759165
 20
715.2448741946034
 30
0.0
 11
1430.933702759165
 21
125.2448741946034
 31
0.0
  0
LINE
  5
76
330
22
100
AcDbEntity
  8
_F-5_
  6
Continuous
 62
     6
100
AcDbLine
 10
630.9337027591652
 20
805.2448741946033
 30
0.0
 11
1430.933702759165
 21
805.2448741946033
 31
0.0
  0
LINE
  5
77
330
22
100
AcDbEntity
  8
_F-2_
  6
Continuous
 62
     7
100
AcDbLine
 10
920.9337027591651
 20
805.2448741946033
 30
0.0
 11
920.9337027591651
 21
765.2448741946034
 31
0.0
  0
TEXT
  5
78
330
22
100
AcDbEntity
  8
_F-A_
 62
     7
100
AcDbText
 10
785.9337027591651
 20
775.2448741946034
 30
0.0
 40
17.5
  1
下地：ＲＣ
100
AcDbText
  0
TEXT
  5
79
330
22
100
AcDbEntity
  8
_F-A_
 62
     7
100
AcDbText
 10
650.9337027591652
 20
775.2448741946034
 30
0.0
 40
20.0
  1
１１０仕様
100
AcDbText
  0
TEXT
  5
7A
330
22
100
AcDbEntity
  8
_F-A_
 62
     7
100
AcDbText
 10
935.9337027591651
 20
775.2448741946034
 30
0.0
 40
17.5
  1
部位：平場
100
AcDbText
  0
LINE
  5
7B
330
22
100
AcDbEntity
  8
_F-7_
  6
Continuous
 62
     1
100
AcDbLine
 10
630.9337027591652
 20
125.2448741946034
 30
0.0
 11
1430.933702759165
 21
125.2448741946034
 31
0.0
  0
LINE
  5
7C
330
22
100
AcDbEntity
  8
_F-5_
  6
Continuous
 62
     6
100
AcDbLine
 10
630.9337027591652
 20
165.2448741946034
 30
0.0
 11
1430.933702759165
 21
165.2448741946034
 31
0.0
  0
LINE
  5
7D
330
22
100
AcDbEntity
  8
_F-2_
  6
Continuous
 62
     7
100
AcDbLine
 10
920.9337027591651
 20
165.2448741946034
 30
0.0
 11
920.9337027591651
 21
125.2448741946034
 31
0.0
  0
TEXT
  5
7E
330
22
100
AcDbEntity
  8
_F-A_
 62
     7
100
AcDbText
 10
650.9337027591652
 20
135.2448741946034
 30
0.0
 40
20.0
  1
１１０仕様
100
AcDbText
  0
TEXT
  5
7F
330
22
100
AcDbEntity
  8
_F-A_
 62
     7
100
AcDbText
 10
935.9337027591651
 20
135.2448741946034
 30
0.0
 40
17.5
  1
部位：平場
100
AcDbText
  0
TEXT
  5
80
330
22
100
AcDbEntity
  8
_F-A_
 62
     7
100
AcDbText
 10
785.9337027591651
 20
135.2448741946034
 30
0.0
 40
17.5
  1
下地：ＡＬＣ
100
AcDbText
  0
LINE
  5
81
330
22
100
AcDbEntity
  8
_F-5_
  6
Continuous
 62
     6
100
AcDbLine
 10
770.9337027591652
 20
805.2448741946033
 30
0.0
 11
770.9337027591652
 21
765.2448741946034
 31
0.0
  0
LINE
  5
82
330
22
100
AcDbEntity
  8
_F-5_
  6
Continuous
 62
     6
100
AcDbLine
 10
770.9337027591652
 20
165.2448741946034
 30
0.0
 11
770.9337027591652
 21
125.2448741946034
 31
0.0
  0
LINE
  5
83
330
22
100
AcDbEntity
  8
_F-5_
  6
Continuous
 62
     6
100
AcDbLine
 10
768.4337027591651
 20
805.2448741946033
 30
0.0
 11
768.4337027591651
 21
765.2448741946034
 31
0.0
  0
LINE
  5
84
330
22
100
AcDbEntity
  8
_F-5_
  6
Continuous
 62
     6
100
AcDbLine
 10
768.4337027591651
 20
165.2448741946034
 30
0.0
 11
768.4337027591651
 21
125.2448741946034
 31
0.0
  0
LINE
  5
85
330
22
100
AcDbEntity
  8
_F-2_
  6
Continuous
 62
     7
100
AcDbLine
 10
1300.933702759165
 20
805.2448741946033
 30
0.0
 11
1300.933702759165
 21
765.2448741946034
 31
0.0
  0
LINE
  5
86
330
22
100
AcDbEntity
  8
_F-2_
  6
Continuous
 62
     7
100
AcDbLine
 10
1195.933702759165
 20
805.2448741946033
 30
0.0
 11
1195.933702759165
 21
765.2448741946034
 31
0.0
  0
TEXT
  5
87
330
22
100
AcDbEntity
  8
_F-A_
 62
     7
100
AcDbText
 10
1210.933702759165
 20
775.2448741946034
 30
0.0
 40
15.0
  1
Ｓ＝１：５
100
AcDbText
  0
TEXT
  5
88
330
22
100
AcDbEntity
  8
_F-A_
 62
     7
100
AcDbText
 10
1315.933702759165
 20
775.2448741946034
 30
0.0
 40
15.0
  1
図番
100
AcDbText
  0
LINE
  5
89
330
22
100
AcDbEntity
  8
_F-2_
  6
Continuous
 62
     7
100
AcDbLine
 10
1300.933702759165
 20
165.2448741946034
 30
0.0
 11
1300.933702759165
 21
125.2448741946034
 31
0.0
  0
LINE
  5
8A
330
22
100
AcDbEntity
  8
_F-2_
  6
Continuous
 62
     7
100
AcDbLine
 10
1195.933702759165
 20
165.2448741946034
 30
0.0
 11
1195.933702759165
 21
125.2448741946034
 31
0.0
  0
TEXT
  5
8B
330
22
100
AcDbEntity
  8
_F-A_
 62
     7
100
AcDbText
 10
1210.933702759165
 20
135.2448741946034
 30
0.0
 40
15.0
  1
Ｓ＝１：５
100
AcDbText
  0
TEXT
  5
8C
330
22
100
AcDbEntity
  8
_F-A_
 62
     7
100
AcDbText
 10
1315.933702759165
 20
135.2448741946034
 30
0.0
 40
15.0
  1
図番
100
AcDbText
  0
TEXT
  5
8D
330
22
100
AcDbEntity
  8
_F-A_
 62
     7
100
AcDbText
 10
1362.351371483272
 20
775.2448741946034
 30
0.0
 40
15.0
  1
１－１
100
AcDbText
  0
TEXT
  5
8E
330
22
100
AcDbEntity
  8
_F-A_
 62
     7
100
AcDbText
 10
1362.351371483272
 20
135.2448741946034
 30
0.0
 40
15.0
  1
１－２
100
AcDbText
  0
LINE
  5
8F
330
22
100
AcDbEntity
  8
_2-4_OUT_LINE
  6
Continuous
 62
     2
100
AcDbLine
 10
1030.310557812003
 20
1065.184359440531
 30
0.0
 11
1030.310557812003
 21
1060.184359440531
 31
0.0
  0
LINE
  5
90
330
22
100
AcDbEntity
  8
_2-4_OUT_LINE
  6
Continuous
 62
     2
100
AcDbLine
 10
978.9708118498479
 20
1065.184359440531
 30
0.0
 11
1030.310557812003
 21
1065.184359440531
 31
0.0
  0
LINE
  5
91
330
22
100
AcDbEntity
  8
_2-4_OUT_LINE
  6
Continuous
 62
     2
100
AcDbLine
 10
978.9708118498479
 20
1065.184359440531
 30
0.0
 11
970.3105578120027
 21
1060.184359440531
 31
0.0
  0
LINE
  5
92
330
22
100
AcDbEntity
  8
_2-4_OUT_LINE
  6
Continuous
 62
     2
100
AcDbLine
 10
1030.310557812003
 20
1060.184359440531
 30
0.0
 11
1355.933702759165
 21
1060.184359440531
 31
0.0
  0
LINE
  5
93
330
22
100
AcDbEntity
  8
_2-4_OUT_LINE
  6
Continuous
 62
     2
100
AcDbLine
 10
705.9337027591651
 20
1060.184359440531
 30
0.0
 11
970.3105578120027
 21
1060.184359440531
 31
0.0
  0
LINE
  5
94
330
22
100
AcDbEntity
  8
_2-E_CON他
  6
Continuous
 62
     4
100
AcDbLine
 10
1038.439566999731
 20
905.1843594405305
 30
0.0
 11
1188.43956699973
 21
1055.184359440531
 31
0.0
  0
LINE
  5
95
330
22
100
AcDbEntity
  8
_2-E_CON他
  6
Continuous
 62
     4
100
AcDbLine
 10
1045.510634811593
 20
905.1843594405305
 30
0.0
 11
1195.510634811595
 21
1055.184359440531
 31
0.0
  0
LINE
  5
96
330
22
100
AcDbEntity
  8
_2-E_CON他
  6
Continuous
 62
     4
100
AcDbLine
 10
1031.368499187864
 20
905.1843594405305
 30
0.0
 11
1181.368499187864
 21
1055.184359440531
 31
0.0
  0
LINE
  5
97
330
22
100
AcDbEntity
  8
_2-E_CON他
  6
Continuous
 62
     4
100
AcDbLine
 10
705.9337027591651
 20
965.6074273881007
 30
0.0
 11
795.5106348115953
 21
1055.184359440531
 31
0.0
  0
LINE
  5
98
330
22
100
AcDbEntity
  8
_2-E_CON他
  6
Continuous
 62
     4
100
AcDbLine
 10
1231.368499187864
 20
905.1843594405305
 30
0.0
 11
1355.933702759165
 21
1029.749563011832
 31
0.0
  0
LINE
  5
99
330
22
100
AcDbEntity
  8
_2-E_CON他
  6
Continuous
 62
     4
100
AcDbLine
 10
1238.439566999731
 20
905.1843594405305
 30
0.0
 11
1355.933702759165
 21
1022.678495199965
 31
0.0
  0
LINE
  5
9A
330
22
100
AcDbEntity
  8
_2-E_CON他
  6
Continuous
 62
     4
100
AcDbLine
 10
1245.510634811593
 20
905.1843594405305
 30
0.0
 11
1355.933702759165
 21
1015.607427388101
 31
0.0
  0
LINE
  5
9B
330
22
100
AcDbEntity
  8
_2-5_金属
  6
Continuous
 62
     3
100
AcDbLine
 10
1081.715766400829
 20
315.2448741946034
 30
0.0
 11
1081.715766400829
 21
308.2448741946029
 31
0.0
  0
LINE
  5
9C
330
22
100
AcDbEntity
  8
_2-5_金属
  6
Continuous
 62
     3
100
AcDbLine
 10
981.7157664008286
 20
315.2448741946034
 30
0.0
 11
981.7157664008286
 21
308.2448741946029
 31
0.0
  0
LINE
  5
9D
330
22
100
AcDbEntity
  8
_2-5_金属
  6
Continuous
 62
     3
100
AcDbLine
 10
1044.990766400827
 20
308.1698741946036
 30
0.0
 11
1081.715766400829
 21
308.2448741946029
 31
0.0
  0
ARC
  5
9E
330
22
100
AcDbEntity
  8
_2-5_金属
  6
Continuous
 62
     3
100
AcDbCircle
 10
1044.990766400827
 20
297.1698741946045
 30
0.0
 40
11.0
100
AcDbArc
 50
90.0
 51
180.0
  0
ARC
  5
9F
330
22
100
AcDbEntity
  8
_2-5_金属
  6
Continuous
 62
     3
100
AcDbCircle
 10
1018.44076640083
 20
297.2448741946039
 30
0.0
 40
11.0
100
AcDbArc
 50
0.0
 51
90.0
  0
LINE
  5
A0
330
22
100
AcDbEntity
  8
_2-5_金属
  6
Continuous
 62
     3
100
AcDbLine
 10
1018.44076640083
 20
308.2448741946029
 30
0.0
 11
981.7157664008286
 21
308.2448741946029
 31
0.0
  0
LINE
  5
A1
330
22
100
AcDbEntity
  8
_2-5_金属
  6
Continuous
 62
     3
100
AcDbLine
 10
1033.990766400828
 20
215.2448741946034
 30
0.0
 11
1033.990766400828
 21
297.1698741946045
 31
0.0
  0
LINE
  5
A2
330
22
100
AcDbEntity
  8
_2-5_金属
  6
Continuous
 62
     3
100
AcDbLine
 10
1029.440766400829
 20
297.2448741946039
 30
0.0
 11
1029.440766400829
 21
215.2448741946034
 31
0.0
  0
LINE
  5
A3
330
22
100
AcDbEntity
  8
_2-5_金属
  6
Continuous
 62
     3
100
AcDbLine
 10
981.7157664008286
 20
315.2448741946034
 30
0.0
 11
1081.715766400829
 21
315.2448741946034
 31
0.0
  0
LINE
  5
A4
330
22
100
AcDbEntity
  8
_2-E_CON他
  6
Continuous
 62
     4
100
AcDbLine
 10
1046.715766400828
 20
381.2258343255906
 30
0.0
 11
1130.734806269842
 21
465.2448741946034
 31
0.0
  0
LINE
  5
A5
330
22
100
AcDbEntity
  8
_2-E_CON他
  6
Continuous
 62
     4
100
AcDbLine
 10
1046.715766400828
 20
374.1547665137239
 30
0.0
 11
1137.805874081708
 21
465.2448741946034
 31
0.0
  0
POINT
  5
A6
330
22
100
AcDbEntity
  8
_2-D_ハッチ他
 62
     3
100
AcDbPoint
 10
1041.175679638676
 20
459.2858655045493
 30
0.0
  0
POINT
  5
A7
330
22
100
AcDbEntity
  8
_2-D_ハッチ他
 62
     3
100
AcDbPoint
 10
1021.185180358505
 20
461.0707315117053
 30
0.0
  0
POINT
  5
A8
330
22
100
AcDbEntity
  8
_2-D_ハッチ他
 62
     3
100
AcDbPoint
 10
1029.038590790004
 20
448.2196962601697
 30
0.0
  0
POINT
  5
A9
330
22
100
AcDbEntity
  8
_2-D_ハッチ他
 62
     3
100
AcDbPoint
 10
1039.747786832948
 20
434.2977414043376
 30
0.0
  0
POINT
  5
AA
330
22
100
AcDbEntity
  8
_2-D_ハッチ他
 62
     3
100
AcDbPoint
 10
1023.683992768527
 20
429.6570897857272
 30
0.0
  0
POINT
  5
AB
330
22
100
AcDbEntity
  8
_2-D_ハッチ他
 62
     3
100
AcDbPoint
 10
1031.894376401454
 20
413.950268922739
 30
0.0
  0
POINT
  5
AC
330
22
100
AcDbEntity
  8
_2-D_ハッチ他
 62
     3
100
AcDbPoint
 10
1039.390813631518
 20
405.3829120883811
 30
0.0
  0
POINT
  5
AD
330
22
100
AcDbEntity
  8
_2-D_ハッチ他
 62
     3
100
AcDbPoint
 10
1023.327019567096
 20
394.6737160454347
 30
0.0
  0
POINT
  5
AE
330
22
100
AcDbEntity
  8
_2-D_ハッチ他
 62
     3
100
AcDbPoint
 10
1040.461733235814
 20
381.1087343910332
 30
0.0
  0
POINT
  5
AF
330
22
100
AcDbEntity
  8
_2-D_ハッチ他
 62
     3
100
AcDbPoint
 10
1024.754912372822
 20
368.6146723409287
 30
0.0
  0
POINT
  5
B0
330
22
100
AcDbEntity
  8
_2-D_ハッチ他
 62
     3
100
AcDbPoint
 10
1033.322269207182
 20
357.905476297982
 30
0.0
  0
POINT
  5
B1
330
22
100
AcDbEntity
  8
_2-D_ハッチ他
 62
     3
100
AcDbPoint
 10
1041.532652840109
 20
339.6998430249721
 30
0.0
  0
POINT
  5
B2
330
22
100
AcDbEntity
  8
_2-D_ハッチ他
 62
     3
100
AcDbPoint
 10
1023.327019567096
 20
347.553253456466
 30
0.0
  0
POINT
  5
B3
330
22
100
AcDbEntity
  8
_2-D_ハッチ他
 62
     3
100
AcDbPoint
 10
1026.89675158141
 20
325.7778881691399
 30
0.0
  0
POINT
  5
B4
330
22
100
AcDbEntity
  8
_2-D_ハッチ他
 62
     3
100
AcDbPoint
 10
1040.104760034381
 20
319.352370543371
 30
0.0
  0
POINT
  5
B5
330
22
100
AcDbEntity
  8
_2-D_ハッチ他
 62
     3
100
AcDbPoint
 10
1030.82345679716
 20
382.8936003981914
 30
0.0
  0
LINE
  5
B6
330
22
100
AcDbEntity
  8
_2-D_ハッチ他
  6
Continuous
 62
     4
100
AcDbLine
 10
1029.762675855653
 20
215.2448741946034
 30
0.0
 11
1033.99076640083
 21
219.472964739781
 31
0.0
  0
LINE
  5
B7
330
22
100
AcDbEntity
  8
_2-D_ハッチ他
  6
Continuous
 62
     4
100
AcDbLine
 10
1029.440766400829
 20
236.1361681753704
 30
0.0
 11
1033.990766400828
 21
240.6861681753696
 31
0.0
  0
LINE
  5
B8
330
22
100
AcDbEntity
  8
_2-D_ハッチ他
  6
Continuous
 62
     4
100
AcDbLine
 10
1029.440766400829
 20
243.207235987237
 30
0.0
 11
1033.990766400828
 21
247.7572359872363
 31
0.0
  0
LINE
  5
B9
330
22
100
AcDbEntity
  8
_2-D_ハッチ他
  6
Continuous
 62
     4
100
AcDbLine
 10
1029.440766400829
 20
264.4204394228392
 30
0.0
 11
1033.990766400828
 21
268.9704394228386
 31
0.0
  0
LINE
  5
BA
330
22
100
AcDbEntity
  8
_2-D_ハッチ他
  6
Continuous
 62
     4
100
AcDbLine
 10
1073.247908065035
 20
308.2275810870431
 30
0.0
 11
1080.265201172595
 21
315.2448741946034
 31
0.0
  0
LINE
  5
BB
330
22
100
AcDbEntity
  8
_2-D_ハッチ他
  6
Continuous
 62
     4
100
AcDbLine
 10
1029.440766400829
 20
271.4915072347036
 30
0.0
 11
1033.990766400828
 21
276.041507234703
 31
0.0
  0
LINE
  5
BC
330
22
100
AcDbEntity
  8
_2-D_ハッチ他
  6
Continuous
 62
     4
100
AcDbLine
 10
1066.162370128042
 20
308.2131109619161
 30
0.0
 11
1073.194133360729
 21
315.2448741946034
 31
0.0
  0
LINE
  5
BD
330
22
100
AcDbEntity
  8
_2-D_ハッチ他
  6
Continuous
 62
     4
100
AcDbLine
 10
1029.440766400829
 20
292.7047106702946
 30
0.0
 11
1033.991096100188
 21
297.2550403696539
 31
0.0
  0
LINE
  5
BE
330
22
100
AcDbEntity
  8
_2-D_ハッチ他
  6
Continuous
 62
     4
100
AcDbLine
 10
1044.905600225765
 20
308.16954449523
 30
0.0
 11
1051.980929925138
 21
315.2448741946034
 31
0.0
  0
LINE
  5
BF
330
22
100
AcDbEntity
  8
_2-D_ハッチ他
  6
Continuous
 62
     4
100
AcDbLine
 10
1029.199776261943
 20
299.5347883432748
 30
0.0
 11
1044.909862113271
 21
315.2448741946057
 31
0.0
  0
LINE
  5
C0
330
22
100
AcDbEntity
  8
_2-D_ハッチ他
  6
Continuous
 62
     4
100
AcDbLine
 10
1016.696658677673
 20
308.2448741946029
 30
0.0
 11
1023.696658677673
 21
315.2448741946057
 31
0.0
  0
LINE
  5
C1
330
22
100
AcDbEntity
  8
_2-D_ハッチ他
  6
Continuous
 62
     4
100
AcDbLine
 10
1009.625590865815
 20
308.2448741946052
 30
0.0
 11
1016.625590865813
 21
315.2448741946034
 31
0.0
  0
LINE
  5
C2
330
22
100
AcDbEntity
  8
_2-D_ハッチ他
  6
Continuous
 62
     4
100
AcDbLine
 10
988.4123874302156
 20
308.2448741946052
 30
0.0
 11
995.4123874302139
 21
315.2448741946034
 31
0.0
  0
LINE
  5
C3
330
22
100
AcDbEntity
  8
_2-D_ハッチ他
  6
Continuous
 62
     4
100
AcDbLine
 10
981.7157664008286
 20
308.6193209770828
 30
0.0
 11
988.3413196183473
 21
315.2448741946057
 31
0.0
  0
LINE
  5
C4
330
22
100
AcDbEntity
  8
_2-E_CON他
  6
Continuous
 62
     4
100
AcDbLine
 10
911.9105029987199
 20
315.2448741946034
 30
0.0
 11
1016.715766400828
 21
420.0501375967122
 31
0.0
  0
LINE
  5
C5
330
22
100
AcDbEntity
  8
_2-E_CON他
  6
Continuous
 62
     4
100
AcDbLine
 10
918.9815708105866
 20
315.2448741946034
 30
0.0
 11
1016.715766400828
 21
412.9790697848476
 31
0.0
  0
LINE
  5
C6
330
22
100
AcDbEntity
  8
_2-E_CON他
  6
Continuous
 62
     4
100
AcDbLine
 10
711.91050299872
 20
315.2448741946034
 30
0.0
 11
861.9105029987204
 21
465.2448741946034
 31
0.0
  0
LINE
  5
C7
330
22
100
AcDbEntity
  8
_2-E_CON他
  6
Continuous
 62
     4
100
AcDbLine
 10
718.9815708105867
 20
315.2448741946034
 30
0.0
 11
868.9815708105866
 21
465.2448741946034
 31
0.0
  0
LINE
  5
C8
330
22
100
AcDbEntity
  8
_2-E_CON他
  6
Continuous
 62
     4
100
AcDbLine
 10
1180.734806269842
 20
315.2448741946034
 30
0.0
 11
1330.734806269842
 21
465.2448741946034
 31
0.0
  0
LINE
  5
C9
330
22
100
AcDbEntity
  8
_2-E_CON他
  6
Continuous
 62
     4
100
AcDbLine
 10
1187.805874081708
 20
315.2448741946034
 30
0.0
 11
1337.805874081708
 21
465.2448741946034
 31
0.0
  0
LINE
  5
CA
330
22
100
AcDbEntity
  8
_2-A_MOJI
  6
Continuous
 62
     7
100
AcDbLine
 10
1095.748348434712
 20
467.9695535758231
 30
0.0
 11
1137.273216695388
 21
539.8927351809186
 31
0.0
  0
LINE
  5
CB
330
22
100
AcDbEntity
  8
_2-A_MOJI
  6
Continuous
 62
     7
100
AcDbLine
 10
1173.752422249821
 20
539.8927351809186
 30
0.0
 11
1137.273216695388
 21
539.8927351809186
 31
0.0
  0
LINE
  5
CC
330
22
100
AcDbEntity
  8
_2-A_MOJI
  6
Continuous
 62
     7
100
AcDbLine
 10
1173.752422249821
 20
614.8927351809183
 30
0.0
 11
1126.013346231039
 21
614.8927351809183
 31
0.0
  0
TEXT
  5
CD
330
22
100
AcDbEntity
  8
_2-A_MOJI
 62
     7
100
AcDbText
 10
1183.752422249821
 20
532.3927351809186
 30
0.0
 40
15.0
  1
塩ビシート 接着工法
100
AcDbText
  0
TEXT
  5
CE
330
22
100
AcDbEntity
  8
_2-A_MOJI
 62
     7
100
AcDbText
 10
1183.752422249821
 20
607.3927351809185
 30
0.0
 40
15.0
  1
プルーフセメントＮＲの上、
100
AcDbText
  0
LINE
  5
CF
330
22
100
AcDbEntity
  8
_2-3_
  6
Continuous
 62
     3
100
AcDbLine
 10
705.9337027591651
 20
905.1843594405305
 30
0.0
 11
1355.933702759165
 21
905.1843594405305
 31
0.0
  0
LINE
  5
D0
330
22
100
AcDbEntity
  8
_2-3_
  6
Continuous
 62
     3
100
AcDbLine
 10
1081.715766400829
 20
315.2448741946034
 30
0.0
 11
1355.933702759165
 21
315.2448741946034
 31
0.0
  0
LINE
  5
D1
330
22
100
AcDbEntity
  8
_2-3_
  6
Continuous
 62
     3
100
AcDbLine
 10
705.9337027591651
 20
315.2448741946034
 30
0.0
 11
981.7157664008286
 21
315.2448741946034
 31
0.0
  0
LINE
  5
D2
330
22
100
AcDbEntity
  8
_2-4_OUT_LINE
  6
Continuous
 62
     2
100
AcDbLine
 10
996.7157664008285
 20
467.2448741946038
 30
0.0
 11
1066.715766400828
 21
467.2448741946038
 31
0.0
  0
LINE
  5
D3
330
22
100
AcDbEntity
  8
_2-4_OUT_LINE
  6
Continuous
 62
     2
100
AcDbLine
 10
986.7157664008287
 20
466.2448741946048
 30
0.0
 11
1076.715766400829
 21
466.2448741946048
 31
0.0
  0
LINE
  5
D4
330
22
100
AcDbEntity
  8
_2-4_OUT_LINE
  6
Continuous
 62
     2
100
AcDbLine
 10
705.9337027591651
 20
470.2448741946033
 30
0.0
 11
1355.933702759165
 21
470.2448741946033
 31
0.0
  0
LINE
  5
D5
330
22
100
AcDbEntity
  8
_2-A_MOJI
  6
Continuous
 62
     7
100
AcDbLine
 10
1040.191463676127
 20
466.2448741946048
 30
0.0
 11
1126.013346231039
 21
614.8927351809183
 31
0.0
  0
TEXT
  5
D6
330
22
100
AcDbEntity
  8
_2-A_MOJI
 62
     7
100
AcDbText
 10
1151.928325693578
 20
1115.473238060769
 30
0.0
 40
15.0
  1
塩ビシート 接着工法
100
AcDbText
  0
TEXT
  5
D7
330
22
100
AcDbEntity
  8
_2-A_MOJI
 62
     7
100
AcDbText
 10
875.1491598775999
 20
1140.473238060768
 30
0.0
 40
15.0
  1
塩ビシート 接着工法
100
AcDbText
  0
TEXT
  5
D8
330
22
100
AcDbEntity
  8
_2-A_MOJI
 62
     7
100
AcDbText
 10
1151.928325693578
 20
1140.473238060768
 30
0.0
 40
15.0
  1
プルーフシーラー
100
AcDbText
  0
LINE
  5
D9
330
22
100
AcDbEntity
  8
_2-A_MOJI
  6
Continuous
 62
     7
100
AcDbLine
 10
1141.928325693578
 20
1122.973238060768
 30
0.0
 11
1108.693095962311
 21
1122.973238060768
 31
0.0
  0
LINE
  5
DA
330
22
100
AcDbEntity
  8
_2-A_MOJI
  6
Continuous
 62
     7
100
AcDbLine
 10
1071.315441032369
 20
1058.233240654332
 30
0.0
 11
1108.693095962311
 21
1122.973238060768
 31
0.0
  0
LINE
  5
DB
330
22
100
AcDbEntity
  8
_2-A_MOJI
  6
Continuous
 62
     7
100
AcDbLine
 10
1141.928325693578
 20
1147.973238060768
 30
0.0
 11
1077.607754639267
 21
1147.973238060768
 31
0.0
  0
LINE
  5
DC
330
22
100
AcDbEntity
  8
_2-A_MOJI
  6
Continuous
 62
     7
100
AcDbLine
 10
1031.754708140714
 20
1068.55343184346
 30
0.0
 11
1077.607754639267
 21
1147.973238060768
 31
0.0
  0
LINE
  5
DD
330
22
100
AcDbEntity
  8
_2-A_MOJI
  6
Continuous
 62
     7
100
AcDbLine
 10
865.1491598775999
 20
1147.973238060768
 30
0.0
 11
837.8438867944295
 21
1147.973238060768
 31
0.0
  0
LINE
  5
DE
330
22
100
AcDbEntity
  8
_2-A_MOJI
  6
Continuous
 62
     7
100
AcDbLine
 10
786.3634954214774
 20
1058.806584609284
 30
0.0
 11
837.8438867944295
 21
1147.973238060768
 31
0.0
  0
LINE
  5
DF
330
22
100
AcDbEntity
  8
_2-B_DIM
  6
Continuous
 62
     7
100
AcDbLine
 10
1030.310557812003
 20
1044.132195342817
 30
0.0
 11
1030.310557812003
 21
1004.101825629897
 31
0.0
  0
POINT
  5
E0
330
22
100
AcDbEntity
  8
_2-B_DIM
 62
     1
100
AcDbPoint
 10
1030.310557812003
 20
1004.101825629897
 30
0.0
  0
LINE
  5
E1
330
22
100
AcDbEntity
  8
_2-B_DIM
  6
Continuous
 62
     7
100
AcDbLine
 10
980.3105578120025
 20
1004.101825629897
 30
0.0
 11
1030.310557812003
 21
1004.101825629897
 31
0.0
  0
POINT
  5
E2
330
22
100
AcDbEntity
  8
_2-B_DIM
 62
     1
100
AcDbPoint
 10
980.3105578120025
 20
1004.101825629897
 30
0.0
  0
LINE
  5
E3
330
22
100
AcDbEntity
  8
_2-B_DIM
  6
Continuous
 62
     7
100
AcDbLine
 10
980.3105578120025
 20
1044.132195342817
 30
0.0
 11
980.3105578120025
 21
1004.101825629897
 31
0.0
  0
TEXT
  5
E4
330
22
100
AcDbEntity
  8
_2-A_MOJI
 62
     7
100
AcDbText
 10
1183.752422249821
 20
587.3927351809185
 30
0.0
 40
15.0
  1
ロンテープＭ
100
AcDbText
  0
LINE
  5
E5
330
22
100
AcDbEntity
  8
_2-2_IN_LINE
  6
Continuous
 62
     7
100
AcDbLine
 10
980.3105578120025
 20
1060.184359440531
 30
0.0
 11
980.3105578120025
 21
1055.184359440531
 31
0.0
  0
LINE
  5
E6
330
22
100
AcDbEntity
  8
_2-2_IN_LINE
  6
Continuous
 62
     7
100
AcDbLine
 10
980.3105578120025
 20
1060.184359440531
 30
0.0
 11
971.6503037741576
 21
1055.184359440531
 31
0.0
  0
LINE
  5
E7
330
22
100
AcDbEntity
  8
_2-2_IN_LINE
  6
Continuous
 62
     7
100
AcDbLine
 10
1024.313425745071
 20
1065.184359440531
 30
0.0
 11
1024.331644532593
 21
1065.315264387212
 31
0.0
  0
LINE
  5
E8
330
22
100
AcDbEntity
  8
_2-2_IN_LINE
  6
Continuous
 62
     7
100
AcDbLine
 10
1024.331644532593
 20
1065.315264387212
 30
0.0
 11
1024.364711312254
 21
1065.540338322231
 31
0.0
  0
LINE
  5
E9
330
22
100
AcDbEntity
  8
_2-2_IN_LINE
  6
Continuous
 62
     7
100
AcDbLine
 10
1024.364711312254
 20
1065.540338322231
 30
0.0
 11
1024.402375528119
 21
1065.763678232489
 31
0.0
  0
LINE
  5
EA
330
22
100
AcDbEntity
  8
_2-2_IN_LINE
  6
Continuous
 62
     7
100
AcDbLine
 10
1024.402375528119
 20
1065.763678232489
 30
0.0
 11
1024.447546949944
 21
1065.98418663396
 31
0.0
  0
LINE
  5
EB
330
22
100
AcDbEntity
  8
_2-2_IN_LINE
  6
Continuous
 62
     7
100
AcDbLine
 10
1024.447546949944
 20
1065.98418663396
 30
0.0
 11
1024.503135347473
 21
1066.200766042619
 31
0.0
  0
LINE
  5
EC
330
22
100
AcDbEntity
  8
_2-2_IN_LINE
  6
Continuous
 62
     7
100
AcDbLine
 10
1024.503135347473
 20
1066.200766042619
 30
0.0
 11
1024.572050490464
 21
1066.412318974438
 31
0.0
  0
LINE
  5
ED
330
22
100
AcDbEntity
  8
_2-2_IN_LINE
  6
Continuous
 62
     7
100
AcDbLine
 10
1024.572050490464
 20
1066.412318974438
 30
0.0
 11
1024.619274188756
 21
1066.53228407743
 31
0.0
  0
LINE
  5
EE
330
22
100
AcDbEntity
  8
_2-2_IN_LINE
  6
Continuous
 62
     7
100
AcDbLine
 10
1024.619274188756
 20
1066.53228407743
 30
0.0
 11
1024.660215250018
 21
1066.62440091702
 31
0.0
  0
LINE
  5
EF
330
22
100
AcDbEntity
  8
_2-2_IN_LINE
  6
Continuous
 62
     7
100
AcDbLine
 10
1024.660215250018
 20
1066.62440091702
 30
0.0
 11
1024.738630422702
 21
1066.780115220034
 31
0.0
  0
LINE
  5
F0
330
22
100
AcDbEntity
  8
_2-2_IN_LINE
  6
Continuous
 62
     7
100
AcDbLine
 10
1024.738630422702
 20
1066.780115220034
 30
0.0
 11
1024.825737437025
 21
1066.932118822914
 31
0.0
  0
LINE
  5
F1
330
22
100
AcDbEntity
  8
_2-2_IN_LINE
  6
Continuous
 62
     7
100
AcDbLine
 10
1024.825737437025
 20
1066.932118822914
 30
0.0
 11
1024.920122426175
 21
1067.080671338714
 31
0.0
  0
LINE
  5
F2
330
22
100
AcDbEntity
  8
_2-2_IN_LINE
  6
Continuous
 62
     7
100
AcDbLine
 10
1024.920122426175
 20
1067.080671338714
 30
0.0
 11
1025.020371523318
 21
1067.226032380486
 31
0.0
  0
LINE
  5
F3
330
22
100
AcDbEntity
  8
_2-2_IN_LINE
  6
Continuous
 62
     7
100
AcDbLine
 10
1025.020371523318
 20
1067.226032380486
 30
0.0
 11
1025.125070861635
 21
1067.368461561283
 31
0.0
  0
LINE
  5
F4
330
22
100
AcDbEntity
  8
_2-2_IN_LINE
  6
Continuous
 62
     7
100
AcDbLine
 10
1025.125070861635
 20
1067.368461561283
 30
0.0
 11
1025.187278441316
 21
1067.449829408487
 31
0.0
  0
LINE
  5
F5
330
22
100
AcDbEntity
  8
_2-2_IN_LINE
  6
Continuous
 62
     7
100
AcDbLine
 10
1025.187278441316
 20
1067.449829408487
 30
0.0
 11
1025.261494715249
 21
1067.544513001291
 31
0.0
  0
LINE
  5
F6
330
22
100
AcDbEntity
  8
_2-2_IN_LINE
  6
Continuous
 62
     7
100
AcDbLine
 10
1025.261494715249
 20
1067.544513001291
 30
0.0
 11
1025.391719655353
 21
1067.705231795152
 31
0.0
  0
LINE
  5
F7
330
22
100
AcDbEntity
  8
_2-2_IN_LINE
  6
Continuous
 62
     7
100
AcDbLine
 10
1025.391719655353
 20
1067.705231795152
 30
0.0
 11
1025.524571474574
 21
1067.863098557542
 31
0.0
  0
LINE
  5
F8
330
22
100
AcDbEntity
  8
_2-2_IN_LINE
  6
Continuous
 62
     7
100
AcDbLine
 10
1025.524571474574
 20
1067.863098557542
 30
0.0
 11
1025.659769612701
 21
1068.018519051007
 31
0.0
  0
LINE
  5
F9
330
22
100
AcDbEntity
  8
_2-2_IN_LINE
  6
Continuous
 62
     7
100
AcDbLine
 10
1025.659769612701
 20
1068.018519051007
 30
0.0
 11
1025.797033509528
 21
1068.171899038096
 31
0.0
  0
LINE
  5
FA
330
22
100
AcDbEntity
  8
_2-2_IN_LINE
  6
Continuous
 62
     7
100
AcDbLine
 10
1025.797033509528
 20
1068.171899038096
 30
0.0
 11
1025.936082604834
 21
1068.323644281351
 31
0.0
  0
LINE
  5
FB
330
22
100
AcDbEntity
  8
_2-2_IN_LINE
  6
Continuous
 62
     7
100
AcDbLine
 10
1025.936082604834
 20
1068.323644281351
 30
0.0
 11
1026.017438502748
 21
1068.411067374358
 31
0.0
  0
LINE
  5
FC
330
22
100
AcDbEntity
  8
_2-2_IN_LINE
  6
Continuous
 62
     7
100
AcDbLine
 10
1026.017438502748
 20
1068.411067374358
 30
0.0
 11
1026.103073576163
 21
1068.502137548756
 31
0.0
  0
LINE
  5
FD
330
22
100
AcDbEntity
  8
_2-2_IN_LINE
  6
Continuous
 62
     7
100
AcDbLine
 10
1026.103073576163
 20
1068.502137548756
 30
0.0
 11
1026.252270934468
 21
1068.65783929759
 31
0.0
  0
LINE
  5
FE
330
22
100
AcDbEntity
  8
_2-2_IN_LINE
  6
Continuous
 62
     7
100
AcDbLine
 10
1026.252270934468
 20
1068.65783929759
 30
0.0
 11
1026.40402114804
 21
1068.811185275989
 31
0.0
  0
LINE
  5
FF
330
22
100
AcDbEntity
  8
_2-2_IN_LINE
  6
Continuous
 62
     7
100
AcDbLine
 10
1026.40402114804
 20
1068.811185275989
 30
0.0
 11
1026.559010227541
 21
1068.961372914908
 31
0.0
  0
LINE
  5
100
330
22
100
AcDbEntity
  8
_2-2_IN_LINE
  6
Continuous
 62
     7
100
AcDbLine
 10
1026.559010227541
 20
1068.961372914908
 30
0.0
 11
1026.717924183648
 21
1069.107599645307
 31
0.0
  0
LINE
  5
101
330
22
100
AcDbEntity
  8
_2-2_IN_LINE
  6
Continuous
 62
     7
100
AcDbLine
 10
1026.717924183648
 20
1069.107599645307
 30
0.0
 11
1026.881449027031
 21
1069.249062898135
 31
0.0
  0
LINE
  5
102
330
22
100
AcDbEntity
  8
_2-2_IN_LINE
  6
Continuous
 62
     7
100
AcDbLine
 10
1026.881449027031
 20
1069.249062898135
 30
0.0
 11
1026.978676468619
 21
1069.328612705416
 31
0.0
  0
LINE
  5
103
330
22
100
AcDbEntity
  8
_2-2_IN_LINE
  6
Continuous
 62
     7
100
AcDbLine
 10
1026.978676468619
 20
1069.328612705416
 30
0.0
 11
1027.06633016816
 21
1069.397338057912
 31
0.0
  0
LINE
  5
104
330
22
100
AcDbEntity
  8
_2-2_IN_LINE
  6
Continuous
 62
     7
100
AcDbLine
 10
1027.06633016816
 20
1069.397338057912
 30
0.0
 11
1027.220943268079
 21
1069.51155082571
 31
0.0
  0
LINE
  5
105
330
22
100
AcDbEntity
  8
_2-2_IN_LINE
  6
Continuous
 62
     7
100
AcDbLine
 10
1027.220943268079
 20
1069.51155082571
 30
0.0
 11
1027.37990841127
 21
1069.619523514642
 31
0.0
  0
LINE
  5
106
330
22
100
AcDbEntity
  8
_2-2_IN_LINE
  6
Continuous
 62
     7
100
AcDbLine
 10
1027.37990841127
 20
1069.619523514642
 30
0.0
 11
1027.543155068496
 21
1069.720298746068
 31
0.0
  0
LINE
  5
107
330
22
100
AcDbEntity
  8
_2-2_IN_LINE
  6
Continuous
 62
     7
100
AcDbLine
 10
1027.543155068496
 20
1069.720298746068
 30
0.0
 11
1027.710612710529
 21
1069.812919141355
 31
0.0
  0
LINE
  5
108
330
22
100
AcDbEntity
  8
_2-2_IN_LINE
  6
Continuous
 62
     7
100
AcDbLine
 10
1027.710612710529
 20
1069.812919141355
 30
0.0
 11
1027.882210808133
 21
1069.896427321866
 31
0.0
  0
LINE
  5
109
330
22
100
AcDbEntity
  8
_2-2_IN_LINE
  6
Continuous
 62
     7
100
AcDbLine
 10
1027.882210808133
 20
1069.896427321866
 30
0.0
 11
1027.983607069298
 21
1069.940309592788
 31
0.0
  0
LINE
  5
10A
330
22
100
AcDbEntity
  8
_2-2_IN_LINE
  6
Continuous
 62
     7
100
AcDbLine
 10
1027.983607069298
 20
1069.940309592788
 30
0.0
 11
1028.097512562038
 21
1069.984838306051
 31
0.0
  0
LINE
  5
10B
330
22
100
AcDbEntity
  8
_2-2_IN_LINE
  6
Continuous
 62
     7
100
AcDbLine
 10
1028.097512562038
 20
1069.984838306051
 30
0.0
 11
1028.297401019894
 21
1070.052148934464
 31
0.0
  0
LINE
  5
10C
330
22
100
AcDbEntity
  8
_2-2_IN_LINE
  6
Continuous
 62
     7
100
AcDbLine
 10
1028.297401019894
 20
1070.052148934464
 30
0.0
 11
1028.50110311875
 21
1070.108752485963
 31
0.0
  0
LINE
  5
10D
330
22
100
AcDbEntity
  8
_2-2_IN_LINE
  6
Continuous
 62
     7
100
AcDbLine
 10
1028.50110311875
 20
1070.108752485963
 30
0.0
 11
1028.707902195559
 21
1070.156127359692
 31
0.0
  0
LINE
  5
10E
330
22
100
AcDbEntity
  8
_2-2_IN_LINE
  6
Continuous
 62
     7
100
AcDbLine
 10
1028.707902195559
 20
1070.156127359692
 30
0.0
 11
1028.917081587268
 21
1070.195751954803
 31
0.0
  0
LINE
  5
10F
330
22
100
AcDbEntity
  8
_2-2_IN_LINE
  6
Continuous
 62
     7
100
AcDbLine
 10
1028.917081587268
 20
1070.195751954803
 30
0.0
 11
1029.127924630824
 21
1070.229104670437
 31
0.0
  0
LINE
  5
110
330
22
100
AcDbEntity
  8
_2-2_IN_LINE
  6
Continuous
 62
     7
100
AcDbLine
 10
1029.127924630824
 20
1070.229104670437
 30
0.0
 11
1029.250693478856
 21
1070.246158036471
 31
0.0
  0
LINE
  5
111
330
22
100
AcDbEntity
  8
_2-2_IN_LINE
  6
Continuous
 62
     7
100
AcDbLine
 10
1029.250693478856
 20
1070.246158036471
 30
0.0
 11
1029.399150448938
 21
1070.26487503574
 31
0.0
  0
LINE
  5
112
330
22
100
AcDbEntity
  8
_2-2_IN_LINE
  6
Continuous
 62
     7
100
AcDbLine
 10
1029.399150448938
 20
1070.26487503574
 30
0.0
 11
1029.655470714223
 21
1070.291781796828
 31
0.0
  0
LINE
  5
113
330
22
100
AcDbEntity
  8
_2-2_IN_LINE
  6
Continuous
 62
     7
100
AcDbLine
 10
1029.655470714223
 20
1070.291781796828
 30
0.0
 11
1029.911866042806
 21
1070.310640044128
 31
0.0
  0
LINE
  5
114
330
22
100
AcDbEntity
  8
_2-2_IN_LINE
  6
Continuous
 62
     7
100
AcDbLine
 10
1029.911866042806
 20
1070.310640044128
 30
0.0
 11
1030.167893879437
 21
1070.319986135315
 31
0.0
  0
LINE
  5
115
330
22
100
AcDbEntity
  8
_2-2_IN_LINE
  6
Continuous
 62
     7
100
AcDbLine
 10
1030.167893879437
 20
1070.319986135315
 30
0.0
 11
1030.423111668868
 21
1070.318356428068
 31
0.0
  0
LINE
  5
116
330
22
100
AcDbEntity
  8
_2-2_IN_LINE
  6
Continuous
 62
     7
100
AcDbLine
 10
1030.423111668868
 20
1070.318356428068
 30
0.0
 11
1030.677076855862
 21
1070.304287280065
 31
0.0
  0
LINE
  5
117
330
22
100
AcDbEntity
  8
_2-2_IN_LINE
  6
Continuous
 62
     7
100
AcDbLine
 10
1030.677076855862
 20
1070.304287280065
 30
0.0
 11
1030.823628332096
 21
1070.289850671285
 31
0.0
  0
LINE
  5
118
330
22
100
AcDbEntity
  8
_2-2_IN_LINE
  6
Continuous
 62
     7
100
AcDbLine
 10
1030.823628332096
 20
1070.289850671285
 30
0.0
 11
1030.930972523664
 21
1070.276160885199
 31
0.0
  0
LINE
  5
119
330
22
100
AcDbEntity
  8
_2-2_IN_LINE
  6
Continuous
 62
     7
100
AcDbLine
 10
1030.930972523664
 20
1070.276160885199
 30
0.0
 11
1031.115422584433
 21
1070.247201253959
 31
0.0
  0
LINE
  5
11A
330
22
100
AcDbEntity
  8
_2-2_IN_LINE
  6
Continuous
 62
     7
100
AcDbLine
 10
1031.115422584433
 20
1070.247201253959
 30
0.0
 11
1031.299393441874
 21
1070.21288577242
 31
0.0
  0
LINE
  5
11B
330
22
100
AcDbEntity
  8
_2-2_IN_LINE
  6
Continuous
 62
     7
100
AcDbLine
 10
1031.299393441874
 20
1070.21288577242
 30
0.0
 11
1031.483249477732
 21
1070.174870946392
 31
0.0
  0
LINE
  5
11C
330
22
100
AcDbEntity
  8
_2-2_IN_LINE
  6
Continuous
 62
     7
100
AcDbLine
 10
1031.483249477732
 20
1070.174870946392
 30
0.0
 11
1031.667355073754
 21
1070.134813281687
 31
0.0
  0
LINE
  5
11D
330
22
100
AcDbEntity
  8
_2-2_IN_LINE
  6
Continuous
 62
     7
100
AcDbLine
 10
1031.667355073754
 20
1070.134813281687
 30
0.0
 11
1031.85207461168
 21
1070.09436928411
 31
0.0
  0
LINE
  5
11E
330
22
100
AcDbEntity
  8
_2-2_IN_LINE
  6
Continuous
 62
     7
100
AcDbLine
 10
1031.85207461168
 20
1070.09436928411
 30
0.0
 11
1031.959636837217
 21
1070.071387497224
 31
0.0
  0
LINE
  5
11F
330
22
100
AcDbEntity
  8
_2-2_IN_LINE
  6
Continuous
 62
     7
100
AcDbLine
 10
1031.959636837217
 20
1070.071387497224
 30
0.0
 11
1032.081748068543
 21
1070.046113775726
 31
0.0
  0
LINE
  5
120
330
22
100
AcDbEntity
  8
_2-2_IN_LINE
  6
Continuous
 62
     7
100
AcDbLine
 10
1032.081748068543
 20
1070.046113775726
 30
0.0
 11
1032.292546092107
 21
1070.00276425949
 31
0.0
  0
LINE
  5
121
330
22
100
AcDbEntity
  8
_2-2_IN_LINE
  6
Continuous
 62
     7
100
AcDbLine
 10
1032.292546092107
 20
1070.00276425949
 30
0.0
 11
1032.502251315944
 21
1069.956631101341
 31
0.0
  0
LINE
  5
122
330
22
100
AcDbEntity
  8
_2-2_IN_LINE
  6
Continuous
 62
     7
100
AcDbLine
 10
1032.502251315944
 20
1069.956631101341
 30
0.0
 11
1032.709208265213
 21
1069.904145059639
 31
0.0
  0
LINE
  5
123
330
22
100
AcDbEntity
  8
_2-2_IN_LINE
  6
Continuous
 62
     7
100
AcDbLine
 10
1032.709208265213
 20
1069.904145059639
 30
0.0
 11
1032.911761465069
 21
1069.841736892739
 31
0.0
  0
LINE
  5
124
330
22
100
AcDbEntity
  8
_2-2_IN_LINE
  6
Continuous
 62
     7
100
AcDbLine
 10
1032.911761465069
 20
1069.841736892739
 30
0.0
 11
1033.108255440669
 21
1069.765837359006
 31
0.0
  0
LINE
  5
125
330
22
100
AcDbEntity
  8
_2-2_IN_LINE
  6
Continuous
 62
     7
100
AcDbLine
 10
1033.108255440669
 20
1069.765837359006
 30
0.0
 11
1033.218793266786
 21
1069.71422741835
 31
0.0
  0
LINE
  5
126
330
22
100
AcDbEntity
  8
_2-2_IN_LINE
  6
Continuous
 62
     7
100
AcDbLine
 10
1033.218793266786
 20
1069.71422741835
 30
0.0
 11
1033.318115497967
 21
1069.661141946425
 31
0.0
  0
LINE
  5
127
330
22
100
AcDbEntity
  8
_2-2_IN_LINE
  6
Continuous
 62
     7
100
AcDbLine
 10
1033.318115497967
 20
1069.661141946425
 30
0.0
 11
1033.483539413158
 21
1069.557855665326
 31
0.0
  0
LINE
  5
128
330
22
100
AcDbEntity
  8
_2-2_IN_LINE
  6
Continuous
 62
     7
100
AcDbLine
 10
1033.483539413158
 20
1069.557855665326
 30
0.0
 11
1033.641590984515
 21
1069.441306033594
 31
0.0
  0
LINE
  5
129
330
22
100
AcDbEntity
  8
_2-2_IN_LINE
  6
Continuous
 62
     7
100
AcDbLine
 10
1033.641590984515
 20
1069.441306033594
 30
0.0
 11
1033.792266030935
 21
1069.313379360279
 31
0.0
  0
LINE
  5
12A
330
22
100
AcDbEntity
  8
_2-2_IN_LINE
  6
Continuous
 62
     7
100
AcDbLine
 10
1033.792266030935
 20
1069.313379360279
 30
0.0
 11
1033.9355603713
 21
1069.175961954432
 31
0.0
  0
LINE
  5
12B
330
22
100
AcDbEntity
  8
_2-2_IN_LINE
  6
Continuous
 62
     7
100
AcDbLine
 10
1033.9355603713
 20
1069.175961954432
 30
0.0
 11
1034.071469824506
 21
1069.030940125104
 31
0.0
  0
LINE
  5
12C
330
22
100
AcDbEntity
  8
_2-2_IN_LINE
  6
Continuous
 62
     7
100
AcDbLine
 10
1034.071469824506
 20
1069.030940125104
 30
0.0
 11
1034.146911904489
 21
1068.944086421105
 31
0.0
  0
LINE
  5
12D
330
22
100
AcDbEntity
  8
_2-2_IN_LINE
  6
Continuous
 62
     7
100
AcDbLine
 10
1034.146911904489
 20
1068.944086421105
 30
0.0
 11
1034.231206928861
 21
1068.841519033116
 31
0.0
  0
LINE
  5
12E
330
22
100
AcDbEntity
  8
_2-2_IN_LINE
  6
Continuous
 62
     7
100
AcDbLine
 10
1034.231206928861
 20
1068.841519033116
 30
0.0
 11
1034.369378788132
 21
1068.660234023379
 31
0.0
  0
LINE
  5
12F
330
22
100
AcDbEntity
  8
_2-2_IN_LINE
  6
Continuous
 62
     7
100
AcDbLine
 10
1034.369378788132
 20
1068.660234023379
 30
0.0
 11
1034.49948905515
 21
1068.474009348759
 31
0.0
  0
LINE
  5
130
330
22
100
AcDbEntity
  8
_2-2_IN_LINE
  6
Continuous
 62
     7
100
AcDbLine
 10
1034.49948905515
 20
1068.474009348759
 30
0.0
 11
1034.622708957134
 21
1068.28364328767
 31
0.0
  0
LINE
  5
131
330
22
100
AcDbEntity
  8
_2-2_IN_LINE
  6
Continuous
 62
     7
100
AcDbLine
 10
1034.622708957134
 20
1068.28364328767
 30
0.0
 11
1034.740209721306
 21
1068.089934118526
 31
0.0
  0
LINE
  5
132
330
22
100
AcDbEntity
  8
_2-2_IN_LINE
  6
Continuous
 62
     7
100
AcDbLine
 10
1034.740209721306
 20
1068.089934118526
 30
0.0
 11
1034.853162574874
 21
1067.893680119742
 31
0.0
  0
LINE
  5
133
330
22
100
AcDbEntity
  8
_2-2_IN_LINE
  6
Continuous
 62
     7
100
AcDbLine
 10
1034.853162574874
 20
1067.893680119742
 30
0.0
 11
1034.917052901731
 21
1067.779001322714
 31
0.0
  0
LINE
  5
134
330
22
100
AcDbEntity
  8
_2-2_IN_LINE
  6
Continuous
 62
     7
100
AcDbLine
 10
1034.917052901731
 20
1067.779001322714
 30
0.0
 11
1034.98432026924
 21
1067.655934730577
 31
0.0
  0
LINE
  5
135
330
22
100
AcDbEntity
  8
_2-2_IN_LINE
  6
Continuous
 62
     7
100
AcDbLine
 10
1034.98432026924
 20
1067.655934730577
 30
0.0
 11
1035.098301510446
 21
1067.442727974209
 31
0.0
  0
LINE
  5
136
330
22
100
AcDbEntity
  8
_2-2_IN_LINE
  6
Continuous
 62
     7
100
AcDbLine
 10
1035.098301510446
 20
1067.442727974209
 30
0.0
 11
1035.210416058811
 21
1067.228430974672
 31
0.0
  0
LINE
  5
137
330
22
100
AcDbEntity
  8
_2-2_IN_LINE
  6
Continuous
 62
     7
100
AcDbLine
 10
1035.210416058811
 20
1067.228430974672
 30
0.0
 11
1035.32143266806
 21
1067.013281713599
 31
0.0
  0
LINE
  5
138
330
22
100
AcDbEntity
  8
_2-2_IN_LINE
  6
Continuous
 62
     7
100
AcDbLine
 10
1035.32143266806
 20
1067.013281713599
 30
0.0
 11
1035.432120091917
 21
1066.797518172617
 31
0.0
  0
LINE
  5
139
330
22
100
AcDbEntity
  8
_2-2_IN_LINE
  6
Continuous
 62
     7
100
AcDbLine
 10
1035.432120091917
 20
1066.797518172617
 30
0.0
 11
1035.543247084114
 21
1066.581378333361
 31
0.0
  0
LINE
  5
13A
330
22
100
AcDbEntity
  8
_2-2_IN_LINE
  6
Continuous
 62
     7
100
AcDbLine
 10
1035.543247084114
 20
1066.581378333361
 30
0.0
 11
1035.608205078746
 21
1066.455938583862
 31
0.0
  0
LINE
  5
13B
330
22
100
AcDbEntity
  8
_2-2_IN_LINE
  6
Continuous
 62
     7
100
AcDbLine
 10
1035.608205078746
 20
1066.455938583862
 30
0.0
 11
1035.696618532921
 21
1066.287110400855
 31
0.0
  0
LINE
  5
13C
330
22
100
AcDbEntity
  8
_2-2_IN_LINE
  6
Continuous
 62
     7
100
AcDbLine
 10
1035.696618532921
 20
1066.287110400855
 30
0.0
 11
1035.85312334885
 21
1065.997714634967
 31
0.0
  0
LINE
  5
13D
330
22
100
AcDbEntity
  8
_2-2_IN_LINE
  6
Continuous
 62
     7
100
AcDbLine
 10
1035.85312334885
 20
1065.997714634967
 30
0.0
 11
1036.017344942078
 21
1065.713006458717
 31
0.0
  0
LINE
  5
13E
330
22
100
AcDbEntity
  8
_2-2_IN_LINE
  6
Continuous
 62
     7
100
AcDbLine
 10
1036.017344942078
 20
1065.713006458717
 30
0.0
 11
1036.192268929466
 21
1065.435953030697
 31
0.0
  0
LINE
  5
13F
330
22
100
AcDbEntity
  8
_2-2_IN_LINE
  6
Continuous
 62
     7
100
AcDbLine
 10
1036.192268929466
 20
1065.435953030697
 30
0.0
 11
1036.380880927864
 21
1065.169521509511
 31
0.0
  0
LINE
  5
140
330
22
100
AcDbEntity
  8
_2-2_IN_LINE
  6
Continuous
 62
     7
100
AcDbLine
 10
1036.380880927864
 20
1065.169521509511
 30
0.0
 11
1036.58616655414
 21
1064.916679053754
 31
0.0
  0
LINE
  5
141
330
22
100
AcDbEntity
  8
_2-2_IN_LINE
  6
Continuous
 62
     7
100
AcDbLine
 10
1036.58616655414
 20
1064.916679053754
 30
0.0
 11
1036.714048561965
 21
1064.777426153974
 31
0.0
  0
LINE
  5
142
330
22
100
AcDbEntity
  8
_2-2_IN_LINE
  6
Continuous
 62
     7
100
AcDbLine
 10
1036.714048561965
 20
1064.777426153974
 30
0.0
 11
1036.760263734271
 21
1064.730321148064
 31
0.0
  0
LINE
  5
143
330
22
100
AcDbEntity
  8
_2-2_IN_LINE
  6
Continuous
 62
     7
100
AcDbLine
 10
1036.760263734271
 20
1064.730321148064
 30
0.0
 11
1036.841962995812
 21
1064.650976053027
 31
0.0
  0
LINE
  5
144
330
22
100
AcDbEntity
  8
_2-2_IN_LINE
  6
Continuous
 62
     7
100
AcDbLine
 10
1036.841962995812
 20
1064.650976053027
 30
0.0
 11
1036.926165388142
 21
1064.574175943586
 31
0.0
  0
LINE
  5
145
330
22
100
AcDbEntity
  8
_2-2_IN_LINE
  6
Continuous
 62
     7
100
AcDbLine
 10
1036.926165388142
 20
1064.574175943586
 30
0.0
 11
1037.012811363637
 21
1064.500127040261
 31
0.0
  0
LINE
  5
146
330
22
100
AcDbEntity
  8
_2-2_IN_LINE
  6
Continuous
 62
     7
100
AcDbLine
 10
1037.012811363637
 20
1064.500127040261
 30
0.0
 11
1037.101841374673
 21
1064.42903556357
 31
0.0
  0
LINE
  5
147
330
22
100
AcDbEntity
  8
_2-2_IN_LINE
  6
Continuous
 62
     7
100
AcDbLine
 10
1037.101841374673
 20
1064.42903556357
 30
0.0
 11
1037.193195873622
 21
1064.36110773404
 31
0.0
  0
LINE
  5
148
330
22
100
AcDbEntity
  8
_2-2_IN_LINE
  6
Continuous
 62
     7
100
AcDbLine
 10
1037.193195873622
 20
1064.36110773404
 30
0.0
 11
1037.247223098519
 21
1064.323240437651
 31
0.0
  0
LINE
  5
149
330
22
100
AcDbEntity
  8
_2-2_IN_LINE
  6
Continuous
 62
     7
100
AcDbLine
 10
1037.247223098519
 20
1064.323240437651
 30
0.0
 11
1037.336824509606
 21
1064.263947747273
 31
0.0
  0
LINE
  5
14A
330
22
100
AcDbEntity
  8
_2-2_IN_LINE
  6
Continuous
 62
     7
100
AcDbLine
 10
1037.336824509606
 20
1064.263947747273
 30
0.0
 11
1037.495015953776
 21
1064.167534483077
 31
0.0
  0
LINE
  5
14B
330
22
100
AcDbEntity
  8
_2-2_IN_LINE
  6
Continuous
 62
     7
100
AcDbLine
 10
1037.495015953776
 20
1064.167534483077
 30
0.0
 11
1037.656427240809
 21
1064.076206074006
 31
0.0
  0
LINE
  5
14C
330
22
100
AcDbEntity
  8
_2-2_IN_LINE
  6
Continuous
 62
     7
100
AcDbLine
 10
1037.656427240809
 20
1064.076206074006
 30
0.0
 11
1037.819347189103
 21
1063.987315365556
 31
0.0
  0
LINE
  5
14D
330
22
100
AcDbEntity
  8
_2-2_IN_LINE
  6
Continuous
 62
     7
100
AcDbLine
 10
1037.819347189103
 20
1063.987315365556
 30
0.0
 11
1037.982064617057
 21
1063.89821520322
 31
0.0
  0
LINE
  5
14E
330
22
100
AcDbEntity
  8
_2-2_IN_LINE
  6
Continuous
 62
     7
100
AcDbLine
 10
1037.982064617057
 20
1063.89821520322
 30
0.0
 11
1038.142868343069
 21
1063.806258432495
 31
0.0
  0
LINE
  5
14F
330
22
100
AcDbEntity
  8
_2-2_IN_LINE
  6
Continuous
 62
     7
100
AcDbLine
 10
1038.142868343069
 20
1063.806258432495
 30
0.0
 11
1038.234583351394
 21
1063.750571490983
 31
0.0
  0
LINE
  5
150
330
22
100
AcDbEntity
  8
_2-2_IN_LINE
  6
Continuous
 62
     7
100
AcDbLine
 10
1038.234583351394
 20
1063.750571490983
 30
0.0
 11
1038.326994343792
 21
1063.69120672111
 31
0.0
  0
LINE
  5
151
330
22
100
AcDbEntity
  8
_2-2_IN_LINE
  6
Continuous
 62
     7
100
AcDbLine
 10
1038.326994343792
 20
1063.69120672111
 30
0.0
 11
1038.482937345946
 21
1063.583704959343
 31
0.0
  0
LINE
  5
152
330
22
100
AcDbEntity
  8
_2-2_IN_LINE
  6
Continuous
 62
     7
100
AcDbLine
 10
1038.482937345946
 20
1063.583704959343
 30
0.0
 11
1038.635259888168
 21
1063.470721769375
 31
0.0
  0
LINE
  5
153
330
22
100
AcDbEntity
  8
_2-2_IN_LINE
  6
Continuous
 62
     7
100
AcDbLine
 10
1038.635259888168
 20
1063.470721769375
 30
0.0
 11
1038.784736376904
 21
1063.35346171698
 31
0.0
  0
LINE
  5
154
330
22
100
AcDbEntity
  8
_2-2_IN_LINE
  6
Continuous
 62
     7
100
AcDbLine
 10
1038.784736376904
 20
1063.35346171698
 30
0.0
 11
1038.932141218596
 21
1063.23312936793
 31
0.0
  0
LINE
  5
155
330
22
100
AcDbEntity
  8
_2-2_IN_LINE
  6
Continuous
 62
     7
100
AcDbLine
 10
1038.932141218596
 20
1063.23312936793
 30
0.0
 11
1039.078248819693
 21
1063.110929288006
 31
0.0
  0
LINE
  5
156
330
22
100
AcDbEntity
  8
_2-2_IN_LINE
  6
Continuous
 62
     7
100
AcDbLine
 10
1039.078248819693
 20
1063.110929288006
 30
0.0
 11
1039.162701989097
 21
1063.039672108913
 31
0.0
  0
LINE
  5
157
330
22
100
AcDbEntity
  8
_2-2_IN_LINE
  6
Continuous
 62
     7
100
AcDbLine
 10
1039.162701989097
 20
1063.039672108913
 30
0.0
 11
1039.268543852714
 21
1062.950191525013
 31
0.0
  0
LINE
  5
158
330
22
100
AcDbEntity
  8
_2-2_IN_LINE
  6
Continuous
 62
     7
100
AcDbLine
 10
1039.268543852714
 20
1062.950191525013
 30
0.0
 11
1039.450116631022
 21
1062.795108471217
 31
0.0
  0
LINE
  5
159
330
22
100
AcDbEntity
  8
_2-2_IN_LINE
  6
Continuous
 62
     7
100
AcDbLine
 10
1039.450116631022
 20
1062.795108471217
 30
0.0
 11
1039.629291283648
 21
1062.637719302976
 31
0.0
  0
LINE
  5
15A
330
22
100
AcDbEntity
  8
_2-2_IN_LINE
  6
Continuous
 62
     7
100
AcDbLine
 10
1039.629291283648
 20
1062.637719302976
 30
0.0
 11
1039.804623409874
 21
1062.47652910505
 31
0.0
  0
LINE
  5
15B
330
22
100
AcDbEntity
  8
_2-2_IN_LINE
  6
Continuous
 62
     7
100
AcDbLine
 10
1039.804623409874
 20
1062.47652910505
 30
0.0
 11
1039.974668608983
 21
1062.3100429622
 31
0.0
  0
LINE
  5
15C
330
22
100
AcDbEntity
  8
_2-2_IN_LINE
  6
Continuous
 62
     7
100
AcDbLine
 10
1039.974668608983
 20
1062.3100429622
 30
0.0
 11
1040.137982480263
 21
1062.13676595919
 31
0.0
  0
LINE
  5
15D
330
22
100
AcDbEntity
  8
_2-2_IN_LINE
  6
Continuous
 62
     7
100
AcDbLine
 10
1040.137982480263
 20
1062.13676595919
 30
0.0
 11
1040.2290510622
 21
1062.03256465098
 31
0.0
  0
LINE
  5
15E
330
22
100
AcDbEntity
  8
_2-2_IN_LINE
  6
Continuous
 62
     7
100
AcDbLine
 10
1040.2290510622
 20
1062.03256465098
 30
0.0
 11
1040.280710334838
 21
1061.970477375458
 31
0.0
  0
LINE
  5
15F
330
22
100
AcDbEntity
  8
_2-2_IN_LINE
  6
Continuous
 62
     7
100
AcDbLine
 10
1040.280710334838
 20
1061.970477375458
 30
0.0
 11
1040.367035445143
 21
1061.861004635619
 31
0.0
  0
LINE
  5
160
330
22
100
AcDbEntity
  8
_2-2_IN_LINE
  6
Continuous
 62
     7
100
AcDbLine
 10
1040.367035445143
 20
1061.861004635619
 30
0.0
 11
1040.449395317276
 21
1061.748503377861
 31
0.0
  0
LINE
  5
161
330
22
100
AcDbEntity
  8
_2-2_IN_LINE
  6
Continuous
 62
     7
100
AcDbLine
 10
1040.449395317276
 20
1061.748503377861
 30
0.0
 11
1040.527216008021
 21
1061.63302244515
 31
0.0
  0
LINE
  5
162
330
22
100
AcDbEntity
  8
_2-2_IN_LINE
  6
Continuous
 62
     7
100
AcDbLine
 10
1040.527216008021
 20
1061.63302244515
 30
0.0
 11
1040.599923574167
 21
1061.514610680457
 31
0.0
  0
LINE
  5
163
330
22
100
AcDbEntity
  8
_2-2_IN_LINE
  6
Continuous
 62
     7
100
AcDbLine
 10
1040.599923574167
 20
1061.514610680457
 30
0.0
 11
1040.666944072494
 21
1061.393316926752
 31
0.0
  0
LINE
  5
164
330
22
100
AcDbEntity
  8
_2-2_IN_LINE
  6
Continuous
 62
     7
100
AcDbLine
 10
1040.666944072494
 20
1061.393316926752
 30
0.0
 11
1040.702983983582
 21
1061.321665268912
 31
0.0
  0
LINE
  5
165
330
22
100
AcDbEntity
  8
_2-2_IN_LINE
  6
Continuous
 62
     7
100
AcDbLine
 10
1040.702983983582
 20
1061.321665268912
 30
0.0
 11
1040.74963583694
 21
1061.22018937786
 31
0.0
  0
LINE
  5
166
330
22
100
AcDbEntity
  8
_2-2_IN_LINE
  6
Continuous
 62
     7
100
AcDbLine
 10
1040.74963583694
 20
1061.22018937786
 30
0.0
 11
1040.821122595288
 21
1061.04142499881
 31
0.0
  0
LINE
  5
167
330
22
100
AcDbEntity
  8
_2-2_IN_LINE
  6
Continuous
 62
     7
100
AcDbLine
 10
1040.821122595288
 20
1061.04142499881
 30
0.0
 11
1040.883073933913
 21
1060.858604580661
 31
0.0
  0
LINE
  5
168
330
22
100
AcDbEntity
  8
_2-2_IN_LINE
  6
Continuous
 62
     7
100
AcDbLine
 10
1040.883073933913
 20
1060.858604580661
 30
0.0
 11
1040.937571822181
 21
1060.672613721471
 31
0.0
  0
LINE
  5
169
330
22
100
AcDbEntity
  8
_2-2_IN_LINE
  6
Continuous
 62
     7
100
AcDbLine
 10
1040.937571822181
 20
1060.672613721471
 30
0.0
 11
1040.98669822947
 21
1060.484338019297
 31
0.0
  0
LINE
  5
16A
330
22
100
AcDbEntity
  8
_2-2_IN_LINE
  6
Continuous
 62
     7
100
AcDbLine
 10
1040.98669822947
 20
1060.484338019297
 30
0.0
 11
1041.032535125147
 21
1060.294663072192
 31
0.0
  0
LINE
  5
16B
330
22
100
AcDbEntity
  8
_2-2_IN_LINE
  6
Continuous
 62
     7
100
AcDbLine
 10
1041.032535125147
 20
1060.294663072192
 30
0.0
 11
1041.058433674614
 21
1060.184359440531
 31
0.0
  0
LINE
  5
16C
330
22
100
AcDbEntity
  8
_2-2_IN_LINE
  6
Continuous
 62
     7
100
AcDbLine
 10
980.3105578120025
 20
1060.184359440531
 30
0.0
 11
1030.310557812003
 21
1060.184359440531
 31
0.0
  0
LINE
  5
16D
330
22
100
AcDbEntity
  8
_2-2_IN_LINE
  6
Continuous
 62
     7
100
AcDbLine
 10
705.9337027591651
 20
1055.184359440531
 30
0.0
 11
1355.933702759165
 21
1055.184359440531
 31
0.0
  0
LINE
  5
16E
330
22
100
AcDbEntity
  8
_2-2_IN_LINE
  6
Continuous
 62
     7
100
AcDbLine
 10
1016.715766400828
 20
455.2448741946033
 30
0.0
 11
1016.715766400828
 21
315.2448741946034
 31
0.0
  0
LINE
  5
16F
330
22
100
AcDbEntity
  8
_2-2_IN_LINE
  6
Continuous
 62
     7
100
AcDbLine
 10
1046.715766400828
 20
455.2448741946033
 30
0.0
 11
1046.715766400828
 21
315.2448741946034
 31
0.0
  0
LINE
  5
170
330
22
100
AcDbEntity
  8
_2-2_IN_LINE
  6
Continuous
 62
     7
100
AcDbLine
 10
1056.715766400828
 20
465.2448741946034
 30
0.0
 11
1046.715766400828
 21
455.2448741946033
 31
0.0
  0
LINE
  5
171
330
22
100
AcDbEntity
  8
_2-2_IN_LINE
  6
Continuous
 62
     7
100
AcDbLine
 10
1016.715766400828
 20
455.2448741946033
 30
0.0
 11
1006.715766400828
 21
465.2448741946034
 31
0.0
  0
LINE
  5
172
330
22
100
AcDbEntity
  8
_2-2_IN_LINE
  6
Continuous
 62
     7
100
AcDbLine
 10
705.9337027591651
 20
465.2448741946034
 30
0.0
 11
1355.933702759165
 21
465.2448741946034
 31
0.0
  0
TEXT
  5
173
330
22
100
AcDbEntity
  8
_2-B_DIM
 62
     7
100
AcDbText
 10
982.5398711938019
 20
1006.601825629896
 30
0.0
 40
15.0
  1
40以上
100
AcDbText
  0
ENDSEC
  0
SECTION
  2
OBJECTS
  0
DICTIONARY
  5
C
330
0
100
AcDbDictionary
281
     1
  3
ACAD_COLOR
350
1B
  3
ACAD_GROUP
350
D
  3
ACAD_LAYOUT
350
19
  3
ACAD_MATERIAL
350
1A
  3
ACAD_MLINESTYLE
350
16
  3
ACAD_PLOTSETTINGS
350
18
  3
ACAD_PLOTSTYLENAME
350
E
  3
ACAD_TABLESTYLE
350
1C
  3
AcDbVariableDictionary
350
176
  0
DICTIONARY
  5
1B
102
{ACAD_REACTORS
330
C
102
}
330
C
100
AcDbDictionary
281
     1
  0
DICTIONARY
  5
D
102
{ACAD_REACTORS
330
C
102
}
330
C
100
AcDbDictionary
281
     1
  0
DICTIONARY
  5
19
102
{ACAD_REACTORS
330
C
102
}
330
C
100
AcDbDictionary
281
     1
  3
Model
350
25
  3
レイアウト1
350
21
  0
DICTIONARY
  5
1A
102
{ACAD_REACTORS
330
C
102
}
330
C
100
AcDbDictionary
281
     1
  0
DICTIONARY
  5
16
102
{ACAD_REACTORS
330
C
102
}
330
C
100
AcDbDictionary
281
     1
  3
Standard
350
17
  0
DICTIONARY
  5
18
102
{ACAD_REACTORS
330
C
102
}
330
C
100
AcDbDictionary
281
     1
  0
ACDBDICTIONARYWDFLT
  5
E
102
{ACAD_REACTORS
330
C
102
}
330
C
100
AcDbDictionary
281
     1
  3
Normal
350
F
100
AcDbDictionaryWithDefault
340
F
  0
DICTIONARY
  5
1C
102
{ACAD_REACTORS
330
C
102
}
330
C
100
AcDbDictionary
281
     1
  3
Standard
350
1D
  0
DICTIONARY
  5
176
102
{ACAD_REACTORS
330
C
102
}
330
C
100
AcDbDictionary
281
     1
  3
CTABLESTYLE
350
177
  3
DIMASSOC
350
178
  3
PROJECTNAME
350
179
  0
LAYOUT
  5
25
102
{ACAD_REACTORS
330
19
102
}
330
19
100
AcDbPlotSettings
  1

  2
PC1665
  4

  6

 40
0.0
 41
0.0
 42
0.0
 43
0.0
 44
0.0
 45
0.0
 46
0.0
 47
0.0
 48
0.0
 49
0.0
140
0.0
141
0.0
142
1.0
143
1.0
 70
  1712
 72
     0
 73
     0
 74
     0
  7

 75
     0
147
1.0
 76
     0
 77
     2
 78
   300
148
0.0
149
0.0
100
AcDbLayout
  1
Model
 70
     1
 71
     0
 10
0.0
 20
0.0
 11
12.0
 21
9.0
 12
0.0
 22
0.0
 32
0.0
 14
0.0
 24
0.0
 34
0.0
 15
0.0
 25
0.0
 35
0.0
146
0.0
 13
0.0
 23
0.0
 33
0.0
 16
1.0
 26
0.0
 36
0.0
 17
0.0
 27
1.0
 37
0.0
 76
     0
330
22
  0
LAYOUT
  5
21
102
{ACAD_REACTORS
330
19
102
}
330
19
100
AcDbPlotSettings
  1

  2
PC1665
  4

  6

 40
0.0
 41
0.0
 42
0.0
 43
0.0
 44
0.0
 45
0.0
 46
0.0
 47
0.0
 48
0.0
 49
0.0
140
0.0
141
0.0
142
1.0
143
1.0
 70
   688
 72
     0
 73
     0
 74
     5
  7

 75
    16
147
1.0
 76
     0
 77
     2
 78
   300
148
0.0
149
0.0
100
AcDbLayout
  1
レイアウト1
 70
     1
 71
     1
 10
0.0
 20
0.0
 11
12.0
 21
9.0
 12
0.0
 22
0.0
 32
0.0
 14
1.000000000000000E+20
 24
1.000000000000000E+20
 34
1.000000000000000E+20
 15
-1.000000000000000E+20
 25
-1.000000000000000E+20
 35
-1.000000000000000E+20
146
0.0
 13
0.0
 23
0.0
 33
0.0
 16
1.0
 26
0.0
 36
0.0
 17
0.0
 27
1.0
 37
0.0
 76
     0
330
1E
  0
MLINESTYLE
  5
17
102
{ACAD_REACTORS
330
16
102
}
330
16
100
AcDbMlineStyle
  2
STANDARD
 70
     0
  3

 62
   256
 51
90.0
 52
90.0
 71
     2
 49
0.5
 62
   256
  6
BYLAYER
 49
-0.5
 62
   256
  6
BYLAYER
  0
ACDBPLACEHOLDER
  5
F
102
{ACAD_REACTORS
330
E
102
}
330
E
  0
TABLESTYLE
  5
1D
102
{ACAD_REACTORS
330
1C
102
}
330
1C
100
AcDbTableStyle
  3
Standard
 70
     0
 71
     0
 40
0.06
 41
0.06
280
     0
281
     0
  7
STANDARD
140
0.18
170
     2
 62
     0
 63
     7
283
     0
274
    -2
284
     1
 64
     0
275
    -2
285
     1
 65
     0
276
    -2
286
     1
 66
     0
277
    -2
287
     1
 67
     0
278
    -2
288
     1
 68
     0
279
    -2
289
     1
 69
     0
  7
STANDARD
140
0.25
170
     5
 62
     0
 63
     7
283
     0
274
    -2
284
     1
 64
     0
275
    -2
285
     1
 65
     0
276
    -2
286
     1
 66
     0
277
    -2
287
     1
 67
     0
278
    -2
288
     1
 68
     0
279
    -2
289
     1
 69
     0
  7
STANDARD
140
0.18
170
     5
 62
     0
 63
     7
283
     0
274
    -2
284
     1
 64
     0
275
    -2
285
     1
 65
     0
276
    -2
286
     1
 66
     0
277
    -2
287
     1
 67
     0
278
    -2
288
     1
 68
     0
279
    -2
289
     1
 69
     0
  0
DICTIONARYVAR
  5
177
102
{ACAD_REACTORS
330
176
102
}
330
176
100
DictionaryVariables
280
     0
  1
STANDARD
  0
DICTIONARYVAR
  5
178
102
{ACAD_REACTORS
330
176
102
}
330
176
100
DictionaryVariables
280
     0
  1
1
  0
DICTIONARYVAR
  5
179
102
{ACAD_REACTORS
330
176
102
}
330
176
100
DictionaryVariables
280
     0
  1

  0
ENDSEC
  0
EOF
