  0
SECTION
  2
HEADER
  9
$ACADVER
  1
AC1015
  9
$ACADMAINTVER
 70
    20
  9
$DWGCODEPAGE
  3
ANSI_932
  9
$INSBASE
 10
0.0
 20
0.0
 30
0.0
  9
$EXTMIN
 10
537.6251275856339
 20
38.58879439601287
 30
-0.0015258207003583
  9
$EXTMAX
 10
1537.701420250467
 20
1468.730624776485
 30
0.0000000349246037
  9
$LIMMIN
 10
0.0
 20
0.0
  9
$LIMMAX
 10
2100.0
 20
1485.0
  9
$ORTHOMODE
 70
     0
  9
$REGENMODE
 70
     1
  9
$FILLMODE
 70
     1
  9
$QTEXTMODE
 70
     0
  9
$MIRRTEXT
 70
     0
  9
$LTSCALE
 40
5.0
  9
$ATTMODE
 70
     1
  9
$TEXTSIZE
 40
0.2
  9
$TRACEWID
 40
0.05
  9
$TEXTSTYLE
  7
STANDARD
  9
$CLAYER
  8
0
  9
$CELTYPE
  6
CONTINUOUS
  9
$CECOLOR
 62
   256
  9
$CELTSCALE
 40
1.0
  9
$DISPSILH
 70
     0
  9
$DIMSCALE
 40
1.0
  9
$DIMASZ
 40
0.18
  9
$DIMEXO
 40
0.0625
  9
$DIMDLI
 40
0.38
  9
$DIMRND
 40
0.0
  9
$DIMDLE
 40
0.0
  9
$DIMEXE
 40
0.18
  9
$DIMTP
 40
0.0
  9
$DIMTM
 40
0.0
  9
$DIMTXT
 40
0.18
  9
$DIMCEN
 40
0.09
  9
$DIMTSZ
 40
0.0
  9
$DIMTOL
 70
     0
  9
$DIMLIM
 70
     0
  9
$DIMTIH
 70
     1
  9
$DIMTOH
 70
     1
  9
$DIMSE1
 70
     0
  9
$DIMSE2
 70
     0
  9
$DIMTAD
 70
     0
  9
$DIMZIN
 70
     0
  9
$DIMBLK
  1

  9
$DIMASO
 70
     1
  9
$DIMSHO
 70
     1
  9
$DIMPOST
  1

  9
$DIMAPOST
  1

  9
$DIMALT
 70
     0
  9
$DIMALTD
 70
     2
  9
$DIMALTF
 40
25.4
  9
$DIMLFAC
 40
1.0
  9
$DIMTOFL
 70
     0
  9
$DIMTVP
 40
0.0
  9
$DIMTIX
 70
     0
  9
$DIMSOXD
 70
     0
  9
$DIMSAH
 70
     0
  9
$DIMBLK1
  1

  9
$DIMBLK2
  1

  9
$DIMSTYLE
  2
Standard
  9
$DIMCLRD
 70
     0
  9
$DIMCLRE
 70
     0
  9
$DIMCLRT
 70
     0
  9
$DIMTFAC
 40
1.0
  9
$DIMGAP
 40
0.09
  9
$DIMJUST
 70
     0
  9
$DIMSD1
 70
     0
  9
$DIMSD2
 70
     0
  9
$DIMTOLJ
 70
     1
  9
$DIMTZIN
 70
     0
  9
$DIMALTZ
 70
     0
  9
$DIMALTTZ
 70
     0
  9
$DIMUPT
 70
     0
  9
$DIMDEC
 70
     4
  9
$DIMTDEC
 70
     4
  9
$DIMALTU
 70
     2
  9
$DIMALTTD
 70
     2
  9
$DIMTXSTY
  7
STANDARD
  9
$DIMAUNIT
 70
     0
  9
$DIMADEC
 70
     0
  9
$DIMALTRND
 40
0.0
  9
$DIMAZIN
 70
     0
  9
$DIMDSEP
 70
    46
  9
$DIMATFIT
 70
     3
  9
$DIMFRAC
 70
     0
  9
$DIMLDRBLK
  1

  9
$DIMLUNIT
 70
     2
  9
$DIMLWD
 70
    -2
  9
$DIMLWE
 70
    -2
  9
$DIMTMOVE
 70
     0
  9
$LUNITS
 70
     2
  9
$LUPREC
 70
     4
  9
$SKETCHINC
 40
0.1
  9
$FILLETRAD
 40
0.0
  9
$AUNITS
 70
     0
  9
$AUPREC
 70
     0
  9
$MENU
  1
.
  9
$ELEVATION
 40
0.0
  9
$PELEVATION
 40
0.0
  9
$THICKNESS
 40
0.0
  9
$LIMCHECK
 70
     0
  9
$CHAMFERA
 40
0.0
  9
$CHAMFERB
 40
0.0
  9
$CHAMFERC
 40
0.0
  9
$CHAMFERD
 40
0.0
  9
$SKPOLY
 70
     0
  9
$TDCREATE
 40
2454846.609635637
  9
$TDUCREATE
 40
2454846.234635637
  9
$TDUPDATE
 40
2454846.617772593
  9
$TDUUPDATE
 40
2454846.242772593
  9
$TDINDWG
 40
0.0081391204
  9
$TDUSRTIMER
 40
0.0081391204
  9
$USRTIMER
 70
     1
  9
$ANGBASE
 50
0.0
  9
$ANGDIR
 70
     0
  9
$PDMODE
 70
     0
  9
$PDSIZE
 40
0.0
  9
$PLINEWID
 40
0.0
  9
$SPLFRAME
 70
     0
  9
$SPLINETYPE
 70
     6
  9
$SPLINESEGS
 70
     8
  9
$HANDSEED
  5
47B
  9
$SURFTAB1
 70
     6
  9
$SURFTAB2
 70
     6
  9
$SURFTYPE
 70
     6
  9
$SURFU
 70
     6
  9
$SURFV
 70
     6
  9
$UCSBASE
  2

  9
$UCSNAME
  2

  9
$UCSORG
 10
0.0
 20
0.0
 30
0.0
  9
$UCSXDIR
 10
1.0
 20
0.0
 30
0.0
  9
$UCSYDIR
 10
0.0
 20
1.0
 30
0.0
  9
$UCSORTHOREF
  2

  9
$UCSORTHOVIEW
 70
     0
  9
$UCSORGTOP
 10
0.0
 20
0.0
 30
0.0
  9
$UCSORGBOTTOM
 10
0.0
 20
0.0
 30
0.0
  9
$UCSORGLEFT
 10
0.0
 20
0.0
 30
0.0
  9
$UCSORGRIGHT
 10
0.0
 20
0.0
 30
0.0
  9
$UCSORGFRONT
 10
0.0
 20
0.0
 30
0.0
  9
$UCSORGBACK
 10
0.0
 20
0.0
 30
0.0
  9
$PUCSBASE
  2

  9
$PUCSNAME
  2

  9
$PUCSORG
 10
0.0
 20
0.0
 30
0.0
  9
$PUCSXDIR
 10
1.0
 20
0.0
 30
0.0
  9
$PUCSYDIR
 10
0.0
 20
1.0
 30
0.0
  9
$PUCSORTHOREF
  2

  9
$PUCSORTHOVIEW
 70
     0
  9
$PUCSORGTOP
 10
0.0
 20
0.0
 30
0.0
  9
$PUCSORGBOTTOM
 10
0.0
 20
0.0
 30
0.0
  9
$PUCSORGLEFT
 10
0.0
 20
0.0
 30
0.0
  9
$PUCSORGRIGHT
 10
0.0
 20
0.0
 30
0.0
  9
$PUCSORGFRONT
 10
0.0
 20
0.0
 30
0.0
  9
$PUCSORGBACK
 10
0.0
 20
0.0
 30
0.0
  9
$USERI1
 70
     0
  9
$USERI2
 70
     0
  9
$USERI3
 70
     0
  9
$USERI4
 70
     0
  9
$USERI5
 70
     0
  9
$USERR1
 40
0.0
  9
$USERR2
 40
0.0
  9
$USERR3
 40
0.0
  9
$USERR4
 40
0.0
  9
$USERR5
 40
0.0
  9
$WORLDVIEW
 70
     1
  9
$SHADEDGE
 70
     3
  9
$SHADEDIF
 70
    70
  9
$TILEMODE
 70
     1
  9
$MAXACTVP
 70
    64
  9
$PINSBASE
 10
0.0
 20
0.0
 30
0.0
  9
$PLIMCHECK
 70
     0
  9
$PEXTMIN
 10
1.000000000000000E+20
 20
1.000000000000000E+20
 30
1.000000000000000E+20
  9
$PEXTMAX
 10
-1.000000000000000E+20
 20
-1.000000000000000E+20
 30
-1.000000000000000E+20
  9
$PLIMMIN
 10
0.0
 20
0.0
  9
$PLIMMAX
 10
12.0
 20
9.0
  9
$UNITMODE
 70
     0
  9
$VISRETAIN
 70
     1
  9
$PLINEGEN
 70
     0
  9
$PSLTSCALE
 70
     1
  9
$TREEDEPTH
 70
  3020
  9
$CMLSTYLE
  2
Standard
  9
$CMLJUST
 70
     0
  9
$CMLSCALE
 40
1.0
  9
$PROXYGRAPHICS
 70
     1
  9
$MEASUREMENT
 70
     0
  9
$CELWEIGHT
370
    -1
  9
$ENDCAPS
280
     0
  9
$JOINSTYLE
280
     0
  9
$LWDISPLAY
290
     0
  9
$INSUNITS
 70
     0
  9
$HYPERLINKBASE
  1

  9
$STYLESHEET
  1

  9
$XEDIT
290
     1
  9
$CEPSNTYPE
380
     0
  9
$PSTYLEMODE
290
     1
  9
$FINGERPRINTGUID
  2
{602D24BD-71CE-4287-9C0A-7A70AF13EF21}
  9
$VERSIONGUID
  2
{90CE0D94-648E-4127-AEC0-3EF08EDE3D1E}
  9
$EXTNAMES
290
     1
  9
$PSVPSCALE
 40
0.0
  9
$OLESTARTUP
290
     0
  0
ENDSEC
  0
SECTION
  2
CLASSES
  0
CLASS
  1
ACDBDICTIONARYWDFLT
  2
AcDbDictionaryWithDefault
  3
ObjectDBX Classes
 90
        0
280
     0
281
     0
  0
CLASS
  1
TABLESTYLE
  2
AcDbTableStyle
  3
ObjectDBX Classes
 90
     2047
280
     0
281
     0
  0
CLASS
  1
DICTIONARYVAR
  2
AcDbDictionaryVar
  3
ObjectDBX Classes
 90
        0
280
     0
281
     0
  0
CLASS
  1
ACDBPLACEHOLDER
  2
AcDbPlaceHolder
  3
ObjectDBX Classes
 90
        0
280
     0
281
     0
  0
CLASS
  1
LAYOUT
  2
AcDbLayout
  3
ObjectDBX Classes
 90
        0
280
     0
281
     0
  0
ENDSEC
  0
SECTION
  2
TABLES
  0
TABLE
  2
VPORT
  5
8
330
0
100
AcDbSymbolTable
 70
     2
  0
VPORT
  5
475
330
8
100
AcDbSymbolTableRecord
100
AcDbViewportTableRecord
  2
*Active
 70
     0
 10
0.0
 20
0.0
 11
1.0
 21
1.0
 12
1037.66327391805
 22
753.6597095862492
 13
0.0
 23
0.0
 14
1.0
 24
1.0
 15
0.0
 25
0.0
 16
0.0
 26
0.0
 36
1.0
 17
0.0
 27
0.0
 37
0.0
 40
1443.123450625984
 41
2.069696969696969
 42
50.0
 43
0.0
 44
0.0
 50
0.0
 51
0.0
 71
     0
 72
   100
 73
     1
 74
     1
 75
     0
 76
     0
 77
     0
 78
     0
281
     0
 65
     1
110
0.0
120
0.0
130
0.0
111
1.0
121
0.0
131
0.0
112
0.0
122
1.0
132
0.0
 79
     0
146
0.0
  0
ENDTAB
  0
TABLE
  2
LTYPE
  5
5
330
0
100
AcDbSymbolTable
 70
    35
  0
LTYPE
  5
13
330
5
100
AcDbSymbolTableRecord
100
AcDbLinetypeTableRecord
  2
ByBlock
 70
     0
  3

 72
    65
 73
     0
 40
0.0
  0
LTYPE
  5
14
330
5
100
AcDbSymbolTableRecord
100
AcDbLinetypeTableRecord
  2
ByLayer
 70
     0
  3

 72
    65
 73
     0
 40
0.0
  0
LTYPE
  5
15
330
5
100
AcDbSymbolTableRecord
100
AcDbLinetypeTableRecord
  2
CONTINUOUS
 70
     0
  3
実線
 72
    65
 73
     0
 40
0.0
  0
LTYPE
  5
26
330
5
100
AcDbSymbolTableRecord
100
AcDbLinetypeTableRecord
  2
DASHED1
 70
     0
  3
--  --  --  --  --  --  --  --  
 72
    65
 73
     2
 40
2.5
 49
1.25
 74
     0
 49
-1.25
 74
     0
  0
LTYPE
  5
27
330
5
100
AcDbSymbolTableRecord
100
AcDbLinetypeTableRecord
  2
DASHED2
 70
     0
  3
----    ----    ----    ----    
 72
    65
 73
     2
 40
5.0
 49
2.5
 74
     0
 49
-2.5
 74
     0
  0
LTYPE
  5
28
330
5
100
AcDbSymbolTableRecord
100
AcDbLinetypeTableRecord
  2
DASHED3
 70
     0
  3
------  ------  ------  ------  
 72
    65
 73
     2
 40
5.0
 49
3.75
 74
     0
 49
-1.25
 74
     0
  0
LTYPE
  5
29
330
5
100
AcDbSymbolTableRecord
100
AcDbLinetypeTableRecord
  2
CENTER1
 70
     0
  3
----- - ----- - ----- - ----- - 
 72
    65
 73
     4
 40
10.0
 49
6.25
 74
     0
 49
-1.25
 74
     0
 49
1.25
 74
     0
 49
-1.25
 74
     0
  0
LTYPE
  5
2A
330
5
100
AcDbSymbolTableRecord
100
AcDbLinetypeTableRecord
  2
CENTER2
 70
     0
  3
----------  --  ----------  --  
 72
    65
 73
     4
 40
20.0
 49
12.5
 74
     0
 49
-2.5
 74
     0
 49
2.5
 74
     0
 49
-2.5
 74
     0
  0
LTYPE
  5
2B
330
5
100
AcDbSymbolTableRecord
100
AcDbLinetypeTableRecord
  2
PHANTOM1
 70
     0
  3
--- - - --- - - --- - - --- - - 
 72
    65
 73
     6
 40
10.0
 49
3.25
 74
     0
 49
-1.25
 74
     0
 49
1.25
 74
     0
 49
-1.25
 74
     0
 49
1.25
 74
     0
 49
-1.25
 74
     0
  0
LTYPE
  5
2C
330
5
100
AcDbSymbolTableRecord
100
AcDbLinetypeTableRecord
  2
PHANTOM2
 70
     0
  3
--------  -  -  --------  -  -  
 72
    65
 73
     6
 40
20.0
 49
10.0
 74
     0
 49
-2.5
 74
     0
 49
1.25
 74
     0
 49
-2.5
 74
     0
 49
1.25
 74
     0
 49
-2.5
 74
     0
  0
LTYPE
  5
2D
330
5
100
AcDbSymbolTableRecord
100
AcDbLinetypeTableRecord
  2
DOT
 70
     0
  3
-   -   -   -   -   -   -   -   
 72
    65
 73
     2
 40
2.5
 49
0.625
 74
     0
 49
-1.875
 74
     0
  0
LTYPE
  5
2E
330
5
100
AcDbSymbolTableRecord
100
AcDbLinetypeTableRecord
  2
DUMMY
 70
     0
  3
ダミー
 72
    65
 73
     0
 40
0.0
  0
LTYPE
  5
2F
330
5
100
AcDbSymbolTableRecord
100
AcDbLinetypeTableRecord
  2
RAND1
 70
     0
  3
ランダム線1
 72
    65
 73
     4
 40
10.0
 49
1.0
 74
     0
 49
-2.0
 74
     0
 49
3.0
 74
     0
 49
-4.0
 74
     0
  0
LTYPE
  5
30
330
5
100
AcDbSymbolTableRecord
100
AcDbLinetypeTableRecord
  2
RAND2
 70
     0
  3
ランダム線2
 72
    65
 73
     4
 40
14.0
 49
2.0
 74
     0
 49
-3.0
 74
     0
 49
4.0
 74
     0
 49
-5.0
 74
     0
  0
LTYPE
  5
31
330
5
100
AcDbSymbolTableRecord
100
AcDbLinetypeTableRecord
  2
RAND3
 70
     0
  3
ランダム線3
 72
    65
 73
     4
 40
18.0
 49
3.0
 74
     0
 49
-4.0
 74
     0
 49
5.0
 74
     0
 49
-6.0
 74
     0
  0
LTYPE
  5
32
330
5
100
AcDbSymbolTableRecord
100
AcDbLinetypeTableRecord
  2
RAND4
 70
     0
  3
ランダム線4
 72
    65
 73
     4
 40
22.0
 49
4.0
 74
     0
 49
-5.0
 74
     0
 49
6.0
 74
     0
 49
-7.0
 74
     0
  0
LTYPE
  5
33
330
5
100
AcDbSymbolTableRecord
100
AcDbLinetypeTableRecord
  2
RAND5
 70
     0
  3
ランダム線5
 72
    65
 73
     4
 40
26.0
 49
5.0
 74
     0
 49
-6.0
 74
     0
 49
7.0
 74
     0
 49
-8.0
 74
     0
  0
LTYPE
  5
34
330
5
100
AcDbSymbolTableRecord
100
AcDbLinetypeTableRecord
  2
LONG1
 70
     0
  3
----------  --  ----------  --  
 72
    65
 73
     4
 40
40.0
 49
32.5
 74
     0
 49
-2.5
 74
     0
 49
2.5
 74
     0
 49
-2.5
 74
     0
  0
LTYPE
  5
35
330
5
100
AcDbSymbolTableRecord
100
AcDbLinetypeTableRecord
  2
LONG2
 70
     0
  3
--------  -  -  --------  -  -  
 72
    65
 73
     6
 40
40.0
 49
30.0
 74
     0
 49
-2.5
 74
     0
 49
1.25
 74
     0
 49
-2.5
 74
     0
 49
1.25
 74
     0
 49
-2.5
 74
     0
  0
LTYPE
  5
36
330
5
100
AcDbSymbolTableRecord
100
AcDbLinetypeTableRecord
  2
LONG3
 70
     0
  3
+++++++++++++++..+++++++++++++++
 72
    65
 73
     2
 40
40.0
 49
37.5
 74
     0
 49
-2.5
 74
     0
  0
LTYPE
  5
37
330
5
100
AcDbSymbolTableRecord
100
AcDbLinetypeTableRecord
  2
LONG4
 70
     0
  3
+++++++++++++++..+++++++++++++++
 72
    65
 73
     2
 40
80.0
 49
75.0
 74
     0
 49
-5.0
 74
     0
  0
LTYPE
  5
38
330
5
100
AcDbSymbolTableRecord
100
AcDbLinetypeTableRecord
  2
LONG5
 70
     0
  3
----------  --  ----------  --  
 72
    65
 73
     4
 40
60.0
 49
37.5
 74
     0
 49
-7.5
 74
     0
 49
7.5
 74
     0
 49
-7.5
 74
     0
  0
LTYPE
  5
39
330
5
100
AcDbSymbolTableRecord
100
AcDbLinetypeTableRecord
  2
DASHED
 70
     0
  3
-------   -------------   ------
 72
    65
 73
     2
 40
7.5
 49
6.0
 74
     0
 49
-1.5
 74
     0
  0
LTYPE
  5
3A
330
5
100
AcDbSymbolTableRecord
100
AcDbLinetypeTableRecord
  2
DASHED_SPACED
 70
     0
  3
----        --------        ----
 72
    65
 73
     2
 40
12.0
 49
6.0
 74
     0
 49
-6.0
 74
     0
  0
LTYPE
  5
3B
330
5
100
AcDbSymbolTableRecord
100
AcDbLinetypeTableRecord
  2
LONG_DASHED_DOTTED
 70
     0
  3
------------- --- --------------
 72
    65
 73
     4
 40
15.25
 49
12.0
 74
     0
 49
-1.5
 74
     0
 49
0.25
 74
     0
 49
-1.5
 74
     0
  0
LTYPE
  5
3C
330
5
100
AcDbSymbolTableRecord
100
AcDbLinetypeTableRecord
  2
LONG_DASHED_DOUBLE-DOTTED
 70
     0
  3
----------- --- --- ------------
 72
    65
 73
     6
 40
17.0
 49
12.0
 74
     0
 49
-1.5
 74
     0
 49
0.25
 74
     0
 49
-1.5
 74
     0
 49
0.25
 74
     0
 49
-1.5
 74
     0
  0
LTYPE
  5
3D
330
5
100
AcDbSymbolTableRecord
100
AcDbLinetypeTableRecord
  2
LONG_DASHED_TRIPLICATE-DOTTED
 70
     0
  3
--------- --- --- --- ----------
 72
    65
 73
     8
 40
18.75
 49
12.0
 74
     0
 49
-1.5
 74
     0
 49
0.25
 74
     0
 49
-1.5
 74
     0
 49
0.25
 74
     0
 49
-1.5
 74
     0
 49
0.25
 74
     0
 49
-1.5
 74
     0
  0
LTYPE
  5
3E
330
5
100
AcDbSymbolTableRecord
100
AcDbLinetypeTableRecord
  2
DOTTED
 70
     0
  3
   -       -       -       -    
 72
    65
 73
     2
 40
1.75
 49
0.25
 74
     0
 49
-1.5
 74
     0
  0
LTYPE
  5
3F
330
5
100
AcDbSymbolTableRecord
100
AcDbLinetypeTableRecord
  2
CHAIN
 70
     0
  3
-------------- -- --------------
 72
    65
 73
     4
 40
18.5
 49
12.0
 74
     0
 49
-1.5
 74
     0
 49
3.5
 74
     0
 49
-1.5
 74
     0
  0
LTYPE
  5
40
330
5
100
AcDbSymbolTableRecord
100
AcDbLinetypeTableRecord
  2
CHAIN_DOUBLE_DASH
 70
     0
  3
------------ -- -- -------------
 72
    65
 73
     6
 40
23.5
 49
12.0
 74
     0
 49
-1.5
 74
     0
 49
3.5
 74
     0
 49
-1.5
 74
     0
 49
3.5
 74
     0
 49
-1.5
 74
     0
  0
LTYPE
  5
41
330
5
100
AcDbSymbolTableRecord
100
AcDbLinetypeTableRecord
  2
DASHED_DOTTED
 70
     0
  3
-----------     -     ----------
 72
    65
 73
     4
 40
9.25
 49
6.0
 74
     0
 49
-1.5
 74
     0
 49
0.25
 74
     0
 49
-1.5
 74
     0
  0
LTYPE
  5
42
330
5
100
AcDbSymbolTableRecord
100
AcDbLinetypeTableRecord
  2
DOUBLE-DASHED_DOTTED
 70
     0
  3
------   -----------   -   -----
 72
    65
 73
     6
 40
16.75
 49
6.0
 74
     0
 49
-1.5
 74
     0
 49
6.0
 74
     0
 49
-1.5
 74
     0
 49
0.25
 74
     0
 49
-1.5
 74
     0
  0
LTYPE
  5
43
330
5
100
AcDbSymbolTableRecord
100
AcDbLinetypeTableRecord
  2
DASHED_DOUBLE-DOTTED
 70
     0
  3
---------    -    -    ---------
 72
    65
 73
     6
 40
11.0
 49
6.0
 74
     0
 49
-1.5
 74
     0
 49
0.25
 74
     0
 49
-1.5
 74
     0
 49
0.25
 74
     0
 49
-1.5
 74
     0
  0
LTYPE
  5
44
330
5
100
AcDbSymbolTableRecord
100
AcDbLinetypeTableRecord
  2
DOUBLE-DASHED_DOUBLE-DOTTED
 70
     0
  3
-----   ---------   -   -   ----
 72
    65
 73
     8
 40
18.5
 49
6.0
 74
     0
 49
-1.5
 74
     0
 49
6.0
 74
     0
 49
-1.5
 74
     0
 49
0.25
 74
     0
 49
-1.5
 74
     0
 49
0.25
 74
     0
 49
-1.5
 74
     0
  0
LTYPE
  5
45
330
5
100
AcDbSymbolTableRecord
100
AcDbLinetypeTableRecord
  2
DASHED_TRIPLICATE-DOTTED
 70
     0
  3
-------    -    -    -    ------
 72
    65
 73
     8
 40
12.75
 49
6.0
 74
     0
 49
-1.5
 74
     0
 49
0.25
 74
     0
 49
-1.5
 74
     0
 49
0.25
 74
     0
 49
-1.5
 74
     0
 49
0.25
 74
     0
 49
-1.5
 74
     0
  0
LTYPE
  5
46
330
5
100
AcDbSymbolTableRecord
100
AcDbLinetypeTableRecord
  2
DOUBLE-DASHED_TRIPLICATE-DOTTED
 70
     0
  3
-----  ---------  -  -  -  -----
 72
    65
 73
    10
 40
20.25
 49
6.0
 74
     0
 49
-1.5
 74
     0
 49
6.0
 74
     0
 49
-1.5
 74
     0
 49
0.25
 74
     0
 49
-1.5
 74
     0
 49
0.25
 74
     0
 49
-1.5
 74
     0
 49
0.25
 74
     0
 49
-1.5
 74
     0
  0
LTYPE
  5
47
330
5
100
AcDbSymbolTableRecord
100
AcDbLinetypeTableRecord
  2
UNDEFINED
 70
     0
  3
--------------------------------
 72
    65
 73
     0
 40
0.0
  0
ENDTAB
  0
TABLE
  2
LAYER
  5
2
330
0
100
AcDbSymbolTable
 70
    17
  0
LAYER
  5
10
330
2
100
AcDbSymbolTableRecord
100
AcDbLayerTableRecord
  2
0
 70
     0
 62
     7
  6
CONTINUOUS
370
    -3
390
F
  0
LAYER
  5
49
330
2
100
AcDbSymbolTableRecord
100
AcDbLayerTableRecord
  2
_2-2_IN_LINE
 70
     0
 62
     7
  6
CONTINUOUS
370
    -3
390
F
  0
LAYER
  5
4A
330
2
100
AcDbSymbolTableRecord
100
AcDbLayerTableRecord
  2
_2-3_
 70
     0
 62
     7
  6
CONTINUOUS
370
    -3
390
F
  0
LAYER
  5
4B
330
2
100
AcDbSymbolTableRecord
100
AcDbLayerTableRecord
  2
_2-4_OUT_LINE
 70
     0
 62
     7
  6
CONTINUOUS
370
    -3
390
F
  0
LAYER
  5
4C
330
2
100
AcDbSymbolTableRecord
100
AcDbLayerTableRecord
  2
_2-5_金属
 70
     0
 62
     7
  6
CONTINUOUS
370
    -3
390
F
  0
LAYER
  5
4D
330
2
100
AcDbSymbolTableRecord
100
AcDbLayerTableRecord
  2
_2-6_鋼板__アングル
 70
     0
 62
     7
  6
CONTINUOUS
370
    -3
390
F
  0
LAYER
  5
4E
330
2
100
AcDbSymbolTableRecord
100
AcDbLayerTableRecord
  2
_2-7_ビス
 70
     0
 62
     7
  6
CONTINUOUS
370
    -3
390
F
  0
LAYER
  5
4F
330
2
100
AcDbSymbolTableRecord
100
AcDbLayerTableRecord
  2
_2-A_MOJI
 70
     0
 62
     7
  6
CONTINUOUS
370
    -3
390
F
  0
LAYER
  5
50
330
2
100
AcDbSymbolTableRecord
100
AcDbLayerTableRecord
  2
_2-B_DIM
 70
     0
 62
     7
  6
CONTINUOUS
370
    -3
390
F
  0
LAYER
  5
51
330
2
100
AcDbSymbolTableRecord
100
AcDbLayerTableRecord
  2
_2-D_ハッチ他
 70
     0
 62
     7
  6
CONTINUOUS
370
    -3
390
F
  0
LAYER
  5
52
330
2
100
AcDbSymbolTableRecord
100
AcDbLayerTableRecord
  2
_2-E_CON他
 70
     0
 62
     7
  6
CONTINUOUS
370
    -3
390
F
  0
LAYER
  5
53
330
2
100
AcDbSymbolTableRecord
100
AcDbLayerTableRecord
  2
_F-2_
 70
     0
 62
     7
  6
CONTINUOUS
370
    -3
390
F
  0
LAYER
  5
54
330
2
100
AcDbSymbolTableRecord
100
AcDbLayerTableRecord
  2
_F-5_
 70
     0
 62
     7
  6
CONTINUOUS
370
    -3
390
F
  0
LAYER
  5
55
330
2
100
AcDbSymbolTableRecord
100
AcDbLayerTableRecord
  2
_F-7_
 70
     0
 62
     7
  6
CONTINUOUS
370
    -3
390
F
  0
LAYER
  5
56
330
2
100
AcDbSymbolTableRecord
100
AcDbLayerTableRecord
  2
_F-8_
 70
     0
 62
     7
  6
CONTINUOUS
370
    -3
390
F
  0
LAYER
  5
57
330
2
100
AcDbSymbolTableRecord
100
AcDbLayerTableRecord
  2
_F-A_
 70
     0
 62
     7
  6
CONTINUOUS
370
    -3
390
F
  0
LAYER
  5
58
330
2
100
AcDbSymbolTableRecord
100
AcDbLayerTableRecord
  2
ADD_LINE
 70
     0
 62
     7
  6
CONTINUOUS
370
    -3
390
F
  0
ENDTAB
  0
TABLE
  2
STYLE
  5
3
330
0
100
AcDbSymbolTable
 70
     2
  0
STYLE
  5
11
330
3
100
AcDbSymbolTableRecord
100
AcDbTextStyleTableRecord
  2
STANDARD
 70
     0
 40
0.0
 41
1.0
 50
0.0
 71
     0
 42
0.2
  3
txt
  4
bigfont.shx
  0
STYLE
  5
48
330
3
100
AcDbSymbolTableRecord
100
AcDbTextStyleTableRecord
  2
TATEGAKI
 70
     4
 40
0.0
 41
1.0
 50
0.0
 71
     0
 42
1.0
  3
txt
  4
bigfont.shx
  0
ENDTAB
  0
TABLE
  2
VIEW
  5
6
330
0
100
AcDbSymbolTable
 70
     0
  0
ENDTAB
  0
TABLE
  2
UCS
  5
7
330
0
100
AcDbSymbolTable
 70
     0
  0
ENDTAB
  0
TABLE
  2
APPID
  5
9
330
0
100
AcDbSymbolTable
 70
     1
  0
APPID
  5
12
330
9
100
AcDbSymbolTableRecord
100
AcDbRegAppTableRecord
  2
ACAD
 70
     0
  0
ENDTAB
  0
TABLE
  2
DIMSTYLE
  5
A
330
0
100
AcDbSymbolTable
 70
     1
100
AcDbDimStyleTable
 71
     0
  0
DIMSTYLE
105
46F
330
A
100
AcDbSymbolTableRecord
100
AcDbDimStyleTableRecord
  2
Standard
 70
     0
340
11
  0
ENDTAB
  0
TABLE
  2
BLOCK_RECORD
  5
1
330
0
100
AcDbSymbolTable
 70
     0
  0
BLOCK_RECORD
  5
22
330
1
100
AcDbSymbolTableRecord
100
AcDbBlockTableRecord
  2
*Model_Space
340
25
  0
BLOCK_RECORD
  5
1E
330
1
100
AcDbSymbolTableRecord
100
AcDbBlockTableRecord
  2
*Paper_Space
340
21
  0
ENDTAB
  0
ENDSEC
  0
SECTION
  2
BLOCKS
  0
BLOCK
  5
23
330
22
100
AcDbEntity
  8
0
100
AcDbBlockBegin
  2
*Model_Space
 70
     0
 10
0.0
 20
0.0
 30
0.0
  3
*Model_Space
  1

  0
ENDBLK
  5
24
330
22
100
AcDbEntity
  8
0
100
AcDbBlockEnd
  0
BLOCK
  5
1F
330
1E
100
AcDbEntity
 67
     1
  8
0
100
AcDbBlockBegin
  2
*Paper_Space
 70
     0
 10
0.0
 20
0.0
 30
0.0
  3
*Paper_Space
  1

  0
ENDBLK
  5
20
330
1E
100
AcDbEntity
 67
     1
  8
0
100
AcDbBlockEnd
  0
ENDSEC
  0
SECTION
  2
ENTITIES
  0
LINE
  5
5C
330
22
100
AcDbEntity
  8
ADD_LINE
  6
DOT
 62
   136
100
AcDbLine
 10
537.698408641518
 20
1468.643567005061
 30
0.0
 11
537.698408641518
 21
38.64356700506079
 31
0.0
  0
LINE
  5
5D
330
22
100
AcDbEntity
  8
ADD_LINE
  6
DOT
 62
   136
100
AcDbLine
 10
537.698408641518
 20
1468.643567005061
 30
0.0
 11
1537.698408641517
 21
1468.643567005061
 31
0.0
  0
LINE
  5
5E
330
22
100
AcDbEntity
  8
ADD_LINE
  6
DOT
 62
   136
100
AcDbLine
 10
1537.698408641517
 20
1468.643567005061
 30
0.0
 11
1537.698408641517
 21
38.64356700506079
 31
0.0
  0
LINE
  5
5F
330
22
100
AcDbEntity
  8
ADD_LINE
  6
DOT
 62
   136
100
AcDbLine
 10
1537.698408641517
 20
38.64356700506079
 30
0.0
 11
537.6984086415133
 21
38.64356700506079
 31
0.0
  0
LINE
  5
60
330
22
100
AcDbEntity
  8
ADD_LINE
  6
DOT
 62
   136
100
AcDbLine
 10
637.698408641518
 20
798.6435670050606
 30
0.0
 11
1437.698408641517
 21
798.6435670050606
 31
0.0
  0
LINE
  5
61
330
22
100
AcDbEntity
  8
ADD_LINE
  6
DOT
 62
   136
100
AcDbLine
 10
657.698408641518
 20
818.6435670050606
 30
0.0
 11
657.698408641518
 21
778.6435670050606
 31
0.0
  0
LINE
  5
62
330
22
100
AcDbEntity
  8
ADD_LINE
  6
DOT
 62
   136
100
AcDbLine
 10
942.6984086415167
 20
818.6435670050606
 30
0.0
 11
942.6984086415167
 21
778.6435670050606
 31
0.0
  0
LINE
  5
63
330
22
100
AcDbEntity
  8
ADD_LINE
  6
DOT
 62
   136
100
AcDbLine
 10
792.6984086415167
 20
818.6435670050606
 30
0.0
 11
792.6984086415167
 21
778.6435670050606
 31
0.0
  0
LINE
  5
64
330
22
100
AcDbEntity
  8
ADD_LINE
  6
DOT
 62
   136
100
AcDbLine
 10
637.698408641518
 20
158.6435670050608
 30
0.0
 11
1437.698408641517
 21
158.6435670050608
 31
0.0
  0
LINE
  5
65
330
22
100
AcDbEntity
  8
ADD_LINE
  6
DOT
 62
   136
100
AcDbLine
 10
657.698408641518
 20
178.6435670050608
 30
0.0
 11
657.698408641518
 21
138.6435670050608
 31
0.0
  0
LINE
  5
66
330
22
100
AcDbEntity
  8
ADD_LINE
  6
DOT
 62
   136
100
AcDbLine
 10
942.6984086415167
 20
178.6435670050608
 30
0.0
 11
942.6984086415167
 21
138.6435670050608
 31
0.0
  0
LINE
  5
67
330
22
100
AcDbEntity
  8
ADD_LINE
  6
DOT
 62
   136
100
AcDbLine
 10
792.6984086415167
 20
178.6435670050608
 30
0.0
 11
792.6984086415167
 21
138.6435670050608
 31
0.0
  0
LINE
  5
68
330
22
100
AcDbEntity
  8
ADD_LINE
  6
DOT
 62
   136
100
AcDbLine
 10
1322.698408641517
 20
818.6435670050606
 30
0.0
 11
1322.698408641517
 21
778.6435670050606
 31
0.0
  0
LINE
  5
69
330
22
100
AcDbEntity
  8
ADD_LINE
  6
DOT
 62
   136
100
AcDbLine
 10
1217.698408641517
 20
818.6435670050606
 30
0.0
 11
1217.698408641517
 21
778.6435670050606
 31
0.0
  0
LINE
  5
6A
330
22
100
AcDbEntity
  8
ADD_LINE
  6
DOT
 62
   136
100
AcDbLine
 10
1322.698408641517
 20
178.6435670050608
 30
0.0
 11
1322.698408641517
 21
138.6435670050608
 31
0.0
  0
LINE
  5
6B
330
22
100
AcDbEntity
  8
ADD_LINE
  6
DOT
 62
   136
100
AcDbLine
 10
1217.698408641517
 20
178.6435670050608
 30
0.0
 11
1217.698408641517
 21
138.6435670050608
 31
0.0
  0
LINE
  5
6C
330
22
100
AcDbEntity
  8
_2-6_鋼板__アングル
  6
Continuous
 62
     2
100
AcDbLine
 10
865.8458611791131
 20
445.4341593770485
 30
0.0
 11
865.0951195249255
 21
459.7591634977712
 31
0.0
  0
LINE
  5
6D
330
22
100
AcDbEntity
  8
_F-7_
  6
Continuous
 62
     1
100
AcDbLine
 10
637.698408641518
 20
1368.643567005061
 30
0.0
 11
1437.698408641517
 21
1368.643567005061
 31
0.0
  0
LINE
  5
6E
330
22
100
AcDbEntity
  8
_F-7_
  6
Continuous
 62
     1
100
AcDbLine
 10
637.698408641518
 20
778.6435670050606
 30
0.0
 11
1437.698408641517
 21
778.6435670050606
 31
0.0
  0
LINE
  5
6F
330
22
100
AcDbEntity
  8
_F-7_
  6
Continuous
 62
     1
100
AcDbLine
 10
1437.698408641517
 20
1368.643567005061
 30
0.0
 11
1437.698408641517
 21
778.6435670050606
 31
0.0
  0
LINE
  5
70
330
22
100
AcDbEntity
  8
_F-7_
  6
Continuous
 62
     1
100
AcDbLine
 10
637.698408641518
 20
1368.643567005061
 30
0.0
 11
637.698408641518
 21
778.6435670050606
 31
0.0
  0
LINE
  5
71
330
22
100
AcDbEntity
  8
_F-7_
  6
Continuous
 62
     1
100
AcDbLine
 10
637.698408641518
 20
728.6435670050606
 30
0.0
 11
1437.698408641517
 21
728.6435670050606
 31
0.0
  0
LINE
  5
72
330
22
100
AcDbEntity
  8
_F-7_
  6
Continuous
 62
     1
100
AcDbLine
 10
637.698408641518
 20
728.6435670050606
 30
0.0
 11
637.698408641518
 21
138.6435670050608
 31
0.0
  0
LINE
  5
73
330
22
100
AcDbEntity
  8
_F-7_
  6
Continuous
 62
     1
100
AcDbLine
 10
1437.698408641517
 20
728.6435670050606
 30
0.0
 11
1437.698408641517
 21
138.6435670050608
 31
0.0
  0
LINE
  5
74
330
22
100
AcDbEntity
  8
_F-5_
  6
Continuous
 62
     6
100
AcDbLine
 10
637.698408641518
 20
818.6435670050606
 30
0.0
 11
1437.698408641517
 21
818.6435670050606
 31
0.0
  0
LINE
  5
75
330
22
100
AcDbEntity
  8
_F-2_
  6
Continuous
 62
     7
100
AcDbLine
 10
927.6984086415167
 20
818.6435670050606
 30
0.0
 11
927.6984086415167
 21
778.6435670050606
 31
0.0
  0
TEXT
  5
76
330
22
100
AcDbEntity
  8
_F-A_
 62
     7
100
AcDbText
 10
792.6984086415167
 20
788.6435670050606
 30
0.0
 40
17.5
  1
下地：ＲＣ
100
AcDbText
  0
TEXT
  5
77
330
22
100
AcDbEntity
  8
_F-A_
 62
     7
100
AcDbText
 10
657.698408641518
 20
788.6435670050606
 30
0.0
 40
20.0
  1
１１０仕様
100
AcDbText
  0
LINE
  5
78
330
22
100
AcDbEntity
  8
_F-7_
  6
Continuous
 62
     1
100
AcDbLine
 10
637.698408641518
 20
138.6435670050608
 30
0.0
 11
1437.698408641517
 21
138.6435670050608
 31
0.0
  0
LINE
  5
79
330
22
100
AcDbEntity
  8
_F-5_
  6
Continuous
 62
     6
100
AcDbLine
 10
637.698408641518
 20
178.6435670050608
 30
0.0
 11
1437.698408641517
 21
178.6435670050608
 31
0.0
  0
LINE
  5
7A
330
22
100
AcDbEntity
  8
_F-2_
  6
Continuous
 62
     7
100
AcDbLine
 10
927.6984086415167
 20
178.6435670050608
 30
0.0
 11
927.6984086415167
 21
138.6435670050608
 31
0.0
  0
TEXT
  5
7B
330
22
100
AcDbEntity
  8
_F-A_
 62
     7
100
AcDbText
 10
657.698408641518
 20
148.6435670050608
 30
0.0
 40
20.0
  1
１１０仕様
100
AcDbText
  0
TEXT
  5
7C
330
22
100
AcDbEntity
  8
_F-A_
 62
     7
100
AcDbText
 10
942.6984086415167
 20
788.6435670050606
 30
0.0
 40
17.5
  1
部位：立上り角
100
AcDbText
  0
TEXT
  5
7D
330
22
100
AcDbEntity
  8
_F-A_
 62
     7
100
AcDbText
 10
942.6984086415167
 20
148.6435670050608
 30
0.0
 40
17.5
  1
部位：立上り角
100
AcDbText
  0
TEXT
  5
7E
330
22
100
AcDbEntity
  8
_F-A_
 62
     7
100
AcDbText
 10
792.6984086415167
 20
148.6435670050608
 30
0.0
 40
17.5
  1
下地：ＡＬＣ
100
AcDbText
  0
LINE
  5
7F
330
22
100
AcDbEntity
  8
_F-5_
  6
Continuous
 62
     6
100
AcDbLine
 10
777.6984086415167
 20
818.6435670050606
 30
0.0
 11
777.6984086415167
 21
778.6435670050606
 31
0.0
  0
LINE
  5
80
330
22
100
AcDbEntity
  8
_F-5_
  6
Continuous
 62
     6
100
AcDbLine
 10
777.6984086415167
 20
178.6435670050608
 30
0.0
 11
777.6984086415167
 21
138.6435670050608
 31
0.0
  0
LINE
  5
81
330
22
100
AcDbEntity
  8
_F-5_
  6
Continuous
 62
     6
100
AcDbLine
 10
775.1984086415167
 20
818.6435670050606
 30
0.0
 11
775.1984086415167
 21
778.6435670050606
 31
0.0
  0
LINE
  5
82
330
22
100
AcDbEntity
  8
_F-5_
  6
Continuous
 62
     6
100
AcDbLine
 10
775.1984086415167
 20
178.6435670050608
 30
0.0
 11
775.1984086415167
 21
138.6435670050608
 31
0.0
  0
LINE
  5
83
330
22
100
AcDbEntity
  8
_F-2_
  6
Continuous
 62
     7
100
AcDbLine
 10
1307.698408641517
 20
818.6435670050606
 30
0.0
 11
1307.698408641517
 21
778.6435670050606
 31
0.0
  0
LINE
  5
84
330
22
100
AcDbEntity
  8
_F-2_
  6
Continuous
 62
     7
100
AcDbLine
 10
1202.698408641517
 20
818.6435670050606
 30
0.0
 11
1202.698408641517
 21
778.6435670050606
 31
0.0
  0
TEXT
  5
85
330
22
100
AcDbEntity
  8
_F-A_
 62
     7
100
AcDbText
 10
1217.698408641517
 20
788.6435670050606
 30
0.0
 40
15.0
  1
Ｓ＝１：５
100
AcDbText
  0
TEXT
  5
86
330
22
100
AcDbEntity
  8
_F-A_
 62
     7
100
AcDbText
 10
1322.698408641517
 20
788.6435670050606
 30
0.0
 40
15.0
  1
図番
100
AcDbText
  0
LINE
  5
87
330
22
100
AcDbEntity
  8
_F-2_
  6
Continuous
 62
     7
100
AcDbLine
 10
1307.698408641517
 20
178.6435670050608
 30
0.0
 11
1307.698408641517
 21
138.6435670050608
 31
0.0
  0
LINE
  5
88
330
22
100
AcDbEntity
  8
_F-2_
  6
Continuous
 62
     7
100
AcDbLine
 10
1202.698408641517
 20
178.6435670050608
 30
0.0
 11
1202.698408641517
 21
138.6435670050608
 31
0.0
  0
TEXT
  5
89
330
22
100
AcDbEntity
  8
_F-A_
 62
     7
100
AcDbText
 10
1217.698408641517
 20
148.6435670050608
 30
0.0
 40
15.0
  1
Ｓ＝１：５
100
AcDbText
  0
TEXT
  5
8A
330
22
100
AcDbEntity
  8
_F-A_
 62
     7
100
AcDbText
 10
1322.698408641517
 20
148.6435670050608
 30
0.0
 40
15.0
  1
図番
100
AcDbText
  0
TEXT
  5
8B
330
22
100
AcDbEntity
  8
_F-A_
 62
     7
100
AcDbText
 10
1369.116077365624
 20
788.6435670050606
 30
0.0
 40
15.0
  1
１－３
100
AcDbText
  0
TEXT
  5
8C
330
22
100
AcDbEntity
  8
_F-A_
 62
     7
100
AcDbText
 10
1369.116077365624
 20
148.6435670050608
 30
0.0
 40
15.0
  1
１－４
100
AcDbText
  0
LINE
  5
8D
330
22
100
AcDbEntity
  8
_2-E_CON他
  6
Continuous
 62
     4
100
AcDbLine
 10
712.698408641518
 20
1140.810093134407
 30
0.0
 11
862.6984086415166
 21
1290.810093134407
 31
0.0
  0
LINE
  5
8E
330
22
100
AcDbEntity
  8
_2-E_CON他
  6
Continuous
 62
     4
100
AcDbLine
 10
712.698408641518
 20
1133.739025322541
 30
0.0
 11
862.6984086415166
 21
1283.739025322541
 31
0.0
  0
LINE
  5
8F
330
22
100
AcDbEntity
  8
_2-E_CON他
  6
Continuous
 62
     4
100
AcDbLine
 10
712.698408641518
 20
1126.667957510679
 30
0.0
 11
862.6984086415166
 21
1276.667957510676
 31
0.0
  0
LINE
  5
90
330
22
100
AcDbEntity
  8
_2-E_CON他
  6
Continuous
 62
     4
100
AcDbLine
 10
712.698408641518
 20
926.6679575106788
 30
0.0
 11
862.6984086415166
 21
1076.667957510676
 31
0.0
  0
LINE
  5
91
330
22
100
AcDbEntity
  8
_2-E_CON他
  6
Continuous
 62
     4
100
AcDbLine
 10
712.698408641518
 20
940.8100931344076
 30
0.0
 11
862.6984086415166
 21
1090.810093134408
 31
0.0
  0
LINE
  5
92
330
22
100
AcDbEntity
  8
_2-E_CON他
  6
Continuous
 62
     4
100
AcDbLine
 10
712.698408641518
 20
933.7390253225409
 30
0.0
 11
862.6984086415166
 21
1083.739025322541
 31
0.0
  0
LINE
  5
93
330
22
100
AcDbEntity
  8
_2-E_CON他
  6
Continuous
 62
     4
100
AcDbLine
 10
840.531882512171
 20
868.6435670050606
 30
0.0
 11
1040.531882512171
 21
1068.643567005061
 31
0.0
  0
LINE
  5
94
330
22
100
AcDbEntity
  8
_2-E_CON他
  6
Continuous
 62
     4
100
AcDbLine
 10
854.6740181358998
 20
868.6435670050606
 30
0.0
 11
1054.674018135901
 21
1068.643567005061
 31
0.0
  0
LINE
  5
95
330
22
100
AcDbEntity
  8
_2-E_CON他
  6
Continuous
 62
     4
100
AcDbLine
 10
847.6029503240365
 20
868.6435670050606
 30
0.0
 11
1047.602950324036
 21
1068.643567005061
 31
0.0
  0
LINE
  5
96
330
22
100
AcDbEntity
  8
_2-E_CON他
  6
Continuous
 62
     4
100
AcDbLine
 10
1090.531882512171
 20
918.6435670050608
 30
0.0
 11
1240.531882512171
 21
1068.643567005061
 31
0.0
  0
LINE
  5
97
330
22
100
AcDbEntity
  8
_2-E_CON他
  6
Continuous
 62
     4
100
AcDbLine
 10
1104.674018135901
 20
918.6435670050608
 30
0.0
 11
1254.674018135901
 21
1068.643567005061
 31
0.0
  0
LINE
  5
98
330
22
100
AcDbEntity
  8
_2-E_CON他
  6
Continuous
 62
     4
100
AcDbLine
 10
1097.602950324036
 20
918.6435670050608
 30
0.0
 11
1247.602950324036
 21
1068.643567005061
 31
0.0
  0
ARC
  5
99
330
22
100
AcDbEntity
  8
_2-4_OUT_LINE
  6
Continuous
 62
     2
100
AcDbCircle
 10
870.6984086415166
 20
1081.643567005062
 30
0.0
 40
3.0
100
AcDbArc
 50
180.0
 51
270.0
  0
LINE
  5
9A
330
22
100
AcDbEntity
  8
_2-4_OUT_LINE
  6
Continuous
 62
     2
100
AcDbLine
 10
920.6984086415166
 20
1078.643567005061
 30
0.0
 11
920.6984086415166
 21
1073.643567005061
 31
0.0
  0
LINE
  5
9B
330
22
100
AcDbEntity
  8
_2-4_OUT_LINE
  6
Continuous
 62
     2
100
AcDbLine
 10
870.6984086415166
 20
1078.643567005061
 30
0.0
 11
920.6984086415166
 21
1078.643567005061
 31
0.0
  0
LINE
  5
9C
330
22
100
AcDbEntity
  8
_2-A_MOJI
  6
Continuous
 62
     7
100
AcDbLine
 10
956.3508314471166
 20
1072.905568566725
 30
0.0
 11
979.7378125659342
 21
1113.413008100169
 31
0.0
  0
LINE
  5
9D
330
22
100
AcDbEntity
  8
_2-A_MOJI
  6
Continuous
 62
     7
100
AcDbLine
 10
921.9076601895576
 20
1083.035913054243
 30
0.0
 11
953.8796409212627
 21
1138.413008100169
 31
0.0
  0
LINE
  5
9E
330
22
100
AcDbEntity
  8
_2-A_MOJI
  6
Continuous
 62
     7
100
AcDbLine
 10
866.8337406955142
 20
1174.213846438827
 30
0.0
 11
903.8991439624387
 21
1238.413008100169
 31
0.0
  0
LINE
  5
9F
330
22
100
AcDbEntity
  8
_2-A_MOJI
  6
Continuous
 62
     7
100
AcDbLine
 10
1010.949794550795
 20
1113.413008100169
 30
0.0
 11
979.7378125659342
 21
1113.413008100169
 31
0.0
  0
LINE
  5
A0
330
22
100
AcDbEntity
  8
_2-A_MOJI
  6
Continuous
 62
     7
100
AcDbLine
 10
1010.949794550795
 20
1138.413008100169
 30
0.0
 11
953.8796409212627
 21
1138.413008100169
 31
0.0
  0
TEXT
  5
A1
330
22
100
AcDbEntity
  8
_2-A_MOJI
 62
     7
100
AcDbText
 10
1020.949794550795
 20
1130.913008100169
 30
0.0
 40
15.0
  1
プルーフシーラー
100
AcDbText
  0
TEXT
  5
A2
330
22
100
AcDbEntity
  8
_2-A_MOJI
 62
     7
100
AcDbText
 10
1020.949794550795
 20
1105.91300810017
 30
0.0
 40
15.0
  1
塩ビシート 接着工法
100
AcDbText
  0
LINE
  5
A3
330
22
100
AcDbEntity
  8
_2-A_MOJI
  6
Continuous
 62
     7
100
AcDbLine
 10
933.8463072591334
 20
1238.413008100169
 30
0.0
 11
903.8991439624387
 21
1238.413008100169
 31
0.0
  0
TEXT
  5
A4
330
22
100
AcDbEntity
  8
_2-A_MOJI
 62
     7
100
AcDbText
 10
943.8463072591334
 20
1230.913008100169
 30
0.0
 40
15.0
  1
塩ビシート 接着工法
100
AcDbText
  0
LINE
  5
A5
330
22
100
AcDbEntity
  8
_2-B_DIM
  6
Continuous
 62
     7
100
AcDbLine
 10
920.6984086415166
 20
1130.002961005612
 30
0.0
 11
920.6984086415166
 21
1089.972591292692
 31
0.0
  0
POINT
  5
A6
330
22
100
AcDbEntity
  8
_2-B_DIM
 62
     1
100
AcDbPoint
 10
920.6984086415166
 20
1130.002961005612
 30
0.0
  0
LINE
  5
A7
330
22
100
AcDbEntity
  8
_2-B_DIM
  6
Continuous
 62
     7
100
AcDbLine
 10
867.6984086415167
 20
1130.002961005612
 30
0.0
 11
920.6984086415166
 21
1130.002961005612
 31
0.0
  0
POINT
  5
A8
330
22
100
AcDbEntity
  8
_2-B_DIM
 62
     1
100
AcDbPoint
 10
867.6984086415167
 20
1130.002961005612
 30
0.0
  0
LINE
  5
A9
330
22
100
AcDbEntity
  8
_2-4_OUT_LINE
  6
Continuous
 62
     2
100
AcDbLine
 10
867.6984086415167
 20
1081.643567005062
 30
0.0
 11
867.6984086415167
 21
1318.643567005061
 31
0.0
  0
LINE
  5
AA
330
22
100
AcDbEntity
  8
_2-4_OUT_LINE
  6
Continuous
 62
     2
100
AcDbLine
 10
920.6984086415166
 20
1073.643567005061
 30
0.0
 11
1362.698408641517
 21
1073.643567005061
 31
0.0
  0
LINE
  5
AB
330
22
100
AcDbEntity
  8
_2-E_CON他
  6
Continuous
 62
     4
100
AcDbLine
 10
1304.674018135901
 20
918.6435670050608
 30
0.0
 11
1362.698408641517
 21
976.6679575106765
 31
0.0
  0
LINE
  5
AC
330
22
100
AcDbEntity
  8
_2-E_CON他
  6
Continuous
 62
     4
100
AcDbLine
 10
1297.602950324036
 20
918.6435670050608
 30
0.0
 11
1362.698408641517
 21
983.7390253225409
 31
0.0
  0
LINE
  5
AD
330
22
100
AcDbEntity
  8
_2-E_CON他
  6
Continuous
 62
     4
100
AcDbLine
 10
1290.531882512171
 20
918.6435670050608
 30
0.0
 11
1362.698408641517
 21
990.8100931344076
 31
0.0
  0
LINE
  5
AE
330
22
100
AcDbEntity
  8
_2-D_ハッチ他
  6
Continuous
 62
     4
100
AcDbLine
 10
862.6984086415157
 20
283.1347435012097
 30
0.0
 11
867.1895851376657
 21
278.6435670050608
 31
0.0
  0
LINE
  5
AF
330
22
100
AcDbEntity
  8
_2-D_ハッチ他
  6
Continuous
 62
     4
100
AcDbLine
 10
862.6984086415166
 20
297.276879124943
 30
0.0
 11
881.3317207613978
 21
278.6435670050608
 31
0.0
  0
LINE
  5
B0
330
22
100
AcDbEntity
  8
_2-D_ハッチ他
  6
Continuous
 62
     4
100
AcDbLine
 10
862.6984086415157
 20
417.7820440798476
 30
0.0
 11
873.5599315667322
 21
428.643567005063
 31
0.0
  0
LINE
  5
B1
330
22
100
AcDbEntity
  8
_2-A_MOJI
  6
Continuous
 62
     7
100
AcDbLine
 10
933.8463072591334
 20
598.4130081001695
 30
0.0
 11
903.8991439624387
 21
598.4130081001695
 31
0.0
  0
TEXT
  5
B2
330
22
100
AcDbEntity
  8
_2-A_MOJI
 62
     7
100
AcDbText
 10
943.8463072591334
 20
590.9130081001696
 30
0.0
 40
15.0
  1
塩ビシート 接着工法
100
AcDbText
  0
LINE
  5
B3
330
22
100
AcDbEntity
  8
_2-A_MOJI
  6
Continuous
 62
     7
100
AcDbLine
 10
866.8337406955142
 20
534.2138464388268
 30
0.0
 11
903.8991439624387
 21
598.4130081001695
 31
0.0
  0
LINE
  5
B4
330
22
100
AcDbEntity
  8
_2-E_CON他
  6
Continuous
 62
     4
100
AcDbLine
 10
914.4863004911057
 20
278.6435670050608
 30
0.0
 11
1064.486300491105
 21
428.6435670050607
 31
0.0
  0
LINE
  5
B5
330
22
100
AcDbEntity
  8
_2-E_CON他
  6
Continuous
 62
     4
100
AcDbLine
 10
921.5573683029711
 20
278.6435670050608
 30
0.0
 11
1071.557368302971
 21
428.6435670050607
 31
0.0
  0
LINE
  5
B6
330
22
100
AcDbEntity
  8
_2-E_CON他
  6
Continuous
 62
     4
100
AcDbLine
 10
1114.486300491105
 20
278.6435670050608
 30
0.0
 11
1264.486300491105
 21
428.6435670050607
 31
0.0
  0
LINE
  5
B7
330
22
100
AcDbEntity
  8
_2-E_CON他
  6
Continuous
 62
     4
100
AcDbLine
 10
1121.557368302971
 20
278.6435670050608
 30
0.0
 11
1271.557368302971
 21
428.6435670050607
 31
0.0
  0
LINE
  5
B8
330
22
100
AcDbEntity
  8
_2-E_CON他
  6
Continuous
 62
     4
100
AcDbLine
 10
1314.486300491105
 20
278.6435670050608
 30
0.0
 11
1362.698408641517
 21
326.8556751554732
 31
0.0
  0
LINE
  5
B9
330
22
100
AcDbEntity
  8
_2-E_CON他
  6
Continuous
 62
     4
100
AcDbLine
 10
1321.557368302971
 20
278.6435670050608
 30
0.0
 11
1362.698408641517
 21
319.7846073436064
 31
0.0
  0
LINE
  5
BA
330
22
100
AcDbEntity
  8
_2-E_CON他
  6
Continuous
 62
     4
100
AcDbLine
 10
712.698408641518
 20
384.4717007964098
 30
0.0
 11
862.6984086415166
 21
534.4717007964097
 31
0.0
  0
LINE
  5
BB
330
22
100
AcDbEntity
  8
_2-E_CON他
  6
Continuous
 62
     4
100
AcDbLine
 10
712.698408641518
 20
391.5427686082742
 30
0.0
 11
862.6984086415166
 21
541.5427686082741
 31
0.0
  0
LINE
  5
BC
330
22
100
AcDbEntity
  8
_2-E_CON他
  6
Continuous
 62
     4
100
AcDbLine
 10
756.870274850169
 20
228.6435670050608
 30
0.0
 11
862.6984086415166
 21
334.4717007964098
 31
0.0
  0
LINE
  5
BD
330
22
100
AcDbEntity
  8
_2-E_CON他
  6
Continuous
 62
     4
100
AcDbLine
 10
749.7992070383044
 20
228.6435670050608
 30
0.0
 11
862.6984086415166
 21
341.5427686082742
 31
0.0
  0
LINE
  5
BE
330
22
100
AcDbEntity
  8
_2-E_CON他
  6
Continuous
 62
     4
100
AcDbLine
 10
712.698408641518
 20
591.5427686082741
 30
0.0
 11
799.7992070383035
 21
678.6435670050607
 31
0.0
  0
LINE
  5
BF
330
22
100
AcDbEntity
  8
_2-E_CON他
  6
Continuous
 62
     4
100
AcDbLine
 10
712.698408641518
 20
584.4717007964074
 30
0.0
 11
806.8702748501697
 21
678.6435670050607
 31
0.0
  0
LINE
  5
C0
330
22
100
AcDbEntity
  8
_2-3_
  6
Continuous
 62
     3
100
AcDbLine
 10
862.6984086415166
 20
278.6435670050608
 30
0.0
 11
1362.698408641517
 21
278.6435670050608
 31
0.0
  0
LINE
  5
C1
330
22
100
AcDbEntity
  8
_2-3_
  6
Continuous
 62
     3
100
AcDbLine
 10
712.698408641518
 20
678.6435670050607
 30
0.0
 11
712.698408641518
 21
228.6435670050608
 31
0.0
  0
LINE
  5
C2
330
22
100
AcDbEntity
  8
_2-3_
  6
Continuous
 62
     3
100
AcDbLine
 10
712.698408641518
 20
1318.643567005061
 30
0.0
 11
712.698408641518
 21
868.6435670050606
 31
0.0
  0
LINE
  5
C3
330
22
100
AcDbEntity
  8
_2-3_
  6
Continuous
 62
     3
100
AcDbLine
 10
1012.698408641516
 20
918.6435670050608
 30
0.0
 11
1362.698408641517
 21
918.6435670050608
 31
0.0
  0
LINE
  5
C4
330
22
100
AcDbEntity
  8
_2-3_
  6
Continuous
 62
     3
100
AcDbLine
 10
1012.698408641516
 20
918.6435670050608
 30
0.0
 11
1012.698408641516
 21
868.6435670050606
 31
0.0
  0
LINE
  5
C5
330
22
100
AcDbEntity
  8
_2-3_
  6
Continuous
 62
     3
100
AcDbLine
 10
862.6984086415166
 20
278.6435670050608
 30
0.0
 11
862.6984086415166
 21
228.6435670050608
 31
0.0
  0
LINE
  5
C6
330
22
100
AcDbEntity
  8
_2-5_金属
  6
Continuous
 62
     3
100
AcDbLine
 10
972.6984086415168
 20
278.6435670050608
 30
0.0
 11
972.6984086415168
 21
271.6435670050604
 31
0.0
  0
LINE
  5
C7
330
22
100
AcDbEntity
  8
_2-5_金属
  6
Continuous
 62
     3
100
AcDbLine
 10
872.6984086415168
 20
278.6435670050608
 30
0.0
 11
872.6984086415168
 21
271.6435670050604
 31
0.0
  0
LINE
  5
C8
330
22
100
AcDbEntity
  8
_2-5_金属
  6
Continuous
 62
     3
100
AcDbLine
 10
935.9734086415167
 20
271.568567005061
 30
0.0
 11
972.6984086415168
 21
271.6435670050604
 31
0.0
  0
ARC
  5
C9
330
22
100
AcDbEntity
  8
_2-5_金属
  6
Continuous
 62
     3
100
AcDbCircle
 10
935.9734086415167
 20
260.5685670050619
 30
0.0
 40
11.0
100
AcDbArc
 50
90.0
 51
180.0
  0
ARC
  5
CA
330
22
100
AcDbEntity
  8
_2-5_金属
  6
Continuous
 62
     3
100
AcDbCircle
 10
909.4234086415168
 20
260.6435670050613
 30
0.0
 40
11.0
100
AcDbArc
 50
0.0
 51
90.0
  0
LINE
  5
CB
330
22
100
AcDbEntity
  8
_2-5_金属
  6
Continuous
 62
     3
100
AcDbLine
 10
909.4234086415168
 20
271.6435670050604
 30
0.0
 11
872.6984086415168
 21
271.6435670050604
 31
0.0
  0
LINE
  5
CC
330
22
100
AcDbEntity
  8
_2-5_金属
  6
Continuous
 62
     3
100
AcDbLine
 10
872.6984086415168
 20
278.6435670050608
 30
0.0
 11
972.6984086415168
 21
278.6435670050608
 31
0.0
  0
LINE
  5
CD
330
22
100
AcDbEntity
  8
_2-D_ハッチ他
  6
Continuous
 62
     4
100
AcDbLine
 10
964.2305503057222
 20
271.6262738975004
 30
0.0
 11
971.2478434132847
 21
278.6435670050608
 31
0.0
  0
LINE
  5
CE
330
22
100
AcDbEntity
  8
_2-D_ハッチ他
  6
Continuous
 62
     4
100
AcDbLine
 10
920.4234086415183
 20
234.8902000451611
 30
0.0
 11
924.9734086415175
 21
239.4402000451604
 31
0.0
  0
LINE
  5
CF
330
22
100
AcDbEntity
  8
_2-D_ハッチ他
  6
Continuous
 62
     4
100
AcDbLine
 10
957.1450123687295
 20
271.6118037723735
 30
0.0
 11
964.1767756014155
 21
278.6435670050608
 31
0.0
  0
LINE
  5
D0
330
22
100
AcDbEntity
  8
_2-D_ハッチ他
  6
Continuous
 62
     4
100
AcDbLine
 10
920.4234086415183
 20
256.103403480752
 30
0.0
 11
924.9737383408778
 21
260.6537331801113
 31
0.0
  0
LINE
  5
D1
330
22
100
AcDbEntity
  8
_2-D_ハッチ他
  6
Continuous
 62
     4
100
AcDbLine
 10
935.8882424664537
 20
271.5682373056873
 30
0.0
 11
942.9635721658272
 21
278.6435670050608
 31
0.0
  0
LINE
  5
D2
330
22
100
AcDbEntity
  8
_2-D_ハッチ他
  6
Continuous
 62
     4
100
AcDbLine
 10
920.1824185026319
 20
262.9334811537322
 30
0.0
 11
935.8925043539603
 21
278.643567005063
 31
0.0
  0
LINE
  5
D3
330
22
100
AcDbEntity
  8
_2-D_ハッチ他
  6
Continuous
 62
     4
100
AcDbLine
 10
907.6793009183599
 20
271.6435670050604
 30
0.0
 11
914.6793009183618
 21
278.643567005063
 31
0.0
  0
LINE
  5
D4
330
22
100
AcDbEntity
  8
_2-D_ハッチ他
  6
Continuous
 62
     4
100
AcDbLine
 10
900.6082331065046
 20
271.6435670050626
 30
0.0
 11
907.6082331065006
 21
278.6435670050608
 31
0.0
  0
LINE
  5
D5
330
22
100
AcDbEntity
  8
_2-D_ハッチ他
  6
Continuous
 62
     4
100
AcDbLine
 10
879.3950296709034
 20
271.6435670050626
 30
0.0
 11
886.3950296709029
 21
278.6435670050608
 31
0.0
  0
LINE
  5
D6
330
22
100
AcDbEntity
  8
_2-D_ハッチ他
  6
Continuous
 62
     4
100
AcDbLine
 10
872.6984086415157
 20
272.0180137875403
 30
0.0
 11
879.323961859036
 21
278.643567005063
 31
0.0
  0
LINE
  5
D7
330
22
100
AcDbEntity
  8
_2-5_金属
  6
Continuous
 62
     3
100
AcDbLine
 10
924.9734086415175
 20
228.6435670050608
 30
0.0
 11
924.9734086415175
 21
260.5685670050619
 31
0.0
  0
LINE
  5
D8
330
22
100
AcDbEntity
  8
_2-5_金属
  6
Continuous
 62
     3
100
AcDbLine
 10
920.4234086415159
 20
260.6435670050613
 30
0.0
 11
920.4234086415159
 21
228.6435670050608
 31
0.0
  0
LINE
  5
D9
330
22
100
AcDbEntity
  8
_2-D_ハッチ他
  6
Continuous
 62
     4
100
AcDbLine
 10
921.2478434132837
 20
228.6435670050608
 30
0.0
 11
924.9734086415175
 21
232.369132233296
 31
0.0
  0
TEXT
  5
DA
330
22
100
AcDbEntity
  8
_2-A_MOJI
 62
     7
100
AcDbText
 10
1064.193110698127
 20
886.3393350751064
 30
0.0
 40
15.0
  1
※立上りが100以下の場合、１枚張りも可とする。
100
AcDbText
  0
ARC
  5
DB
330
22
100
AcDbEntity
  8
_2-2_IN_LINE
  6
Continuous
 62
     7
100
AcDbCircle
 10
870.6984086415166
 20
1081.643567005062
 30
0.0
 40
8.0
100
AcDbArc
 50
180.0
 51
270.0
  0
LINE
  5
DC
330
22
100
AcDbEntity
  8
_2-2_IN_LINE
  6
Continuous
 62
     7
100
AcDbLine
 10
914.7012765745843
 20
1078.643567005061
 30
0.0
 11
914.7194953621069
 21
1078.774471951742
 31
0.0
  0
LINE
  5
DD
330
22
100
AcDbEntity
  8
_2-2_IN_LINE
  6
Continuous
 62
     7
100
AcDbLine
 10
914.7194953621069
 20
1078.774471951742
 30
0.0
 11
914.7525621417676
 21
1078.999545886761
 31
0.0
  0
LINE
  5
DE
330
22
100
AcDbEntity
  8
_2-2_IN_LINE
  6
Continuous
 62
     7
100
AcDbLine
 10
914.7525621417676
 20
1078.999545886761
 30
0.0
 11
914.7902263576339
 21
1079.222885797019
 31
0.0
  0
LINE
  5
DF
330
22
100
AcDbEntity
  8
_2-2_IN_LINE
  6
Continuous
 62
     7
100
AcDbLine
 10
914.7902263576339
 20
1079.222885797019
 30
0.0
 11
914.8353977794577
 21
1079.44339419849
 31
0.0
  0
LINE
  5
E0
330
22
100
AcDbEntity
  8
_2-2_IN_LINE
  6
Continuous
 62
     7
100
AcDbLine
 10
914.8353977794577
 20
1079.44339419849
 30
0.0
 11
914.8909861769881
 21
1079.659973607149
 31
0.0
  0
LINE
  5
E1
330
22
100
AcDbEntity
  8
_2-2_IN_LINE
  6
Continuous
 62
     7
100
AcDbLine
 10
914.8909861769881
 20
1079.659973607149
 30
0.0
 11
914.9599013199772
 21
1079.871526538968
 31
0.0
  0
LINE
  5
E2
330
22
100
AcDbEntity
  8
_2-2_IN_LINE
  6
Continuous
 62
     7
100
AcDbLine
 10
914.9599013199772
 20
1079.871526538968
 30
0.0
 11
915.0071250182705
 21
1079.991491641961
 31
0.0
  0
LINE
  5
E3
330
22
100
AcDbEntity
  8
_2-2_IN_LINE
  6
Continuous
 62
     7
100
AcDbLine
 10
915.0071250182705
 20
1079.991491641961
 30
0.0
 11
915.0480660795336
 21
1080.08360848155
 31
0.0
  0
LINE
  5
E4
330
22
100
AcDbEntity
  8
_2-2_IN_LINE
  6
Continuous
 62
     7
100
AcDbLine
 10
915.0480660795336
 20
1080.08360848155
 30
0.0
 11
915.1264812522153
 21
1080.239322784564
 31
0.0
  0
LINE
  5
E5
330
22
100
AcDbEntity
  8
_2-2_IN_LINE
  6
Continuous
 62
     7
100
AcDbLine
 10
915.1264812522153
 20
1080.239322784564
 30
0.0
 11
915.2135882665417
 21
1080.391326387444
 31
0.0
  0
LINE
  5
E6
330
22
100
AcDbEntity
  8
_2-2_IN_LINE
  6
Continuous
 62
     7
100
AcDbLine
 10
915.2135882665417
 20
1080.391326387444
 30
0.0
 11
915.3079732556898
 21
1080.539878903244
 31
0.0
  0
LINE
  5
E7
330
22
100
AcDbEntity
  8
_2-2_IN_LINE
  6
Continuous
 62
     7
100
AcDbLine
 10
915.3079732556898
 20
1080.539878903244
 30
0.0
 11
915.4082223528337
 21
1080.685239945017
 31
0.0
  0
LINE
  5
E8
330
22
100
AcDbEntity
  8
_2-2_IN_LINE
  6
Continuous
 62
     7
100
AcDbLine
 10
915.4082223528337
 20
1080.685239945017
 30
0.0
 11
915.5129216911507
 21
1080.827669125813
 31
0.0
  0
LINE
  5
E9
330
22
100
AcDbEntity
  8
_2-2_IN_LINE
  6
Continuous
 62
     7
100
AcDbLine
 10
915.5129216911507
 20
1080.827669125813
 30
0.0
 11
915.5751292708297
 21
1080.909036973016
 31
0.0
  0
LINE
  5
EA
330
22
100
AcDbEntity
  8
_2-2_IN_LINE
  6
Continuous
 62
     7
100
AcDbLine
 10
915.5751292708297
 20
1080.909036973016
 30
0.0
 11
915.6493455447652
 21
1081.00372056582
 31
0.0
  0
LINE
  5
EB
330
22
100
AcDbEntity
  8
_2-2_IN_LINE
  6
Continuous
 62
     7
100
AcDbLine
 10
915.6493455447652
 20
1081.00372056582
 30
0.0
 11
915.7795704848696
 21
1081.164439359682
 31
0.0
  0
LINE
  5
EC
330
22
100
AcDbEntity
  8
_2-2_IN_LINE
  6
Continuous
 62
     7
100
AcDbLine
 10
915.7795704848696
 20
1081.164439359682
 30
0.0
 11
915.9124223040898
 21
1081.322306122072
 31
0.0
  0
LINE
  5
ED
330
22
100
AcDbEntity
  8
_2-2_IN_LINE
  6
Continuous
 62
     7
100
AcDbLine
 10
915.9124223040898
 20
1081.322306122072
 30
0.0
 11
916.0476204422185
 21
1081.477726615537
 31
0.0
  0
LINE
  5
EE
330
22
100
AcDbEntity
  8
_2-2_IN_LINE
  6
Continuous
 62
     7
100
AcDbLine
 10
916.0476204422185
 20
1081.477726615537
 30
0.0
 11
916.1848843390419
 21
1081.631106602626
 31
0.0
  0
LINE
  5
EF
330
22
100
AcDbEntity
  8
_2-2_IN_LINE
  6
Continuous
 62
     7
100
AcDbLine
 10
916.1848843390419
 20
1081.631106602626
 30
0.0
 11
916.3239334343497
 21
1081.78285184588
 31
0.0
  0
LINE
  5
F0
330
22
100
AcDbEntity
  8
_2-2_IN_LINE
  6
Continuous
 62
     7
100
AcDbLine
 10
916.3239334343497
 20
1081.78285184588
 30
0.0
 11
916.4052893322629
 21
1081.870274938887
 31
0.0
  0
LINE
  5
F1
330
22
100
AcDbEntity
  8
_2-2_IN_LINE
  6
Continuous
 62
     7
100
AcDbLine
 10
916.4052893322629
 20
1081.870274938887
 30
0.0
 11
916.4909244056765
 21
1081.961345113287
 31
0.0
  0
LINE
  5
F2
330
22
100
AcDbEntity
  8
_2-2_IN_LINE
  6
Continuous
 62
     7
100
AcDbLine
 10
916.4909244056765
 20
1081.961345113287
 30
0.0
 11
916.640121763984
 21
1082.11704686212
 31
0.0
  0
LINE
  5
F3
330
22
100
AcDbEntity
  8
_2-2_IN_LINE
  6
Continuous
 62
     7
100
AcDbLine
 10
916.640121763984
 20
1082.11704686212
 30
0.0
 11
916.7918719775549
 21
1082.270392840519
 31
0.0
  0
LINE
  5
F4
330
22
100
AcDbEntity
  8
_2-2_IN_LINE
  6
Continuous
 62
     7
100
AcDbLine
 10
916.7918719775549
 20
1082.270392840519
 30
0.0
 11
916.9468610570575
 21
1082.420580479438
 31
0.0
  0
LINE
  5
F5
330
22
100
AcDbEntity
  8
_2-2_IN_LINE
  6
Continuous
 62
     7
100
AcDbLine
 10
916.9468610570575
 20
1082.420580479438
 30
0.0
 11
917.1057750131639
 21
1082.566807209837
 31
0.0
  0
LINE
  5
F6
330
22
100
AcDbEntity
  8
_2-2_IN_LINE
  6
Continuous
 62
     7
100
AcDbLine
 10
917.1057750131639
 20
1082.566807209837
 30
0.0
 11
917.2692998565459
 21
1082.708270462665
 31
0.0
  0
LINE
  5
F7
330
22
100
AcDbEntity
  8
_2-2_IN_LINE
  6
Continuous
 62
     7
100
AcDbLine
 10
917.2692998565459
 20
1082.708270462665
 30
0.0
 11
917.3665272981327
 21
1082.787820269946
 31
0.0
  0
LINE
  5
F8
330
22
100
AcDbEntity
  8
_2-2_IN_LINE
  6
Continuous
 62
     7
100
AcDbLine
 10
917.3665272981327
 20
1082.787820269946
 30
0.0
 11
917.4541809976748
 21
1082.856545622442
 31
0.0
  0
LINE
  5
F9
330
22
100
AcDbEntity
  8
_2-2_IN_LINE
  6
Continuous
 62
     7
100
AcDbLine
 10
917.4541809976748
 20
1082.856545622442
 30
0.0
 11
917.6087940975948
 21
1082.97075839024
 31
0.0
  0
LINE
  5
FA
330
22
100
AcDbEntity
  8
_2-2_IN_LINE
  6
Continuous
 62
     7
100
AcDbLine
 10
917.6087940975948
 20
1082.97075839024
 30
0.0
 11
917.7677592407853
 21
1083.078731079172
 31
0.0
  0
LINE
  5
FB
330
22
100
AcDbEntity
  8
_2-2_IN_LINE
  6
Continuous
 62
     7
100
AcDbLine
 10
917.7677592407853
 20
1083.078731079172
 30
0.0
 11
917.9310058980117
 21
1083.179506310598
 31
0.0
  0
LINE
  5
FC
330
22
100
AcDbEntity
  8
_2-2_IN_LINE
  6
Continuous
 62
     7
100
AcDbLine
 10
917.9310058980117
 20
1083.179506310598
 30
0.0
 11
918.0984635400424
 21
1083.272126705885
 31
0.0
  0
LINE
  5
FD
330
22
100
AcDbEntity
  8
_2-2_IN_LINE
  6
Continuous
 62
     7
100
AcDbLine
 10
918.0984635400424
 20
1083.272126705885
 30
0.0
 11
918.2700616376463
 21
1083.355634886395
 31
0.0
  0
LINE
  5
FE
330
22
100
AcDbEntity
  8
_2-2_IN_LINE
  6
Continuous
 62
     7
100
AcDbLine
 10
918.2700616376463
 20
1083.355634886395
 30
0.0
 11
918.3714578988146
 21
1083.399517157318
 31
0.0
  0
LINE
  5
FF
330
22
100
AcDbEntity
  8
_2-2_IN_LINE
  6
Continuous
 62
     7
100
AcDbLine
 10
918.3714578988146
 20
1083.399517157318
 30
0.0
 11
918.4853633915544
 21
1083.444045870581
 31
0.0
  0
LINE
  5
100
330
22
100
AcDbEntity
  8
_2-2_IN_LINE
  6
Continuous
 62
     7
100
AcDbLine
 10
918.4853633915544
 20
1083.444045870581
 30
0.0
 11
918.6852518494086
 21
1083.511356498993
 31
0.0
  0
LINE
  5
101
330
22
100
AcDbEntity
  8
_2-2_IN_LINE
  6
Continuous
 62
     7
100
AcDbLine
 10
918.6852518494086
 20
1083.511356498993
 30
0.0
 11
918.8889539482671
 21
1083.567960050493
 31
0.0
  0
LINE
  5
102
330
22
100
AcDbEntity
  8
_2-2_IN_LINE
  6
Continuous
 62
     7
100
AcDbLine
 10
918.8889539482671
 20
1083.567960050493
 30
0.0
 11
919.0957530250752
 21
1083.615334924223
 31
0.0
  0
LINE
  5
103
330
22
100
AcDbEntity
  8
_2-2_IN_LINE
  6
Continuous
 62
     7
100
AcDbLine
 10
919.0957530250752
 20
1083.615334924223
 30
0.0
 11
919.3049324167841
 21
1083.654959519334
 31
0.0
  0
LINE
  5
104
330
22
100
AcDbEntity
  8
_2-2_IN_LINE
  6
Continuous
 62
     7
100
AcDbLine
 10
919.3049324167841
 20
1083.654959519334
 30
0.0
 11
919.5157754603407
 21
1083.688312234968
 31
0.0
  0
LINE
  5
105
330
22
100
AcDbEntity
  8
_2-2_IN_LINE
  6
Continuous
 62
     7
100
AcDbLine
 10
919.5157754603407
 20
1083.688312234968
 30
0.0
 11
919.6385443083705
 21
1083.705365601002
 31
0.0
  0
LINE
  5
106
330
22
100
AcDbEntity
  8
_2-2_IN_LINE
  6
Continuous
 62
     7
100
AcDbLine
 10
919.6385443083705
 20
1083.705365601002
 30
0.0
 11
919.787001278453
 21
1083.72408260027
 31
0.0
  0
LINE
  5
107
330
22
100
AcDbEntity
  8
_2-2_IN_LINE
  6
Continuous
 62
     7
100
AcDbLine
 10
919.787001278453
 20
1083.72408260027
 30
0.0
 11
920.0433215437389
 21
1083.750989361358
 31
0.0
  0
LINE
  5
108
330
22
100
AcDbEntity
  8
_2-2_IN_LINE
  6
Continuous
 62
     7
100
AcDbLine
 10
920.0433215437389
 20
1083.750989361358
 30
0.0
 11
920.2997168723198
 21
1083.769847608658
 31
0.0
  0
LINE
  5
109
330
22
100
AcDbEntity
  8
_2-2_IN_LINE
  6
Continuous
 62
     7
100
AcDbLine
 10
920.2997168723198
 20
1083.769847608658
 30
0.0
 11
920.5557447089507
 21
1083.779193699845
 31
0.0
  0
LINE
  5
10A
330
22
100
AcDbEntity
  8
_2-2_IN_LINE
  6
Continuous
 62
     7
100
AcDbLine
 10
920.5557447089507
 20
1083.779193699845
 30
0.0
 11
920.8109624983844
 21
1083.777563992599
 31
0.0
  0
LINE
  5
10B
330
22
100
AcDbEntity
  8
_2-2_IN_LINE
  6
Continuous
 62
     7
100
AcDbLine
 10
920.8109624983844
 20
1083.777563992599
 30
0.0
 11
921.0649276853759
 21
1083.763494844595
 31
0.0
  0
LINE
  5
10C
330
22
100
AcDbEntity
  8
_2-2_IN_LINE
  6
Continuous
 62
     7
100
AcDbLine
 10
921.0649276853759
 20
1083.763494844595
 30
0.0
 11
921.2114791616114
 21
1083.749058235815
 31
0.0
  0
LINE
  5
10D
330
22
100
AcDbEntity
  8
_2-2_IN_LINE
  6
Continuous
 62
     7
100
AcDbLine
 10
921.2114791616114
 20
1083.749058235815
 30
0.0
 11
921.318823353179
 21
1083.735368449729
 31
0.0
  0
LINE
  5
10E
330
22
100
AcDbEntity
  8
_2-2_IN_LINE
  6
Continuous
 62
     7
100
AcDbLine
 10
921.318823353179
 20
1083.735368449729
 30
0.0
 11
921.5032734139484
 21
1083.706408818489
 31
0.0
  0
LINE
  5
10F
330
22
100
AcDbEntity
  8
_2-2_IN_LINE
  6
Continuous
 62
     7
100
AcDbLine
 10
921.5032734139484
 20
1083.706408818489
 30
0.0
 11
921.6872442713885
 21
1083.67209333695
 31
0.0
  0
LINE
  5
110
330
22
100
AcDbEntity
  8
_2-2_IN_LINE
  6
Continuous
 62
     7
100
AcDbLine
 10
921.6872442713885
 20
1083.67209333695
 30
0.0
 11
921.8711003072463
 21
1083.634078510923
 31
0.0
  0
LINE
  5
111
330
22
100
AcDbEntity
  8
_2-2_IN_LINE
  6
Continuous
 62
     7
100
AcDbLine
 10
921.8711003072463
 20
1083.634078510923
 30
0.0
 11
922.0552059032675
 21
1083.594020846217
 31
0.0
  0
LINE
  5
112
330
22
100
AcDbEntity
  8
_2-2_IN_LINE
  6
Continuous
 62
     7
100
AcDbLine
 10
922.0552059032675
 20
1083.594020846217
 30
0.0
 11
922.239925441195
 21
1083.55357684864
 31
0.0
  0
LINE
  5
113
330
22
100
AcDbEntity
  8
_2-2_IN_LINE
  6
Continuous
 62
     7
100
AcDbLine
 10
922.239925441195
 20
1083.55357684864
 30
0.0
 11
922.347487666731
 21
1083.530595061755
 31
0.0
  0
LINE
  5
114
330
22
100
AcDbEntity
  8
_2-2_IN_LINE
  6
Continuous
 62
     7
100
AcDbLine
 10
922.347487666731
 20
1083.530595061755
 30
0.0
 11
922.4695988980592
 21
1083.505321340256
 31
0.0
  0
LINE
  5
115
330
22
100
AcDbEntity
  8
_2-2_IN_LINE
  6
Continuous
 62
     7
100
AcDbLine
 10
922.4695988980592
 20
1083.505321340256
 30
0.0
 11
922.6803969216224
 21
1083.46197182402
 31
0.0
  0
LINE
  5
116
330
22
100
AcDbEntity
  8
_2-2_IN_LINE
  6
Continuous
 62
     7
100
AcDbLine
 10
922.6803969216224
 20
1083.46197182402
 30
0.0
 11
922.8901021454605
 21
1083.415838665871
 31
0.0
  0
LINE
  5
117
330
22
100
AcDbEntity
  8
_2-2_IN_LINE
  6
Continuous
 62
     7
100
AcDbLine
 10
922.8901021454605
 20
1083.415838665871
 30
0.0
 11
923.0970590947279
 21
1083.363352624169
 31
0.0
  0
LINE
  5
118
330
22
100
AcDbEntity
  8
_2-2_IN_LINE
  6
Continuous
 62
     7
100
AcDbLine
 10
923.0970590947279
 20
1083.363352624169
 30
0.0
 11
923.2996122945829
 21
1083.300944457269
 31
0.0
  0
LINE
  5
119
330
22
100
AcDbEntity
  8
_2-2_IN_LINE
  6
Continuous
 62
     7
100
AcDbLine
 10
923.2996122945829
 20
1083.300944457269
 30
0.0
 11
923.4961062701827
 21
1083.225044923536
 31
0.0
  0
LINE
  5
11A
330
22
100
AcDbEntity
  8
_2-2_IN_LINE
  6
Continuous
 62
     7
100
AcDbLine
 10
923.4961062701827
 20
1083.225044923536
 30
0.0
 11
923.6066440963034
 21
1083.17343498288
 31
0.0
  0
LINE
  5
11B
330
22
100
AcDbEntity
  8
_2-2_IN_LINE
  6
Continuous
 62
     7
100
AcDbLine
 10
923.6066440963034
 20
1083.17343498288
 30
0.0
 11
923.7059663274818
 21
1083.120349510955
 31
0.0
  0
LINE
  5
11C
330
22
100
AcDbEntity
  8
_2-2_IN_LINE
  6
Continuous
 62
     7
100
AcDbLine
 10
923.7059663274818
 20
1083.120349510955
 30
0.0
 11
923.8713902426733
 21
1083.017063229856
 31
0.0
  0
LINE
  5
11D
330
22
100
AcDbEntity
  8
_2-2_IN_LINE
  6
Continuous
 62
     7
100
AcDbLine
 10
923.8713902426733
 20
1083.017063229856
 30
0.0
 11
924.0294418140321
 21
1082.900513598124
 31
0.0
  0
LINE
  5
11E
330
22
100
AcDbEntity
  8
_2-2_IN_LINE
  6
Continuous
 62
     7
100
AcDbLine
 10
924.0294418140321
 20
1082.900513598124
 30
0.0
 11
924.1801168604494
 21
1082.772586924809
 31
0.0
  0
LINE
  5
11F
330
22
100
AcDbEntity
  8
_2-2_IN_LINE
  6
Continuous
 62
     7
100
AcDbLine
 10
924.1801168604494
 20
1082.772586924809
 30
0.0
 11
924.3234112008147
 21
1082.635169518962
 31
0.0
  0
LINE
  5
120
330
22
100
AcDbEntity
  8
_2-2_IN_LINE
  6
Continuous
 62
     7
100
AcDbLine
 10
924.3234112008147
 20
1082.635169518962
 30
0.0
 11
924.45932065402
 21
1082.490147689634
 31
0.0
  0
LINE
  5
121
330
22
100
AcDbEntity
  8
_2-2_IN_LINE
  6
Continuous
 62
     7
100
AcDbLine
 10
924.45932065402
 20
1082.490147689634
 30
0.0
 11
924.5347627340052
 21
1082.403293985635
 31
0.0
  0
LINE
  5
122
330
22
100
AcDbEntity
  8
_2-2_IN_LINE
  6
Continuous
 62
     7
100
AcDbLine
 10
924.5347627340052
 20
1082.403293985635
 30
0.0
 11
924.6190577583764
 21
1082.300726597646
 31
0.0
  0
LINE
  5
123
330
22
100
AcDbEntity
  8
_2-2_IN_LINE
  6
Continuous
 62
     7
100
AcDbLine
 10
924.6190577583764
 20
1082.300726597646
 30
0.0
 11
924.7572296176455
 21
1082.119441587908
 31
0.0
  0
LINE
  5
124
330
22
100
AcDbEntity
  8
_2-2_IN_LINE
  6
Continuous
 62
     7
100
AcDbLine
 10
924.7572296176455
 20
1082.119441587908
 30
0.0
 11
924.887339884664
 21
1081.93321691329
 31
0.0
  0
LINE
  5
125
330
22
100
AcDbEntity
  8
_2-2_IN_LINE
  6
Continuous
 62
     7
100
AcDbLine
 10
924.887339884664
 20
1081.93321691329
 30
0.0
 11
925.0105597866504
 21
1081.742850852199
 31
0.0
  0
LINE
  5
126
330
22
100
AcDbEntity
  8
_2-2_IN_LINE
  6
Continuous
 62
     7
100
AcDbLine
 10
925.0105597866504
 20
1081.742850852199
 30
0.0
 11
925.1280605508204
 21
1081.549141683056
 31
0.0
  0
LINE
  5
127
330
22
100
AcDbEntity
  8
_2-2_IN_LINE
  6
Continuous
 62
     7
100
AcDbLine
 10
925.1280605508204
 20
1081.549141683056
 30
0.0
 11
925.2410134043886
 21
1081.352887684272
 31
0.0
  0
LINE
  5
128
330
22
100
AcDbEntity
  8
_2-2_IN_LINE
  6
Continuous
 62
     7
100
AcDbLine
 10
925.2410134043886
 20
1081.352887684272
 30
0.0
 11
925.3049037312488
 21
1081.238208887244
 31
0.0
  0
LINE
  5
129
330
22
100
AcDbEntity
  8
_2-2_IN_LINE
  6
Continuous
 62
     7
100
AcDbLine
 10
925.3049037312488
 20
1081.238208887244
 30
0.0
 11
925.3721710987544
 21
1081.115142295107
 31
0.0
  0
LINE
  5
12A
330
22
100
AcDbEntity
  8
_2-2_IN_LINE
  6
Continuous
 62
     7
100
AcDbLine
 10
925.3721710987544
 20
1081.115142295107
 30
0.0
 11
925.4861523399624
 21
1080.901935538738
 31
0.0
  0
LINE
  5
12B
330
22
100
AcDbEntity
  8
_2-2_IN_LINE
  6
Continuous
 62
     7
100
AcDbLine
 10
925.4861523399624
 20
1080.901935538738
 30
0.0
 11
925.5982668883271
 21
1080.687638539203
 31
0.0
  0
LINE
  5
12C
330
22
100
AcDbEntity
  8
_2-2_IN_LINE
  6
Continuous
 62
     7
100
AcDbLine
 10
925.5982668883271
 20
1080.687638539203
 30
0.0
 11
925.7092834975743
 21
1080.472489278129
 31
0.0
  0
LINE
  5
12D
330
22
100
AcDbEntity
  8
_2-2_IN_LINE
  6
Continuous
 62
     7
100
AcDbLine
 10
925.7092834975743
 20
1080.472489278129
 30
0.0
 11
925.819970921432
 21
1080.256725737147
 31
0.0
  0
LINE
  5
12E
330
22
100
AcDbEntity
  8
_2-2_IN_LINE
  6
Continuous
 62
     7
100
AcDbLine
 10
925.819970921432
 20
1080.256725737147
 30
0.0
 11
925.9310979136298
 21
1080.040585897891
 31
0.0
  0
LINE
  5
12F
330
22
100
AcDbEntity
  8
_2-2_IN_LINE
  6
Continuous
 62
     7
100
AcDbLine
 10
925.9310979136298
 20
1080.040585897891
 30
0.0
 11
925.9960559082609
 21
1079.915146148391
 31
0.0
  0
LINE
  5
130
330
22
100
AcDbEntity
  8
_2-2_IN_LINE
  6
Continuous
 62
     7
100
AcDbLine
 10
925.9960559082609
 20
1079.915146148391
 30
0.0
 11
926.084469362436
 21
1079.746317965384
 31
0.0
  0
LINE
  5
131
330
22
100
AcDbEntity
  8
_2-2_IN_LINE
  6
Continuous
 62
     7
100
AcDbLine
 10
926.084469362436
 20
1079.746317965384
 30
0.0
 11
926.2409741783667
 21
1079.456922199497
 31
0.0
  0
LINE
  5
132
330
22
100
AcDbEntity
  8
_2-2_IN_LINE
  6
Continuous
 62
     7
100
AcDbLine
 10
926.2409741783667
 20
1079.456922199497
 30
0.0
 11
926.4051957715937
 21
1079.172214023247
 31
0.0
  0
LINE
  5
133
330
22
100
AcDbEntity
  8
_2-2_IN_LINE
  6
Continuous
 62
     7
100
AcDbLine
 10
926.4051957715937
 20
1079.172214023247
 30
0.0
 11
926.5801197589793
 21
1078.895160595227
 31
0.0
  0
LINE
  5
134
330
22
100
AcDbEntity
  8
_2-2_IN_LINE
  6
Continuous
 62
     7
100
AcDbLine
 10
926.5801197589793
 20
1078.895160595227
 30
0.0
 11
926.7687317573793
 21
1078.628729074042
 31
0.0
  0
LINE
  5
135
330
22
100
AcDbEntity
  8
_2-2_IN_LINE
  6
Continuous
 62
     7
100
AcDbLine
 10
926.7687317573793
 20
1078.628729074042
 30
0.0
 11
926.9740173836543
 21
1078.375886618285
 31
0.0
  0
LINE
  5
136
330
22
100
AcDbEntity
  8
_2-2_IN_LINE
  6
Continuous
 62
     7
100
AcDbLine
 10
926.9740173836543
 20
1078.375886618285
 30
0.0
 11
927.1018993914813
 21
1078.236633718505
 31
0.0
  0
LINE
  5
137
330
22
100
AcDbEntity
  8
_2-2_IN_LINE
  6
Continuous
 62
     7
100
AcDbLine
 10
927.1018993914813
 20
1078.236633718505
 30
0.0
 11
927.1481145637858
 21
1078.189528712594
 31
0.0
  0
LINE
  5
138
330
22
100
AcDbEntity
  8
_2-2_IN_LINE
  6
Continuous
 62
     7
100
AcDbLine
 10
927.1481145637858
 20
1078.189528712594
 30
0.0
 11
927.2298138253258
 21
1078.110183617557
 31
0.0
  0
LINE
  5
139
330
22
100
AcDbEntity
  8
_2-2_IN_LINE
  6
Continuous
 62
     7
100
AcDbLine
 10
927.2298138253258
 20
1078.110183617557
 30
0.0
 11
927.3140162176561
 21
1078.033383508116
 31
0.0
  0
LINE
  5
13A
330
22
100
AcDbEntity
  8
_2-2_IN_LINE
  6
Continuous
 62
     7
100
AcDbLine
 10
927.3140162176561
 20
1078.033383508116
 30
0.0
 11
927.4006621931519
 21
1077.959334604791
 31
0.0
  0
LINE
  5
13B
330
22
100
AcDbEntity
  8
_2-2_IN_LINE
  6
Continuous
 62
     7
100
AcDbLine
 10
927.4006621931519
 20
1077.959334604791
 30
0.0
 11
927.4896922041877
 21
1077.8882431281
 31
0.0
  0
LINE
  5
13C
330
22
100
AcDbEntity
  8
_2-2_IN_LINE
  6
Continuous
 62
     7
100
AcDbLine
 10
927.4896922041877
 20
1077.8882431281
 30
0.0
 11
927.5810467031389
 21
1077.82031529857
 31
0.0
  0
LINE
  5
13D
330
22
100
AcDbEntity
  8
_2-2_IN_LINE
  6
Continuous
 62
     7
100
AcDbLine
 10
927.5810467031389
 20
1077.82031529857
 30
0.0
 11
927.635073928034
 21
1077.782448002181
 31
0.0
  0
LINE
  5
13E
330
22
100
AcDbEntity
  8
_2-2_IN_LINE
  6
Continuous
 62
     7
100
AcDbLine
 10
927.635073928034
 20
1077.782448002181
 30
0.0
 11
927.7246753391217
 21
1077.723155311803
 31
0.0
  0
LINE
  5
13F
330
22
100
AcDbEntity
  8
_2-2_IN_LINE
  6
Continuous
 62
     7
100
AcDbLine
 10
927.7246753391217
 20
1077.723155311803
 30
0.0
 11
927.8828667832922
 21
1077.626742047607
 31
0.0
  0
LINE
  5
140
330
22
100
AcDbEntity
  8
_2-2_IN_LINE
  6
Continuous
 62
     7
100
AcDbLine
 10
927.8828667832922
 20
1077.626742047607
 30
0.0
 11
928.0442780703246
 21
1077.535413638536
 31
0.0
  0
LINE
  5
141
330
22
100
AcDbEntity
  8
_2-2_IN_LINE
  6
Continuous
 62
     7
100
AcDbLine
 10
928.0442780703246
 20
1077.535413638536
 30
0.0
 11
928.2071980186175
 21
1077.446522930086
 31
0.0
  0
LINE
  5
142
330
22
100
AcDbEntity
  8
_2-2_IN_LINE
  6
Continuous
 62
     7
100
AcDbLine
 10
928.2071980186175
 20
1077.446522930086
 30
0.0
 11
928.3699154465708
 21
1077.35742276775
 31
0.0
  0
LINE
  5
143
330
22
100
AcDbEntity
  8
_2-2_IN_LINE
  6
Continuous
 62
     7
100
AcDbLine
 10
928.3699154465708
 20
1077.35742276775
 30
0.0
 11
928.5307191725827
 21
1077.265465997025
 31
0.0
  0
LINE
  5
144
330
22
100
AcDbEntity
  8
_2-2_IN_LINE
  6
Continuous
 62
     7
100
AcDbLine
 10
928.5307191725827
 20
1077.265465997025
 30
0.0
 11
928.622434180909
 21
1077.209779055513
 31
0.0
  0
LINE
  5
145
330
22
100
AcDbEntity
  8
_2-2_IN_LINE
  6
Continuous
 62
     7
100
AcDbLine
 10
928.622434180909
 20
1077.209779055513
 30
0.0
 11
928.7148451733072
 21
1077.15041428564
 31
0.0
  0
LINE
  5
146
330
22
100
AcDbEntity
  8
_2-2_IN_LINE
  6
Continuous
 62
     7
100
AcDbLine
 10
928.7148451733072
 20
1077.15041428564
 30
0.0
 11
928.8707881754614
 21
1077.042912523873
 31
0.0
  0
LINE
  5
147
330
22
100
AcDbEntity
  8
_2-2_IN_LINE
  6
Continuous
 62
     7
100
AcDbLine
 10
928.8707881754614
 20
1077.042912523873
 30
0.0
 11
929.0231107176829
 21
1076.929929333905
 31
0.0
  0
LINE
  5
148
330
22
100
AcDbEntity
  8
_2-2_IN_LINE
  6
Continuous
 62
     7
100
AcDbLine
 10
929.0231107176829
 20
1076.929929333905
 30
0.0
 11
929.1725872064185
 21
1076.81266928151
 31
0.0
  0
LINE
  5
149
330
22
100
AcDbEntity
  8
_2-2_IN_LINE
  6
Continuous
 62
     7
100
AcDbLine
 10
929.1725872064185
 20
1076.81266928151
 30
0.0
 11
929.319992048112
 21
1076.692336932461
 31
0.0
  0
LINE
  5
14A
330
22
100
AcDbEntity
  8
_2-2_IN_LINE
  6
Continuous
 62
     7
100
AcDbLine
 10
929.319992048112
 20
1076.692336932461
 30
0.0
 11
929.4660996492076
 21
1076.570136852535
 31
0.0
  0
LINE
  5
14B
330
22
100
AcDbEntity
  8
_2-2_IN_LINE
  6
Continuous
 62
     7
100
AcDbLine
 10
929.4660996492076
 20
1076.570136852535
 30
0.0
 11
929.5505528186108
 21
1076.498879673443
 31
0.0
  0
LINE
  5
14C
330
22
100
AcDbEntity
  8
_2-2_IN_LINE
  6
Continuous
 62
     7
100
AcDbLine
 10
929.5505528186108
 20
1076.498879673443
 30
0.0
 11
929.656394682229
 21
1076.409399089543
 31
0.0
  0
LINE
  5
14D
330
22
100
AcDbEntity
  8
_2-2_IN_LINE
  6
Continuous
 62
     7
100
AcDbLine
 10
929.656394682229
 20
1076.409399089543
 30
0.0
 11
929.8379674605396
 21
1076.254316035748
 31
0.0
  0
LINE
  5
14E
330
22
100
AcDbEntity
  8
_2-2_IN_LINE
  6
Continuous
 62
     7
100
AcDbLine
 10
929.8379674605396
 20
1076.254316035748
 30
0.0
 11
930.0171421131645
 21
1076.096926867506
 31
0.0
  0
LINE
  5
14F
330
22
100
AcDbEntity
  8
_2-2_IN_LINE
  6
Continuous
 62
     7
100
AcDbLine
 10
930.0171421131645
 20
1076.096926867506
 30
0.0
 11
930.1924742393888
 21
1075.93573666958
 31
0.0
  0
LINE
  5
150
330
22
100
AcDbEntity
  8
_2-2_IN_LINE
  6
Continuous
 62
     7
100
AcDbLine
 10
930.1924742393888
 20
1075.93573666958
 30
0.0
 11
930.3625194384983
 21
1075.76925052673
 31
0.0
  0
LINE
  5
151
330
22
100
AcDbEntity
  8
_2-2_IN_LINE
  6
Continuous
 62
     7
100
AcDbLine
 10
930.3625194384983
 20
1075.76925052673
 30
0.0
 11
930.5258333097768
 21
1075.595973523721
 31
0.0
  0
LINE
  5
152
330
22
100
AcDbEntity
  8
_2-2_IN_LINE
  6
Continuous
 62
     7
100
AcDbLine
 10
930.5258333097768
 20
1075.595973523721
 30
0.0
 11
930.6169018917161
 21
1075.49177221551
 31
0.0
  0
LINE
  5
153
330
22
100
AcDbEntity
  8
_2-2_IN_LINE
  6
Continuous
 62
     7
100
AcDbLine
 10
930.6169018917161
 20
1075.49177221551
 30
0.0
 11
930.6685611643526
 21
1075.429684939988
 31
0.0
  0
LINE
  5
154
330
22
100
AcDbEntity
  8
_2-2_IN_LINE
  6
Continuous
 62
     7
100
AcDbLine
 10
930.6685611643526
 20
1075.429684939988
 30
0.0
 11
930.7548862746582
 21
1075.320212200149
 31
0.0
  0
LINE
  5
155
330
22
100
AcDbEntity
  8
_2-2_IN_LINE
  6
Continuous
 62
     7
100
AcDbLine
 10
930.7548862746582
 20
1075.320212200149
 30
0.0
 11
930.8372461467913
 21
1075.207710942391
 31
0.0
  0
LINE
  5
156
330
22
100
AcDbEntity
  8
_2-2_IN_LINE
  6
Continuous
 62
     7
100
AcDbLine
 10
930.8372461467913
 20
1075.207710942391
 30
0.0
 11
930.9150668375355
 21
1075.092230009679
 31
0.0
  0
LINE
  5
157
330
22
100
AcDbEntity
  8
_2-2_IN_LINE
  6
Continuous
 62
     7
100
AcDbLine
 10
930.9150668375355
 20
1075.092230009679
 30
0.0
 11
930.9877744036807
 21
1074.973818244987
 31
0.0
  0
LINE
  5
158
330
22
100
AcDbEntity
  8
_2-2_IN_LINE
  6
Continuous
 62
     7
100
AcDbLine
 10
930.9877744036807
 20
1074.973818244987
 30
0.0
 11
931.054794902009
 21
1074.852524491282
 31
0.0
  0
LINE
  5
159
330
22
100
AcDbEntity
  8
_2-2_IN_LINE
  6
Continuous
 62
     7
100
AcDbLine
 10
931.054794902009
 20
1074.852524491282
 30
0.0
 11
931.0908348130967
 21
1074.780872833442
 31
0.0
  0
LINE
  5
15A
330
22
100
AcDbEntity
  8
_2-2_IN_LINE
  6
Continuous
 62
     7
100
AcDbLine
 10
931.0908348130967
 20
1074.780872833442
 30
0.0
 11
931.1374866664541
 21
1074.67939694239
 31
0.0
  0
LINE
  5
15B
330
22
100
AcDbEntity
  8
_2-2_IN_LINE
  6
Continuous
 62
     7
100
AcDbLine
 10
931.1374866664541
 20
1074.67939694239
 30
0.0
 11
931.2089734248045
 21
1074.50063256334
 31
0.0
  0
LINE
  5
15C
330
22
100
AcDbEntity
  8
_2-2_IN_LINE
  6
Continuous
 62
     7
100
AcDbLine
 10
931.2089734248045
 20
1074.50063256334
 30
0.0
 11
931.2709247634282
 21
1074.317812145191
 31
0.0
  0
LINE
  5
15D
330
22
100
AcDbEntity
  8
_2-2_IN_LINE
  6
Continuous
 62
     7
100
AcDbLine
 10
931.2709247634282
 20
1074.317812145191
 30
0.0
 11
931.3254226516974
 21
1074.131821286001
 31
0.0
  0
LINE
  5
15E
330
22
100
AcDbEntity
  8
_2-2_IN_LINE
  6
Continuous
 62
     7
100
AcDbLine
 10
931.3254226516974
 20
1074.131821286001
 30
0.0
 11
931.3745490589839
 21
1073.943545583827
 31
0.0
  0
LINE
  5
15F
330
22
100
AcDbEntity
  8
_2-2_IN_LINE
  6
Continuous
 62
     7
100
AcDbLine
 10
931.3745490589839
 20
1073.943545583827
 30
0.0
 11
931.4203859546616
 21
1073.753870636722
 31
0.0
  0
LINE
  5
160
330
22
100
AcDbEntity
  8
_2-2_IN_LINE
  6
Continuous
 62
     7
100
AcDbLine
 10
931.4203859546616
 20
1073.753870636722
 30
0.0
 11
931.4462845041319
 21
1073.643567005061
 31
0.0
  0
LINE
  5
161
330
22
100
AcDbEntity
  8
_2-2_IN_LINE
  6
Continuous
 62
     7
100
AcDbLine
 10
862.6984086415166
 20
1073.643567005061
 30
0.0
 11
920.6984086415166
 21
1073.643567005061
 31
0.0
  0
LINE
  5
162
330
22
100
AcDbEntity
  8
_2-2_IN_LINE
  6
Continuous
 62
     7
100
AcDbLine
 10
862.6984086415166
 20
1318.643567005061
 30
0.0
 11
862.6984086415166
 21
1068.643567005061
 31
0.0
  0
LINE
  5
163
330
22
100
AcDbEntity
  8
_2-2_IN_LINE
  6
Continuous
 62
     7
100
AcDbLine
 10
862.6984086415166
 20
1068.643567005061
 30
0.0
 11
1362.698408641517
 21
1068.643567005061
 31
0.0
  0
LINE
  5
164
330
22
100
AcDbEntity
  8
_2-2_IN_LINE
  6
Continuous
 62
     7
100
AcDbLine
 10
902.6984086415167
 20
428.6435670050607
 30
0.0
 11
902.6984086415167
 21
278.6435670050608
 31
0.0
  0
LINE
  5
165
330
22
100
AcDbEntity
  8
_2-2_IN_LINE
  6
Continuous
 62
     7
100
AcDbLine
 10
862.6984086415166
 20
428.6435670050607
 30
0.0
 11
1362.698408641517
 21
428.6435670050607
 31
0.0
  0
LINE
  5
166
330
22
100
AcDbEntity
  8
_2-2_IN_LINE
  6
Continuous
 62
     7
100
AcDbLine
 10
862.6984086415166
 20
678.6435670050607
 30
0.0
 11
862.6984086415166
 21
278.6435670050608
 31
0.0
  0
TEXT
  5
167
330
22
100
AcDbEntity
  8
_2-B_DIM
 62
     7
100
AcDbText
 10
872.9277220233155
 20
1132.502961005612
 30
0.0
 40
15.0
  1
40以上
100
AcDbText
  0
LINE
  5
168
330
22
100
AcDbEntity
  8
_2-D_ハッチ他
  6
Continuous
 62
     4
100
AcDbLine
 10
872.7530769987041
 20
428.6435670050607
 30
0.0
 11
902.6984086415167
 21
398.6982353622514
 31
0.0
  0
LINE
  5
169
330
22
100
AcDbEntity
  8
_2-D_ハッチ他
  6
Continuous
 62
     4
100
AcDbLine
 10
879.1234234277707
 20
278.643567005063
 30
0.0
 11
902.6984086415167
 21
302.2185522188014
 31
0.0
  0
LINE
  5
16A
330
22
100
AcDbEntity
  8
_2-D_ハッチ他
  6
Continuous
 62
     4
100
AcDbLine
 10
862.6984086415157
 20
311.4190147486787
 30
0.0
 11
902.6984086415167
 21
271.419014748673
 31
0.0
  0
LINE
  5
16B
330
22
100
AcDbEntity
  8
_2-D_ハッチ他
  6
Continuous
 62
     4
100
AcDbLine
 10
862.6984086415179
 20
325.5611503724006
 30
0.0
 11
902.6984086415167
 21
285.5611503723995
 31
0.0
  0
LINE
  5
16C
330
22
100
AcDbEntity
  8
_2-D_ハッチ他
  6
Continuous
 62
     4
100
AcDbLine
 10
862.6984086415166
 20
339.703285996134
 30
0.0
 11
902.6984086415167
 21
299.703285996134
 31
0.0
  0
LINE
  5
16D
330
22
100
AcDbEntity
  8
_2-D_ハッチ他
  6
Continuous
 62
     4
100
AcDbLine
 10
862.6984086415157
 20
353.8454216198673
 30
0.0
 11
902.6984086415167
 21
313.8454216198661
 31
0.0
  0
LINE
  5
16E
330
22
100
AcDbEntity
  8
_2-D_ハッチ他
  6
Continuous
 62
     4
100
AcDbLine
 10
862.6984086415157
 20
367.9875572436007
 30
0.0
 11
902.6984086415167
 21
327.987557243604
 31
0.0
  0
LINE
  5
16F
330
22
100
AcDbEntity
  8
_2-D_ハッチ他
  6
Continuous
 62
     4
100
AcDbLine
 10
862.6984086415166
 20
382.1296928673249
 30
0.0
 11
902.6984086415167
 21
342.1296928673249
 31
0.0
  0
LINE
  5
170
330
22
100
AcDbEntity
  8
_2-D_ハッチ他
  6
Continuous
 62
     4
100
AcDbLine
 10
862.6984086415166
 20
396.2718284910583
 30
0.0
 11
902.6984086415167
 21
356.2718284910559
 31
0.0
  0
LINE
  5
171
330
22
100
AcDbEntity
  8
_2-D_ハッチ他
  6
Continuous
 62
     4
100
AcDbLine
 10
862.6984086415157
 20
410.4139641147916
 30
0.0
 11
902.6984086415167
 21
370.4139641147928
 31
0.0
  0
LINE
  5
172
330
22
100
AcDbEntity
  8
_2-D_ハッチ他
  6
Continuous
 62
     4
100
AcDbLine
 10
862.6984086415145
 20
424.5560997385272
 30
0.0
 11
902.6984086415167
 21
384.5560997385248
 31
0.0
  0
LINE
  5
173
330
22
100
AcDbEntity
  8
_2-D_ハッチ他
  6
Continuous
 62
     4
100
AcDbLine
 10
864.9812878040487
 20
278.643567005063
 30
0.0
 11
902.6984086415167
 21
316.3606878425336
 31
0.0
  0
LINE
  5
174
330
22
100
AcDbEntity
  8
_2-D_ハッチ他
  6
Continuous
 62
     4
100
AcDbLine
 10
862.6984086415189
 20
290.502823466268
 30
0.0
 11
902.6984086415167
 21
330.502823466268
 31
0.0
  0
LINE
  5
175
330
22
100
AcDbEntity
  8
_2-D_ハッチ他
  6
Continuous
 62
     4
100
AcDbLine
 10
862.6984086415166
 20
304.644959089999
 30
0.0
 11
902.6984086415167
 21
344.6449590899991
 31
0.0
  0
LINE
  5
176
330
22
100
AcDbEntity
  8
_2-D_ハッチ他
  6
Continuous
 62
     4
100
AcDbLine
 10
862.6984086415157
 20
318.7870947137233
 30
0.0
 11
902.6984086415167
 21
358.7870947137245
 31
0.0
  0
LINE
  5
177
330
22
100
AcDbEntity
  8
_2-D_ハッチ他
  6
Continuous
 62
     4
100
AcDbLine
 10
862.6984086415145
 20
332.9292303374544
 30
0.0
 11
902.6984086415167
 21
372.9292303374567
 31
0.0
  0
LINE
  5
178
330
22
100
AcDbEntity
  8
_2-D_ハッチ他
  6
Continuous
 62
     4
100
AcDbLine
 10
862.6984086415179
 20
347.0713659611899
 30
0.0
 11
902.6984086415167
 21
387.0713659611888
 31
0.0
  0
LINE
  5
179
330
22
100
AcDbEntity
  8
_2-D_ハッチ他
  6
Continuous
 62
     4
100
AcDbLine
 10
862.6984086415166
 20
361.2135015849234
 30
0.0
 11
902.6984086415167
 21
401.2135015849233
 31
0.0
  0
LINE
  5
17A
330
22
100
AcDbEntity
  8
_2-D_ハッチ他
  6
Continuous
 62
     4
100
AcDbLine
 10
862.6984086415166
 20
375.3556372086476
 30
0.0
 11
902.6984086415167
 21
415.3556372086498
 31
0.0
  0
LINE
  5
17B
330
22
100
AcDbEntity
  8
_2-D_ハッチ他
  6
Continuous
 62
     4
100
AcDbLine
 10
862.6984086415157
 20
389.4977728323785
 30
0.0
 11
901.8442028141956
 21
428.6435670050607
 31
0.0
  0
LINE
  5
17C
330
22
100
AcDbEntity
  8
_2-D_ハッチ他
  6
Continuous
 62
     4
100
AcDbLine
 10
862.6984086415166
 20
403.6399084561144
 30
0.0
 11
887.7020671904633
 21
428.6435670050607
 31
0.0
  0
LINE
  5
17D
330
22
100
AcDbEntity
  8
_2-D_ハッチ他
  6
Continuous
 62
     4
100
AcDbLine
 10
893.2655590514995
 20
278.643567005063
 30
0.0
 11
902.6984086415167
 21
288.076416595077
 31
0.0
  0
LINE
  5
17E
330
22
100
AcDbEntity
  8
_2-D_ハッチ他
  6
Continuous
 62
     4
100
AcDbLine
 10
886.8952126224327
 20
428.6435670050607
 30
0.0
 11
902.6984086415167
 21
412.8403709859791
 31
0.0
  0
LINE
  5
17F
330
22
100
AcDbEntity
  8
_2-6_鋼板__アングル
  6
Continuous
 62
     2
100
AcDbLine
 10
964.1975260895053
 20
435.3335340286437
 30
0.0
 11
960.6433749216686
 21
435.8947157919865
 31
0.0
  0
ARC
  5
180
330
22
100
AcDbEntity
  8
_2-6_鋼板__アングル
  6
Continuous
 62
     2
100
AcDbCircle
 10
964.2287186041983
 20
435.53108662171
 30
0.0
 40
0.1999999999999999
100
AcDbArc
 50
261.027373385103
 51
334.8585477781127
  0
ARC
  5
181
330
22
100
AcDbEntity
  8
_2-6_鋼板__アングル
  6
Continuous
 62
     2
100
AcDbCircle
 10
964.0810724829444
 20
435.6003794209349
 30
0.0
 40
0.3630977288186556
100
AcDbArc
 50
334.8585477781081
 51
35.33836331065241
  0
ARC
  5
182
330
22
100
AcDbEntity
  8
_2-6_鋼板__アングル
  6
Continuous
 62
     2
100
AcDbCircle
 10
964.2141195356851
 20
435.6947157919868
 30
0.0
 40
0.1999999999999999
100
AcDbArc
 50
35.33836331068903
 51
89.99999999998218
  0
LINE
  5
183
330
22
100
AcDbEntity
  8
_2-6_鋼板__アングル
  6
Continuous
 62
     2
100
AcDbLine
 10
964.0103710013402
 20
434.1482184702491
 30
0.0
 11
960.5492212970002
 21
434.6947157919865
 31
0.0
  0
ARC
  5
184
330
22
100
AcDbEntity
  8
_2-6_鋼板__アングル
  6
Continuous
 62
     2
100
AcDbCircle
 10
964.2287186041983
 20
435.53108662171
 30
0.0
 40
1.399999999999999
100
AcDbArc
 50
261.0273733851059
 51
334.858547778124
  0
ARC
  5
185
330
22
100
AcDbEntity
  8
_2-6_鋼板__アングル
  6
Continuous
 62
     2
100
AcDbCircle
 10
964.0810724829444
 20
435.6003794209349
 30
0.0
 40
1.563097728818655
100
AcDbArc
 50
334.8585477781244
 51
35.3383633109004
  0
ARC
  5
186
330
22
100
AcDbEntity
  8
_2-6_鋼板__アングル
  6
Continuous
 62
     2
100
AcDbCircle
 10
964.2141195356851
 20
435.6947157919868
 30
0.0
 40
1.399999999999999
100
AcDbArc
 50
35.33836331090254
 51
90.0000000000023
  0
LINE
  5
187
330
22
100
AcDbEntity
  8
_2-6_鋼板__アングル
  6
Continuous
 62
     2
100
AcDbLine
 10
956.1433749216657
 20
435.8947157919865
 30
0.0
 11
956.1433749216657
 21
434.6947157919865
 31
0.0
  0
LINE
  5
188
330
22
100
AcDbEntity
  8
_2-6_鋼板__アングル
  6
Continuous
 62
     2
100
AcDbLine
 10
956.1433749216657
 20
434.6947157919865
 30
0.0
 11
960.5492212970002
 21
434.6947157919865
 31
0.0
  0
LINE
  5
189
330
22
100
AcDbEntity
  8
_2-6_鋼板__アングル
  6
Continuous
 62
     2
100
AcDbLine
 10
938.7911685718009
 20
436.5970133658371
 30
0.0
 11
941.3941554178054
 21
434.5947157919865
 31
0.0
  0
ARC
  5
18A
330
22
100
AcDbEntity
  8
_2-6_鋼板__アングル
  6
Continuous
 62
     2
100
AcDbCircle
 10
937.3278627457594
 20
434.6947157919865
 30
0.0
 40
2.399999999999999
100
AcDbArc
 50
52.43140797117396
 51
90.0
  0
LINE
  5
18B
330
22
100
AcDbEntity
  8
_2-6_鋼板__アングル
  6
Continuous
 62
     2
100
AcDbLine
 10
950.4971422638108
 20
436.5970133658371
 30
0.0
 11
947.8941554178064
 21
434.5947157919865
 31
0.0
  0
ARC
  5
18C
330
22
100
AcDbEntity
  8
_2-6_鋼板__アングル
  6
Continuous
 62
     2
100
AcDbCircle
 10
951.9604480898523
 20
434.6947157919865
 30
0.0
 40
2.399999999999999
100
AcDbArc
 50
90.0
 51
127.568592028826
  0
LINE
  5
18D
330
22
100
AcDbEntity
  8
_2-6_鋼板__アングル
  6
Continuous
 62
     4
100
AcDbLine
 10
937.3278627457594
 20
437.0947157919864
 30
0.0
 11
951.9604480898523
 21
437.0947157919864
 31
0.0
  0
LINE
  5
18E
330
22
100
AcDbEntity
  8
_2-6_鋼板__アングル
  6
Continuous
 62
     2
100
AcDbLine
 10
951.9604480898523
 20
437.0947157919864
 30
0.0
 11
964.2141195356851
 21
437.0947157919864
 31
0.0
  0
LINE
  5
18F
330
22
100
AcDbEntity
  8
_2-6_鋼板__アングル
  6
Continuous
 62
     2
100
AcDbLine
 10
941.3941554178054
 20
434.5947157919865
 30
0.0
 11
940.6625025047869
 21
433.6435670050607
 31
0.0
  0
LINE
  5
190
330
22
100
AcDbEntity
  8
_2-6_鋼板__アングル
  6
Continuous
 62
     2
100
AcDbLine
 10
947.8941554178064
 20
434.5947157919865
 30
0.0
 11
948.6258083308246
 21
433.6435670050607
 31
0.0
  0
LINE
  5
191
330
22
100
AcDbEntity
  8
_2-6_鋼板__アングル
  6
Continuous
 62
     4
100
AcDbLine
 10
948.6258083308246
 20
433.6435670050607
 30
0.0
 11
940.6625025047869
 21
433.6435670050607
 31
0.0
  0
LINE
  5
192
330
22
100
AcDbEntity
  8
_2-6_鋼板__アングル
  6
Continuous
 62
     2
100
AcDbLine
 10
938.0595156587776
 20
435.6458645789124
 30
0.0
 11
940.6625025047869
 21
433.6435670050607
 31
0.0
  0
ARC
  5
193
330
22
100
AcDbEntity
  8
_2-6_鋼板__アングル
  6
Continuous
 62
     2
100
AcDbCircle
 10
937.3278627457594
 20
434.6947157919865
 30
0.0
 40
1.199999999999999
100
AcDbArc
 50
52.43140797117494
 51
90.0
  0
LINE
  5
194
330
22
100
AcDbEntity
  8
_2-6_鋼板__アングル
  6
Continuous
 62
     2
100
AcDbLine
 10
951.2287951768339
 20
435.6458645789124
 30
0.0
 11
948.6258083308246
 21
433.6435670050607
 31
0.0
  0
ARC
  5
195
330
22
100
AcDbEntity
  8
_2-6_鋼板__アングル
  6
Continuous
 62
     2
100
AcDbCircle
 10
951.9604480898523
 20
434.6947157919865
 30
0.0
 40
1.199999999999999
100
AcDbArc
 50
89.99999999999994
 51
127.568592028828
  0
LINE
  5
196
330
22
100
AcDbEntity
  8
_2-6_鋼板__アングル
  6
Continuous
 62
     2
100
AcDbLine
 10
951.9604480898523
 20
435.8947157919865
 30
0.0
 11
964.2141195356851
 21
435.8947157919865
 31
0.0
  0
LINE
  5
197
330
22
100
AcDbEntity
  8
_2-6_鋼板__アングル
  6
Continuous
 62
     2
100
AcDbLine
 10
864.0956407169452
 20
455.9015681182135
 30
0.0
 11
862.8972852752385
 21
455.8387649707222
 31
0.0
  0
LINE
  5
198
330
22
100
AcDbEntity
  8
_2-6_鋼板__アングル
  6
Continuous
 62
     2
100
AcDbLine
 10
862.8972852752385
 20
455.8387649707222
 30
0.0
 11
862.6984086415166
 21
459.6335572027888
 31
0.0
  0
ARC
  5
199
330
22
100
AcDbEntity
  8
_2-6_鋼板__アングル
  6
Continuous
 62
     2
100
AcDbCircle
 10
863.8967640832236
 20
459.6963603502799
 30
0.0
 40
1.200000000000208
100
AcDbArc
 50
3.000000000010512
 51
182.9999999999969
  0
LINE
  5
19A
330
22
100
AcDbEntity
  8
_2-6_鋼板__アングル
  6
Continuous
 62
     2
100
AcDbLine
 10
874.6338010849548
 20
435.8947157919865
 30
0.0
 11
937.3278627457594
 21
435.8947157919865
 31
0.0
  0
LINE
  5
19B
330
22
100
AcDbEntity
  8
_2-6_鋼板__アングル
  6
Continuous
 62
     2
100
AcDbLine
 10
864.6475057374109
 20
445.3713562295561
 30
0.0
 11
863.8967640832236
 21
459.6963603502799
 31
0.0
  0
ARC
  5
19C
330
22
100
AcDbEntity
  8
_2-6_鋼板__アングル
  6
Continuous
 62
     2
100
AcDbCircle
 10
874.6338010849548
 20
445.8947157919864
 30
0.0
 40
10.0
100
AcDbArc
 50
183.000000000001
 51
270.0
  0
LINE
  5
19D
330
22
100
AcDbEntity
  8
_2-6_鋼板__アングル
  6
Continuous
 62
     2
100
AcDbLine
 10
874.6338010849548
 20
437.0947157919864
 30
0.0
 11
937.3278627457594
 21
437.0947157919864
 31
0.0
  0
ARC
  5
19E
330
22
100
AcDbEntity
  8
_2-6_鋼板__アングル
  6
Continuous
 62
     2
100
AcDbCircle
 10
874.6338010849548
 20
445.8947157919864
 30
0.0
 40
8.8
100
AcDbArc
 50
183.0000000000005
 51
270.0
  0
LINE
  5
19F
330
22
100
AcDbEntity
  8
_2-6_鋼板__アングル
  6
Continuous
 62
     4
100
AcDbLine
 10
864.1879468707692
 20
454.1402617799385
 30
0.0
 11
865.386302312476
 21
454.2030649274297
 31
0.0
  0
LINE
  5
1A0
330
22
100
AcDbEntity
  8
_2-6_鋼板__アングル
  6
Continuous
 62
     4
100
AcDbLine
 10
864.5281305863491
 20
447.6491698040345
 30
0.0
 11
865.7264860280555
 21
447.7119729515258
 31
0.0
  0
ARC
  5
1A1
330
22
100
AcDbEntity
  8
_2-4_OUT_LINE
  6
Continuous
 62
     2
100
AcDbCircle
 10
874.6338010849548
 20
445.8947157919864
 30
0.0
 40
3.8
100
AcDbArc
 50
183.0000000000005
 51
270.0
  0
LINE
  5
1A2
330
22
100
AcDbEntity
  8
_2-4_OUT_LINE
  6
Continuous
 62
     2
100
AcDbLine
 10
966.867224184965
 20
442.0947157919865
 30
0.0
 11
970.3183729718912
 21
438.6435670050608
 31
0.0
  0
LINE
  5
1A3
330
22
100
AcDbEntity
  8
_2-4_OUT_LINE
  6
Continuous
 62
     2
100
AcDbLine
 10
874.6338010849548
 20
442.0947157919865
 30
0.0
 11
966.867224184965
 21
442.0947157919865
 31
0.0
  0
LINE
  5
1A4
330
22
100
AcDbEntity
  8
_2-4_OUT_LINE
  6
Continuous
 62
     2
100
AcDbLine
 10
870.8390088528862
 20
445.6958391582637
 30
0.0
 11
870.0078828729536
 21
461.5546675860665
 31
0.0
  0
LINE
  5
1A5
330
22
100
AcDbEntity
  8
_2-4_OUT_LINE
  6
Continuous
 62
     2
100
AcDbLine
 10
870.0078828729536
 20
461.5546675860665
 30
0.0
 11
867.6984086415167
 21
465.5547942936883
 31
0.0
  0
LINE
  5
1A6
330
22
100
AcDbEntity
  8
_2-4_OUT_LINE
  6
Continuous
 62
     2
100
AcDbLine
 10
867.6984086415167
 20
465.5547942936883
 30
0.0
 11
867.6984086415167
 21
678.6435670050607
 31
0.0
  0
LINE
  5
1A7
330
22
100
AcDbEntity
  8
_2-2_IN_LINE
  6
Continuous
 62
     7
100
AcDbLine
 10
964.7961563731007
 20
437.0947157919864
 30
0.0
 11
968.2473051600268
 21
433.6435670050607
 31
0.0
  0
LINE
  5
1A8
330
22
100
AcDbEntity
  8
_2-2_IN_LINE
  6
Continuous
 62
     7
100
AcDbLine
 10
865.0775589563309
 20
460.0942391074297
 30
0.0
 11
862.6984086415166
 21
464.2150483315325
 31
0.0
  0
LINE
  5
1A9
330
22
100
AcDbEntity
  8
_2-7_ビス
  6
Continuous
 62
     7
100
AcDbLine
 10
947.6441554178077
 20
424.5480818321484
 30
0.0
 11
947.6441554178077
 21
428.6435670050607
 31
0.0
  0
LINE
  5
1AA
330
22
100
AcDbEntity
  8
_2-7_ビス
  6
Continuous
 62
     7
100
AcDbLine
 10
947.6441554178077
 20
428.6435670050607
 30
0.0
 11
944.6441554178081
 21
428.6435670050607
 31
0.0
  0
LINE
  5
1AB
330
22
100
AcDbEntity
  8
_2-7_ビス
  6
Continuous
 62
     7
100
AcDbLine
 10
947.6441554178077
 20
424.5480818321484
 30
0.0
 11
948.394155417808
 21
423.7235209119447
 31
0.0
  0
LINE
  5
1AC
330
22
100
AcDbEntity
  8
_2-7_ビス
  6
Continuous
 62
     7
100
AcDbLine
 10
948.394155417808
 20
423.7235209119447
 30
0.0
 11
948.394155417808
 21
421.6249151848299
 31
0.0
  0
LINE
  5
1AD
330
22
100
AcDbEntity
  8
_2-7_ビス
  6
Continuous
 62
     7
100
AcDbLine
 10
948.394155417808
 20
421.6249151848299
 30
0.0
 11
947.8459361678066
 21
417.5073218715808
 31
0.0
  0
LINE
  5
1AE
330
22
100
AcDbEntity
  8
_2-7_ビス
  6
Continuous
 62
     7
100
AcDbLine
 10
947.8459361678066
 20
417.5073218715808
 30
0.0
 11
947.6040124178066
 21
417.0997073630601
 31
0.0
  0
LINE
  5
1AF
330
22
100
AcDbEntity
  8
_2-7_ビス
  6
Continuous
 62
     7
100
AcDbLine
 10
947.6040124178066
 20
417.0997073630601
 30
0.0
 11
947.6441554178077
 21
417.0997073630601
 31
0.0
  0
LINE
  5
1B0
330
22
100
AcDbEntity
  8
_2-7_ビス
  6
Continuous
 62
     7
100
AcDbLine
 10
947.6441554178077
 20
417.0997073630601
 30
0.0
 11
947.6441554178077
 21
415.2856722764605
 31
0.0
  0
LINE
  5
1B1
330
22
100
AcDbEntity
  8
_2-7_ビス
  6
Continuous
 62
     7
100
AcDbLine
 10
947.6441554178077
 20
415.2856722764605
 30
0.0
 11
947.2111428572398
 21
414.4611108734604
 31
0.0
  0
LINE
  5
1B2
330
22
100
AcDbEntity
  8
_2-7_ビス
  6
Continuous
 62
     7
100
AcDbLine
 10
947.341046667806
 20
414.2137424525597
 30
0.0
 11
948.3191554178064
 21
414.2137424525597
 31
0.0
  0
LINE
  5
1B3
330
22
100
AcDbEntity
  8
_2-7_ビス
  6
Continuous
 62
     7
100
AcDbLine
 10
948.3191554178064
 20
414.2137424525597
 30
0.0
 11
948.3191554178064
 21
409.9803518586808
 31
0.0
  0
LINE
  5
1B4
330
22
100
AcDbEntity
  8
_2-7_ビス
  6
Continuous
 62
     7
100
AcDbLine
 10
948.3191554178064
 20
409.9803518586808
 30
0.0
 11
947.8176859178065
 21
409.0190056136602
 31
0.0
  0
LINE
  5
1B5
330
22
100
AcDbEntity
  8
_2-7_ビス
  6
Continuous
 62
     7
100
AcDbLine
 10
947.8176859178065
 20
409.0190056136602
 30
0.0
 11
947.8129054178081
 21
409.0190056136602
 31
0.0
  0
LINE
  5
1B6
330
22
100
AcDbEntity
  8
_2-7_ビス
  6
Continuous
 62
     7
100
AcDbLine
 10
947.8129012445233
 20
409.0190059674424
 30
0.0
 11
947.8129054178081
 21
409.0190056136602
 31
0.0
  0
LINE
  5
1B7
330
22
100
AcDbEntity
  8
_2-7_ビス
  6
Continuous
 62
     7
100
AcDbLine
 10
947.8129012445233
 20
409.0190059674424
 30
0.0
 11
947.8129054178081
 21
409.0190056136602
 31
0.0
  0
LINE
  5
1B8
330
22
100
AcDbEntity
  8
_2-7_ビス
  6
Continuous
 62
     7
100
AcDbLine
 10
947.7803141678068
 20
407.9470757897607
 30
0.0
 11
948.3191554178064
 21
407.9470757897607
 31
0.0
  0
LINE
  5
1B9
330
22
100
AcDbEntity
  8
_2-7_ビス
  6
Continuous
 62
     7
100
AcDbLine
 10
948.3191554178064
 20
407.9470757897607
 30
0.0
 11
948.3191554178064
 21
402.1498426529868
 31
0.0
  0
LINE
  5
1BA
330
22
100
AcDbEntity
  8
_2-7_ビス
  6
Continuous
 62
     7
100
AcDbLine
 10
948.3191554178064
 20
402.1498426529868
 30
0.0
 11
947.8129082307475
 21
401.185691283222
 31
0.0
  0
LINE
  5
1BB
330
22
100
AcDbEntity
  8
_2-7_ビス
  6
Continuous
 62
     7
100
AcDbLine
 10
947.8129054178081
 20
401.1856722851602
 30
0.0
 11
947.8093137874513
 21
401.6631236824006
 31
0.0
  0
LINE
  5
1BC
330
22
100
AcDbEntity
  8
_2-7_ビス
  6
Continuous
 62
     7
100
AcDbLine
 10
947.8093137874513
 20
401.6631236824006
 30
0.0
 11
947.4886337798276
 21
401.6804091269604
 31
0.0
  0
LINE
  5
1BD
330
22
100
AcDbEntity
  8
_2-7_ビス
  6
Continuous
 62
     7
100
AcDbLine
 10
947.3299717396583
 20
401.9277775478601
 30
0.0
 11
947.7803141678068
 21
402.7523389508602
 31
0.0
  0
LINE
  5
1BE
330
22
100
AcDbEntity
  8
_2-7_ビス
  6
Continuous
 62
     7
100
AcDbLine
 10
947.7803141678068
 20
402.7523389508602
 30
0.0
 11
947.7803143199286
 21
403.2297904198552
 31
0.0
  0
LINE
  5
1BF
330
22
100
AcDbEntity
  8
_2-7_ビス
  6
Continuous
 62
     7
100
AcDbLine
 10
947.7803143199286
 20
403.2297904198552
 30
0.0
 11
947.4322819178079
 21
403.2470757926605
 31
0.0
  0
LINE
  5
1C0
330
22
100
AcDbEntity
  8
_2-7_ビス
  6
Continuous
 62
     7
100
AcDbLine
 10
947.2726921680864
 20
403.4944442135602
 30
0.0
 11
947.7803141678068
 21
404.3190056165602
 31
0.0
  0
LINE
  5
1C1
330
22
100
AcDbEntity
  8
_2-7_ビス
  6
Continuous
 62
     7
100
AcDbLine
 10
947.7803141678068
 20
404.3190056165602
 30
0.0
 11
947.7803141678068
 21
404.7964571776688
 31
0.0
  0
LINE
  5
1C2
330
22
100
AcDbEntity
  8
_2-7_ビス
  6
Continuous
 62
     7
100
AcDbLine
 10
947.7803141678068
 20
404.7964571776688
 30
0.0
 11
947.4322819178079
 21
404.8137424583607
 31
0.0
  0
LINE
  5
1C3
330
22
100
AcDbEntity
  8
_2-7_ビス
  6
Continuous
 62
     7
100
AcDbLine
 10
947.2726921680864
 20
405.0611108792603
 30
0.0
 11
947.7803141678068
 21
405.8856722822602
 31
0.0
  0
LINE
  5
1C4
330
22
100
AcDbEntity
  8
_2-7_ビス
  6
Continuous
 62
     7
100
AcDbLine
 10
947.7803141678068
 20
405.8856722822602
 30
0.0
 11
947.7803141678068
 21
406.3631238433688
 31
0.0
  0
LINE
  5
1C5
330
22
100
AcDbEntity
  8
_2-7_ビス
  6
Continuous
 62
     7
100
AcDbLine
 10
947.7803141678068
 20
406.3631238433688
 30
0.0
 11
947.4322819178079
 21
406.3804091240607
 31
0.0
  0
LINE
  5
1C6
330
22
100
AcDbEntity
  8
_2-7_ビス
  6
Continuous
 62
     7
100
AcDbLine
 10
947.2726921680864
 20
406.6277775449603
 30
0.0
 11
947.7803143199286
 21
407.4523389479603
 31
0.0
  0
LINE
  5
1C7
330
22
100
AcDbEntity
  8
_2-7_ビス
  6
Continuous
 62
     7
100
AcDbLine
 10
947.7803143199286
 20
407.4523389479603
 30
0.0
 11
947.7803141678068
 21
407.9470757897607
 31
0.0
  0
LINE
  5
1C8
330
22
100
AcDbEntity
  8
_2-7_ビス
  6
Continuous
 62
     7
100
AcDbLine
 10
947.8129012445233
 20
409.0190059674424
 30
0.0
 11
947.8092160432781
 21
409.4964574364362
 31
0.0
  0
LINE
  5
1C9
330
22
100
AcDbEntity
  8
_2-7_ビス
  6
Continuous
 62
     7
100
AcDbLine
 10
947.8092160432781
 20
409.4964574364362
 30
0.0
 11
947.4917711678076
 21
409.5137424554608
 31
0.0
  0
LINE
  5
1CA
330
22
100
AcDbEntity
  8
_2-7_ビス
  6
Continuous
 62
     7
100
AcDbLine
 10
947.3296790274879
 20
409.7611108763604
 30
0.0
 11
947.7803143199286
 21
410.5856722793602
 31
0.0
  0
LINE
  5
1CB
330
22
100
AcDbEntity
  8
_2-7_ビス
  6
Continuous
 62
     7
100
AcDbLine
 10
947.7803143199286
 20
410.5856722793602
 30
0.0
 11
947.7803143199286
 21
411.0631237483543
 31
0.0
  0
LINE
  5
1CC
330
22
100
AcDbEntity
  8
_2-7_ビス
  6
Continuous
 62
     7
100
AcDbLine
 10
947.7803143199286
 20
411.0631237483543
 30
0.0
 11
947.4322819178079
 21
411.0804091211607
 31
0.0
  0
LINE
  5
1CD
330
22
100
AcDbEntity
  8
_2-7_ビス
  6
Continuous
 62
     7
100
AcDbLine
 10
947.2726921680864
 20
411.3277775420604
 30
0.0
 11
947.7803141678068
 21
412.1523389450604
 31
0.0
  0
LINE
  5
1CE
330
22
100
AcDbEntity
  8
_2-7_ビス
  6
Continuous
 62
     7
100
AcDbLine
 10
947.7803141678068
 20
412.1523389450604
 30
0.0
 11
947.7803143199286
 21
412.6297904140543
 31
0.0
  0
LINE
  5
1CF
330
22
100
AcDbEntity
  8
_2-7_ビス
  6
Continuous
 62
     7
100
AcDbLine
 10
947.7803143199286
 20
412.6297904140543
 30
0.0
 11
947.4313958253187
 21
412.6473073680201
 31
0.0
  0
LINE
  5
1D0
330
22
100
AcDbEntity
  8
_2-7_ビス
  6
Continuous
 62
     7
100
AcDbLine
 10
947.2726921680864
 20
412.8944442077604
 30
0.0
 11
947.7803143199286
 21
413.7190056107605
 31
0.0
  0
LINE
  5
1D1
330
22
100
AcDbEntity
  8
_2-7_ビス
  6
Continuous
 62
     7
100
AcDbLine
 10
947.7803143199286
 20
413.7190056107605
 30
0.0
 11
947.7803141622997
 21
414.2137424525597
 31
0.0
  0
LINE
  5
1D2
330
22
100
AcDbEntity
  8
_2-7_ビス
  6
Continuous
 62
     7
100
AcDbLine
 10
947.7803141678068
 20
400.1137424612605
 30
0.0
 11
948.3191554178064
 21
400.1137424612605
 31
0.0
  0
LINE
  5
1D3
330
22
100
AcDbEntity
  8
_2-7_ビス
  6
Continuous
 62
     7
100
AcDbLine
 10
948.3191554178064
 20
400.1137424612605
 30
0.0
 11
948.3191554178064
 21
396.8655007264229
 31
0.0
  0
LINE
  5
1D4
330
22
100
AcDbEntity
  8
_2-7_ビス
  6
Continuous
 62
     7
100
AcDbLine
 10
948.3191554178064
 20
396.8655007264229
 30
0.0
 11
947.8133696678073
 21
393.35233895666
 31
0.0
  0
LINE
  5
1D5
330
22
100
AcDbEntity
  8
_2-7_ビス
  6
Continuous
 62
     7
100
AcDbLine
 10
947.8133696678073
 20
393.35233895666
 30
0.0
 11
947.8126351501432
 21
393.8297900408012
 31
0.0
  0
LINE
  5
1D6
330
22
100
AcDbEntity
  8
_2-7_ビス
  6
Continuous
 62
     7
100
AcDbLine
 10
947.8126351501432
 20
393.8297900408012
 30
0.0
 11
947.5039466678063
 21
393.8470757984604
 31
0.0
  0
LINE
  5
1D7
330
22
100
AcDbEntity
  8
_2-7_ビス
  6
Continuous
 62
     7
100
AcDbLine
 10
947.8133696678073
 20
393.35233895666
 30
0.0
 11
947.3798928572399
 21
392.52777755366
 31
0.0
  0
LINE
  5
1D8
330
22
100
AcDbEntity
  8
_2-7_ビス
  6
Continuous
 62
     7
100
AcDbLine
 10
947.359390103019
 20
394.0944442193599
 30
0.0
 11
947.8099924364792
 21
394.91900562236
 31
0.0
  0
LINE
  5
1D9
330
22
100
AcDbEntity
  8
_2-7_ビス
  6
Continuous
 62
     7
100
AcDbLine
 10
947.8099924364792
 20
394.91900562236
 30
0.0
 11
947.8079075322183
 21
395.3964567065
 31
0.0
  0
LINE
  5
1DA
330
22
100
AcDbEntity
  8
_2-7_ビス
  6
Continuous
 62
     7
100
AcDbLine
 10
947.8079075322183
 20
395.3964567065
 30
0.0
 11
947.4855806678068
 21
395.4137424641604
 31
0.0
  0
LINE
  5
1DB
330
22
100
AcDbEntity
  8
_2-7_ビス
  6
Continuous
 62
     7
100
AcDbLine
 10
947.3370751719894
 20
395.6611108850601
 30
0.0
 11
947.8009430313127
 21
396.4856719032062
 31
0.0
  0
LINE
  5
1DC
330
22
100
AcDbEntity
  8
_2-7_ビス
  6
Continuous
 62
     7
100
AcDbLine
 10
947.8009430313127
 20
396.4856719032062
 30
0.0
 11
947.7968801906163
 21
396.9631233722012
 31
0.0
  0
LINE
  5
1DD
330
22
100
AcDbEntity
  8
_2-7_ビス
  6
Continuous
 62
     7
100
AcDbLine
 10
947.7968801906163
 20
396.9631233722012
 30
0.0
 11
947.4622268353495
 21
396.9804091298606
 31
0.0
  0
LINE
  5
1DE
330
22
100
AcDbEntity
  8
_2-7_ビス
  6
Continuous
 62
     7
100
AcDbLine
 10
947.3049722191799
 20
397.22777755076
 30
0.0
 11
947.7851748433854
 21
398.0523385689062
 31
0.0
  0
LINE
  5
1DF
330
22
100
AcDbEntity
  8
_2-7_ビス
  6
Continuous
 62
     7
100
AcDbLine
 10
947.7851748433854
 20
398.0523385689062
 30
0.0
 11
947.7803141678068
 21
398.5297905148688
 31
0.0
  0
LINE
  5
1E0
330
22
100
AcDbEntity
  8
_2-7_ビス
  6
Continuous
 62
     7
100
AcDbLine
 10
947.7803141678068
 20
398.5297905148688
 30
0.0
 11
947.4322819178079
 21
398.5470757955606
 31
0.0
  0
LINE
  5
1E1
330
22
100
AcDbEntity
  8
_2-7_ビス
  6
Continuous
 62
     7
100
AcDbLine
 10
947.2726921680864
 20
398.7944442164602
 30
0.0
 11
947.7803143199286
 21
399.6190056194602
 31
0.0
  0
LINE
  5
1E2
330
22
100
AcDbEntity
  8
_2-7_ビス
  6
Continuous
 62
     7
100
AcDbLine
 10
947.7803143199286
 20
399.6190056194602
 30
0.0
 11
947.7803141678068
 21
400.1137424612605
 31
0.0
  0
LINE
  5
1E3
330
22
100
AcDbEntity
  8
_2-7_ビス
  6
Continuous
 62
     7
100
AcDbLine
 10
947.5097966678063
 20
392.2804091327603
 30
0.0
 11
947.6441554178077
 21
392.2804091327603
 31
0.0
  0
LINE
  5
1E4
330
22
100
AcDbEntity
  8
_2-7_ビス
  6
Continuous
 62
     7
100
AcDbLine
 10
947.6441554178077
 20
392.2804091327603
 30
0.0
 11
947.6441554178077
 21
391.4970757999098
 31
0.0
  0
LINE
  5
1E5
330
22
100
AcDbEntity
  8
_2-7_ビス
  6
Continuous
 62
     7
100
AcDbLine
 10
947.6441554178077
 20
391.4970757999098
 30
0.0
 11
947.4941554178068
 21
391.4970757999098
 31
0.0
  0
LINE
  5
1E6
330
22
100
AcDbEntity
  8
_2-7_ビス
  6
Continuous
 62
     7
100
AcDbLine
 10
947.4941554178068
 20
391.4970757999098
 30
0.0
 11
947.4941554178068
 21
389.8891810640603
 31
0.0
  0
LINE
  5
1E7
330
22
100
AcDbEntity
  8
_2-7_ビス
  6
Continuous
 62
     7
100
AcDbLine
 10
947.4941554178068
 20
389.8891810640603
 30
0.0
 11
947.487688607006
 21
389.8891810640603
 31
0.0
  0
LINE
  5
1E8
330
22
100
AcDbEntity
  8
_2-7_ビス
  6
Continuous
 62
     7
100
AcDbLine
 10
947.4374134178074
 20
389.5593565028608
 30
0.0
 11
947.4374132712672
 21
383.6089149100408
 31
0.0
  0
LINE
  5
1E9
330
22
100
AcDbEntity
  8
_2-7_ビス
  6
Continuous
 62
     7
100
AcDbLine
 10
947.4374132712672
 20
383.6089149100408
 30
0.0
 11
946.9969759178084
 21
382.9574940858814
 31
0.0
  0
LINE
  5
1EA
330
22
100
AcDbEntity
  8
_2-7_ビス
  6
Continuous
 62
     7
100
AcDbLine
 10
946.9969759178084
 20
382.9574940858814
 30
0.0
 11
945.9941554178058
 21
381.6435670340608
 31
0.0
  0
LINE
  5
1EB
330
22
100
AcDbEntity
  8
_2-7_ビス
  6
Continuous
 62
     7
100
AcDbLine
 10
945.9941554178058
 20
381.6435670340608
 30
0.0
 11
945.8447769383123
 21
381.6435670340608
 31
0.0
  0
LINE
  5
1EC
330
22
100
AcDbEntity
  8
_2-7_ビス
  6
Continuous
 62
     7
100
AcDbLine
 10
945.8447769383123
 20
381.6435670340608
 30
0.0
 11
946.9298710476268
 21
383.6089149100408
 31
0.0
  0
LINE
  5
1ED
330
22
100
AcDbEntity
  8
_2-7_ビス
  6
Continuous
 62
     7
100
AcDbLine
 10
946.9298710476268
 20
383.6089149100408
 30
0.0
 11
946.9298711678076
 21
387.5804091356601
 31
0.0
  0
LINE
  5
1EE
330
22
100
AcDbEntity
  8
_2-7_ビス
  6
Continuous
 62
     7
100
AcDbLine
 10
946.3465076678076
 20
387.5804091356601
 30
0.0
 11
946.3465079412381
 21
383.6089150627394
 31
0.0
  0
LINE
  5
1EF
330
22
100
AcDbEntity
  8
_2-7_ビス
  6
Continuous
 62
     7
100
AcDbLine
 10
946.3465079412381
 20
383.6089150627394
 30
0.0
 11
945.2614135760077
 21
381.6435670340608
 31
0.0
  0
LINE
  5
1F0
330
22
100
AcDbEntity
  8
_2-7_ビス
  6
Continuous
 62
     7
100
AcDbLine
 10
945.2614135760077
 20
381.6435670340608
 30
0.0
 11
944.6441554178081
 21
381.6435670340608
 31
0.0
  0
LINE
  5
1F1
330
22
100
AcDbEntity
  8
_2-7_ビス
  6
Continuous
 62
     7
100
AcDbLine
 10
947.221855522889
 20
414.4815102861259
 30
0.0
 11
947.221855522889
 21
414.4815102861259
 31
0.0
  0
LINE
  5
1F2
330
22
100
AcDbEntity
  8
_2-7_ビス
  6
Continuous
 62
     7
100
AcDbLine
 10
947.221855522889
 20
414.4815102861259
 30
0.0
 11
947.2086573975341
 21
414.4552509307493
 31
0.0
  0
LINE
  5
1F3
330
22
100
AcDbEntity
  8
_2-7_ビス
  6
Continuous
 62
     7
100
AcDbLine
 10
947.2086573975341
 20
414.4552509307493
 30
0.0
 11
947.1998073401628
 21
414.4268708407803
 31
0.0
  0
LINE
  5
1F4
330
22
100
AcDbEntity
  8
_2-7_ビス
  6
Continuous
 62
     7
100
AcDbLine
 10
947.1998073401628
 20
414.4268708407803
 30
0.0
 11
947.1955742552895
 21
414.397232330892
 31
0.0
  0
LINE
  5
1F5
330
22
100
AcDbEntity
  8
_2-7_ビス
  6
Continuous
 62
     7
100
AcDbLine
 10
947.1955742552895
 20
414.397232330892
 30
0.0
 11
947.1960867630569
 21
414.367235952209
 31
0.0
  0
LINE
  5
1F6
330
22
100
AcDbEntity
  8
_2-7_ビス
  6
Continuous
 62
     7
100
AcDbLine
 10
947.1960867630569
 20
414.367235952209
 30
0.0
 11
947.201329291175
 21
414.3377931295191
 31
0.0
  0
LINE
  5
1F7
330
22
100
AcDbEntity
  8
_2-7_ビス
  6
Continuous
 62
     7
100
AcDbLine
 10
947.201329291175
 20
414.3377931295191
 30
0.0
 11
947.2111425480802
 21
414.3097984680908
 31
0.0
  0
LINE
  5
1F8
330
22
100
AcDbEntity
  8
_2-7_ビス
  6
Continuous
 62
     7
100
AcDbLine
 10
947.2111425480802
 20
414.3097984680908
 30
0.0
 11
947.2252283629272
 21
414.2841025715454
 31
0.0
  0
LINE
  5
1F9
330
22
100
AcDbEntity
  8
_2-7_ビス
  6
Continuous
 62
     7
100
AcDbLine
 10
947.2252283629272
 20
414.2841025715454
 30
0.0
 11
947.2431587453593
 21
414.2614861966971
 31
0.0
  0
LINE
  5
1FA
330
22
100
AcDbEntity
  8
_2-7_ビス
  6
Continuous
 62
     7
100
AcDbLine
 10
947.2431587453593
 20
414.2614861966971
 30
0.0
 11
947.2643888897801
 21
414.242636530651
 31
0.0
  0
LINE
  5
1FB
330
22
100
AcDbEntity
  8
_2-7_ビス
  6
Continuous
 62
     7
100
AcDbLine
 10
947.2643888897801
 20
414.242636530651
 30
0.0
 11
947.2882737289936
 21
414.2281263109715
 31
0.0
  0
LINE
  5
1FC
330
22
100
AcDbEntity
  8
_2-7_ビス
  6
Continuous
 62
     7
100
AcDbLine
 10
947.2882737289936
 20
414.2281263109715
 30
0.0
 11
947.3140875342474
 21
414.2183964233412
 31
0.0
  0
LINE
  5
1FD
330
22
100
AcDbEntity
  8
_2-7_ビス
  6
Continuous
 62
     7
100
AcDbLine
 10
947.3140875342474
 20
414.2183964233412
 30
0.0
 11
947.3410459661304
 21
414.2137425054719
 31
0.0
  0
LINE
  5
1FE
330
22
100
AcDbEntity
  8
_2-7_ビス
  6
Continuous
 62
     7
100
AcDbLine
 10
947.3410459661304
 20
414.2137425054719
 30
0.0
 11
947.341046667806
 21
414.2137424525597
 31
0.0
  0
LINE
  5
1FF
330
22
100
AcDbEntity
  8
_2-7_ビス
  6
Continuous
 62
     7
100
AcDbLine
 10
947.2726921680857
 20
412.8944442077601
 30
0.0
 11
947.2726921680857
 21
412.8944442077601
 31
0.0
  0
LINE
  5
200
330
22
100
AcDbEntity
  8
_2-7_ビス
  6
Continuous
 62
     7
100
AcDbLine
 10
947.2726921680857
 20
412.8944442077601
 30
0.0
 11
947.2720210624984
 21
412.8544860537719
 31
0.0
  0
LINE
  5
201
330
22
100
AcDbEntity
  8
_2-7_ビス
  6
Continuous
 62
     7
100
AcDbLine
 10
947.2720210624984
 20
412.8544860537719
 30
0.0
 11
947.2776713810628
 21
412.8150068321896
 31
0.0
  0
LINE
  5
202
330
22
100
AcDbEntity
  8
_2-7_ビス
  6
Continuous
 62
     7
100
AcDbLine
 10
947.2776713810628
 20
412.8150068321896
 30
0.0
 11
947.2894714417074
 21
412.7772060991836
 31
0.0
  0
LINE
  5
203
330
22
100
AcDbEntity
  8
_2-7_ビス
  6
Continuous
 62
     7
100
AcDbLine
 10
947.2894714417074
 20
412.7772060991836
 30
0.0
 11
947.3070627055616
 21
412.7422324108985
 31
0.0
  0
LINE
  5
204
330
22
100
AcDbEntity
  8
_2-7_ビス
  6
Continuous
 62
     7
100
AcDbLine
 10
947.3070627055616
 20
412.7422324108985
 30
0.0
 11
947.329910670974
 21
412.7111484251551
 31
0.0
  0
LINE
  5
205
330
22
100
AcDbEntity
  8
_2-7_ビス
  6
Continuous
 62
     7
100
AcDbLine
 10
947.329910670974
 20
412.7111484251551
 30
0.0
 11
947.3573211140775
 21
412.6848986131308
 31
0.0
  0
LINE
  5
206
330
22
100
AcDbEntity
  8
_2-7_ビス
  6
Continuous
 62
     7
100
AcDbLine
 10
947.3573211140775
 20
412.6848986131308
 30
0.0
 11
947.3884611824292
 21
412.664280562081
 31
0.0
  0
LINE
  5
207
330
22
100
AcDbEntity
  8
_2-7_ビス
  6
Continuous
 62
     7
100
AcDbLine
 10
947.3884611824292
 20
412.664280562081
 30
0.0
 11
947.4223847008095
 21
412.6499207410537
 31
0.0
  0
LINE
  5
208
330
22
100
AcDbEntity
  8
_2-7_ビス
  6
Continuous
 62
     7
100
AcDbLine
 10
947.4223847008095
 20
412.6499207410537
 30
0.0
 11
947.4322819178064
 21
412.6470757868601
 31
0.0
  0
LINE
  5
209
330
22
100
AcDbEntity
  8
_2-7_ビス
  6
Continuous
 62
     7
100
AcDbLine
 10
947.2726921680857
 20
411.3277775420601
 30
0.0
 11
947.2726921680857
 21
411.3277775420601
 31
0.0
  0
LINE
  5
20A
330
22
100
AcDbEntity
  8
_2-7_ビス
  6
Continuous
 62
     7
100
AcDbLine
 10
947.2726921680857
 20
411.3277775420601
 30
0.0
 11
947.2720210624984
 21
411.2878193880718
 31
0.0
  0
LINE
  5
20B
330
22
100
AcDbEntity
  8
_2-7_ビス
  6
Continuous
 62
     7
100
AcDbLine
 10
947.2720210624984
 20
411.2878193880718
 30
0.0
 11
947.2776713810628
 21
411.2483401664896
 31
0.0
  0
LINE
  5
20C
330
22
100
AcDbEntity
  8
_2-7_ビス
  6
Continuous
 62
     7
100
AcDbLine
 10
947.2776713810628
 20
411.2483401664896
 30
0.0
 11
947.2894714417074
 21
411.2105394334836
 31
0.0
  0
LINE
  5
20D
330
22
100
AcDbEntity
  8
_2-7_ビス
  6
Continuous
 62
     7
100
AcDbLine
 10
947.2894714417074
 20
411.2105394334836
 30
0.0
 11
947.3070627055616
 21
411.1755657451984
 31
0.0
  0
LINE
  5
20E
330
22
100
AcDbEntity
  8
_2-7_ビス
  6
Continuous
 62
     7
100
AcDbLine
 10
947.3070627055616
 20
411.1755657451984
 30
0.0
 11
947.329910670974
 21
411.1444817594549
 31
0.0
  0
LINE
  5
20F
330
22
100
AcDbEntity
  8
_2-7_ビス
  6
Continuous
 62
     7
100
AcDbLine
 10
947.329910670974
 20
411.1444817594549
 30
0.0
 11
947.3573211140775
 21
411.1182319474307
 31
0.0
  0
LINE
  5
210
330
22
100
AcDbEntity
  8
_2-7_ビス
  6
Continuous
 62
     7
100
AcDbLine
 10
947.3573211140775
 20
411.1182319474307
 30
0.0
 11
947.3884611824292
 21
411.0976138963809
 31
0.0
  0
LINE
  5
211
330
22
100
AcDbEntity
  8
_2-7_ビス
  6
Continuous
 62
     7
100
AcDbLine
 10
947.3884611824292
 20
411.0976138963809
 30
0.0
 11
947.4223847008095
 21
411.0832540753537
 31
0.0
  0
LINE
  5
212
330
22
100
AcDbEntity
  8
_2-7_ビス
  6
Continuous
 62
     7
100
AcDbLine
 10
947.4223847008095
 20
411.0832540753537
 30
0.0
 11
947.4322819178064
 21
411.0804091211601
 31
0.0
  0
LINE
  5
213
330
22
100
AcDbEntity
  8
_2-7_ビス
  6
Continuous
 62
     7
100
AcDbLine
 10
947.329679027487
 20
409.7611108763602
 30
0.0
 11
947.329679027487
 21
409.7611108763602
 31
0.0
  0
LINE
  5
214
330
22
100
AcDbEntity
  8
_2-7_ビス
  6
Continuous
 62
     7
100
AcDbLine
 10
947.329679027487
 20
409.7611108763602
 30
0.0
 11
947.3290079219001
 21
409.7211527223718
 31
0.0
  0
LINE
  5
215
330
22
100
AcDbEntity
  8
_2-7_ビス
  6
Continuous
 62
     7
100
AcDbLine
 10
947.3290079219001
 20
409.7211527223718
 30
0.0
 11
947.3346582404643
 21
409.6816735007896
 31
0.0
  0
LINE
  5
216
330
22
100
AcDbEntity
  8
_2-7_ビス
  6
Continuous
 62
     7
100
AcDbLine
 10
947.3346582404643
 20
409.6816735007896
 30
0.0
 11
947.3464583011091
 21
409.6438727677836
 31
0.0
  0
LINE
  5
217
330
22
100
AcDbEntity
  8
_2-7_ビス
  6
Continuous
 62
     7
100
AcDbLine
 10
947.3464583011091
 20
409.6438727677836
 30
0.0
 11
947.3640495649631
 21
409.6088990794983
 31
0.0
  0
LINE
  5
218
330
22
100
AcDbEntity
  8
_2-7_ビス
  6
Continuous
 62
     7
100
AcDbLine
 10
947.3640495649631
 20
409.6088990794983
 30
0.0
 11
947.3868975303757
 21
409.5778150937549
 31
0.0
  0
LINE
  5
219
330
22
100
AcDbEntity
  8
_2-7_ビス
  6
Continuous
 62
     7
100
AcDbLine
 10
947.3868975303757
 20
409.5778150937549
 30
0.0
 11
947.4143079734792
 21
409.5515652817306
 31
0.0
  0
LINE
  5
21A
330
22
100
AcDbEntity
  8
_2-7_ビス
  6
Continuous
 62
     7
100
AcDbLine
 10
947.4143079734792
 20
409.5515652817306
 30
0.0
 11
947.4454480418309
 21
409.5309472306809
 31
0.0
  0
LINE
  5
21B
330
22
100
AcDbEntity
  8
_2-7_ビス
  6
Continuous
 62
     7
100
AcDbLine
 10
947.4454480418309
 20
409.5309472306809
 30
0.0
 11
947.479371560211
 21
409.5165874096537
 31
0.0
  0
LINE
  5
21C
330
22
100
AcDbEntity
  8
_2-7_ビス
  6
Continuous
 62
     7
100
AcDbLine
 10
947.479371560211
 20
409.5165874096537
 30
0.0
 11
947.4892687772079
 21
409.5137424554602
 31
0.0
  0
LINE
  5
21D
330
22
100
AcDbEntity
  8
_2-7_ビス
  6
Continuous
 62
     7
100
AcDbLine
 10
947.2726921680857
 20
406.62777754496
 30
0.0
 11
947.2726921680857
 21
406.62777754496
 31
0.0
  0
LINE
  5
21E
330
22
100
AcDbEntity
  8
_2-7_ビス
  6
Continuous
 62
     7
100
AcDbLine
 10
947.2726921680857
 20
406.62777754496
 30
0.0
 11
947.2720210624984
 21
406.5878193909716
 31
0.0
  0
LINE
  5
21F
330
22
100
AcDbEntity
  8
_2-7_ビス
  6
Continuous
 62
     7
100
AcDbLine
 10
947.2720210624984
 20
406.5878193909716
 30
0.0
 11
947.2776713810628
 21
406.5483401693895
 31
0.0
  0
LINE
  5
220
330
22
100
AcDbEntity
  8
_2-7_ビス
  6
Continuous
 62
     7
100
AcDbLine
 10
947.2776713810628
 20
406.5483401693895
 30
0.0
 11
947.2894714417074
 21
406.5105394363835
 31
0.0
  0
LINE
  5
221
330
22
100
AcDbEntity
  8
_2-7_ビス
  6
Continuous
 62
     7
100
AcDbLine
 10
947.2894714417074
 20
406.5105394363835
 30
0.0
 11
947.3070627055616
 21
406.4755657480983
 31
0.0
  0
LINE
  5
222
330
22
100
AcDbEntity
  8
_2-7_ビス
  6
Continuous
 62
     7
100
AcDbLine
 10
947.3070627055616
 20
406.4755657480983
 30
0.0
 11
947.329910670974
 21
406.4444817623549
 31
0.0
  0
LINE
  5
223
330
22
100
AcDbEntity
  8
_2-7_ビス
  6
Continuous
 62
     7
100
AcDbLine
 10
947.329910670974
 20
406.4444817623549
 30
0.0
 11
947.3573211140775
 21
406.4182319503306
 31
0.0
  0
LINE
  5
224
330
22
100
AcDbEntity
  8
_2-7_ビス
  6
Continuous
 62
     7
100
AcDbLine
 10
947.3573211140775
 20
406.4182319503306
 30
0.0
 11
947.3884611824292
 21
406.3976138992808
 31
0.0
  0
LINE
  5
225
330
22
100
AcDbEntity
  8
_2-7_ビス
  6
Continuous
 62
     7
100
AcDbLine
 10
947.3884611824292
 20
406.3976138992808
 30
0.0
 11
947.4223847008095
 21
406.3832540782536
 31
0.0
  0
LINE
  5
226
330
22
100
AcDbEntity
  8
_2-7_ビス
  6
Continuous
 62
     7
100
AcDbLine
 10
947.4223847008095
 20
406.3832540782536
 30
0.0
 11
947.4322819178064
 21
406.3804091240601
 31
0.0
  0
LINE
  5
227
330
22
100
AcDbEntity
  8
_2-7_ビス
  6
Continuous
 62
     7
100
AcDbLine
 10
947.2726921680857
 20
405.0611108792599
 30
0.0
 11
947.2726921680857
 21
405.0611108792599
 31
0.0
  0
LINE
  5
228
330
22
100
AcDbEntity
  8
_2-7_ビス
  6
Continuous
 62
     7
100
AcDbLine
 10
947.2726921680857
 20
405.0611108792599
 30
0.0
 11
947.2720210624984
 21
405.0211527252717
 31
0.0
  0
LINE
  5
229
330
22
100
AcDbEntity
  8
_2-7_ビス
  6
Continuous
 62
     7
100
AcDbLine
 10
947.2720210624984
 20
405.0211527252717
 30
0.0
 11
947.2776713810628
 21
404.9816735036894
 31
0.0
  0
LINE
  5
22A
330
22
100
AcDbEntity
  8
_2-7_ビス
  6
Continuous
 62
     7
100
AcDbLine
 10
947.2776713810628
 20
404.9816735036894
 30
0.0
 11
947.2894714417074
 21
404.9438727706835
 31
0.0
  0
LINE
  5
22B
330
22
100
AcDbEntity
  8
_2-7_ビス
  6
Continuous
 62
     7
100
AcDbLine
 10
947.2894714417074
 20
404.9438727706835
 30
0.0
 11
947.3070627055616
 21
404.9088990823983
 31
0.0
  0
LINE
  5
22C
330
22
100
AcDbEntity
  8
_2-7_ビス
  6
Continuous
 62
     7
100
AcDbLine
 10
947.3070627055616
 20
404.9088990823983
 30
0.0
 11
947.329910670974
 21
404.8778150966549
 31
0.0
  0
LINE
  5
22D
330
22
100
AcDbEntity
  8
_2-7_ビス
  6
Continuous
 62
     7
100
AcDbLine
 10
947.329910670974
 20
404.8778150966549
 30
0.0
 11
947.3573211140775
 21
404.8515652846305
 31
0.0
  0
LINE
  5
22E
330
22
100
AcDbEntity
  8
_2-7_ビス
  6
Continuous
 62
     7
100
AcDbLine
 10
947.3573211140775
 20
404.8515652846305
 30
0.0
 11
947.3884611824292
 21
404.8309472335807
 31
0.0
  0
LINE
  5
22F
330
22
100
AcDbEntity
  8
_2-7_ビス
  6
Continuous
 62
     7
100
AcDbLine
 10
947.3884611824292
 20
404.8309472335807
 30
0.0
 11
947.4223847008095
 21
404.8165874125536
 31
0.0
  0
LINE
  5
230
330
22
100
AcDbEntity
  8
_2-7_ビス
  6
Continuous
 62
     7
100
AcDbLine
 10
947.4223847008095
 20
404.8165874125536
 30
0.0
 11
947.4322819178064
 21
404.8137424583599
 31
0.0
  0
LINE
  5
231
330
22
100
AcDbEntity
  8
_2-7_ビス
  6
Continuous
 62
     7
100
AcDbLine
 10
947.2726921680857
 20
403.49444421356
 30
0.0
 11
947.2726921680857
 21
403.49444421356
 31
0.0
  0
LINE
  5
232
330
22
100
AcDbEntity
  8
_2-7_ビス
  6
Continuous
 62
     7
100
AcDbLine
 10
947.2726921680857
 20
403.49444421356
 30
0.0
 11
947.2720210624984
 21
403.4544860595716
 31
0.0
  0
LINE
  5
233
330
22
100
AcDbEntity
  8
_2-7_ビス
  6
Continuous
 62
     7
100
AcDbLine
 10
947.2720210624984
 20
403.4544860595716
 30
0.0
 11
947.2776713810628
 21
403.4150068379893
 31
0.0
  0
LINE
  5
234
330
22
100
AcDbEntity
  8
_2-7_ビス
  6
Continuous
 62
     7
100
AcDbLine
 10
947.2776713810628
 20
403.4150068379893
 30
0.0
 11
947.2894714417074
 21
403.3772061049834
 31
0.0
  0
LINE
  5
235
330
22
100
AcDbEntity
  8
_2-7_ビス
  6
Continuous
 62
     7
100
AcDbLine
 10
947.2894714417074
 20
403.3772061049834
 30
0.0
 11
947.3070627055616
 21
403.3422324166982
 31
0.0
  0
LINE
  5
236
330
22
100
AcDbEntity
  8
_2-7_ビス
  6
Continuous
 62
     7
100
AcDbLine
 10
947.3070627055616
 20
403.3422324166982
 30
0.0
 11
947.329910670974
 21
403.3111484309547
 31
0.0
  0
LINE
  5
237
330
22
100
AcDbEntity
  8
_2-7_ビス
  6
Continuous
 62
     7
100
AcDbLine
 10
947.329910670974
 20
403.3111484309547
 30
0.0
 11
947.3573211140775
 21
403.2848986189305
 31
0.0
  0
LINE
  5
238
330
22
100
AcDbEntity
  8
_2-7_ビス
  6
Continuous
 62
     7
100
AcDbLine
 10
947.3573211140775
 20
403.2848986189305
 30
0.0
 11
947.3884611824292
 21
403.2642805678808
 31
0.0
  0
LINE
  5
239
330
22
100
AcDbEntity
  8
_2-7_ビス
  6
Continuous
 62
     7
100
AcDbLine
 10
947.3884611824292
 20
403.2642805678808
 30
0.0
 11
947.4223847008095
 21
403.2499207468537
 31
0.0
  0
LINE
  5
23A
330
22
100
AcDbEntity
  8
_2-7_ビス
  6
Continuous
 62
     7
100
AcDbLine
 10
947.4223847008095
 20
403.2499207468537
 30
0.0
 11
947.4322819178064
 21
403.2470757926599
 31
0.0
  0
LINE
  5
23B
330
22
100
AcDbEntity
  8
_2-7_ビス
  6
Continuous
 62
     7
100
AcDbLine
 10
947.3299717396599
 20
401.9277775478599
 30
0.0
 11
947.3299717396599
 21
401.9277775478599
 31
0.0
  0
LINE
  5
23C
330
22
100
AcDbEntity
  8
_2-7_ビス
  6
Continuous
 62
     7
100
AcDbLine
 10
947.3299717396599
 20
401.9277775478599
 30
0.0
 11
947.329300634073
 21
401.8878193938716
 31
0.0
  0
LINE
  5
23D
330
22
100
AcDbEntity
  8
_2-7_ビス
  6
Continuous
 62
     7
100
AcDbLine
 10
947.329300634073
 20
401.8878193938716
 30
0.0
 11
947.3349509526372
 21
401.8483401722892
 31
0.0
  0
LINE
  5
23E
330
22
100
AcDbEntity
  8
_2-7_ビス
  6
Continuous
 62
     7
100
AcDbLine
 10
947.3349509526372
 20
401.8483401722892
 30
0.0
 11
947.3467510132817
 21
401.8105394392834
 31
0.0
  0
LINE
  5
23F
330
22
100
AcDbEntity
  8
_2-7_ビス
  6
Continuous
 62
     7
100
AcDbLine
 10
947.3467510132817
 20
401.8105394392834
 30
0.0
 11
947.3643422771356
 21
401.7755657509982
 31
0.0
  0
LINE
  5
240
330
22
100
AcDbEntity
  8
_2-7_ビス
  6
Continuous
 62
     7
100
AcDbLine
 10
947.3643422771356
 20
401.7755657509982
 30
0.0
 11
947.3871902425484
 21
401.7444817652548
 31
0.0
  0
LINE
  5
241
330
22
100
AcDbEntity
  8
_2-7_ビス
  6
Continuous
 62
     7
100
AcDbLine
 10
947.3871902425484
 20
401.7444817652548
 30
0.0
 11
947.4146006856521
 21
401.7182319532305
 31
0.0
  0
LINE
  5
242
330
22
100
AcDbEntity
  8
_2-7_ビス
  6
Continuous
 62
     7
100
AcDbLine
 10
947.4146006856521
 20
401.7182319532305
 30
0.0
 11
947.4457407540034
 21
401.6976139021807
 31
0.0
  0
LINE
  5
243
330
22
100
AcDbEntity
  8
_2-7_ビス
  6
Continuous
 62
     7
100
AcDbLine
 10
947.4457407540034
 20
401.6976139021807
 30
0.0
 11
947.4796642723836
 21
401.6832540811535
 31
0.0
  0
LINE
  5
244
330
22
100
AcDbEntity
  8
_2-7_ビス
  6
Continuous
 62
     7
100
AcDbLine
 10
947.4796642723836
 20
401.6832540811535
 30
0.0
 11
947.4895614893808
 21
401.68040912696
 31
0.0
  0
LINE
  5
245
330
22
100
AcDbEntity
  8
_2-7_ビス
  6
Continuous
 62
     7
100
AcDbLine
 10
947.2726921680857
 20
398.79444421646
 30
0.0
 11
947.2726921680857
 21
398.79444421646
 31
0.0
  0
LINE
  5
246
330
22
100
AcDbEntity
  8
_2-7_ビス
  6
Continuous
 62
     7
100
AcDbLine
 10
947.2726921680857
 20
398.79444421646
 30
0.0
 11
947.2720210624984
 21
398.7544860624715
 31
0.0
  0
LINE
  5
247
330
22
100
AcDbEntity
  8
_2-7_ビス
  6
Continuous
 62
     7
100
AcDbLine
 10
947.2720210624984
 20
398.7544860624715
 30
0.0
 11
947.2776713810628
 21
398.7150068408892
 31
0.0
  0
LINE
  5
248
330
22
100
AcDbEntity
  8
_2-7_ビス
  6
Continuous
 62
     7
100
AcDbLine
 10
947.2776713810628
 20
398.7150068408892
 30
0.0
 11
947.2894714417074
 21
398.6772061078834
 31
0.0
  0
LINE
  5
249
330
22
100
AcDbEntity
  8
_2-7_ビス
  6
Continuous
 62
     7
100
AcDbLine
 10
947.2894714417074
 20
398.6772061078834
 30
0.0
 11
947.3070627055616
 21
398.6422324195981
 31
0.0
  0
LINE
  5
24A
330
22
100
AcDbEntity
  8
_2-7_ビス
  6
Continuous
 62
     7
100
AcDbLine
 10
947.3070627055616
 20
398.6422324195981
 30
0.0
 11
947.329910670974
 21
398.6111484338546
 31
0.0
  0
LINE
  5
24B
330
22
100
AcDbEntity
  8
_2-7_ビス
  6
Continuous
 62
     7
100
AcDbLine
 10
947.329910670974
 20
398.6111484338546
 30
0.0
 11
947.3573211140775
 21
398.5848986218304
 31
0.0
  0
LINE
  5
24C
330
22
100
AcDbEntity
  8
_2-7_ビス
  6
Continuous
 62
     7
100
AcDbLine
 10
947.3573211140775
 20
398.5848986218304
 30
0.0
 11
947.3884611824292
 21
398.5642805707808
 31
0.0
  0
LINE
  5
24D
330
22
100
AcDbEntity
  8
_2-7_ビス
  6
Continuous
 62
     7
100
AcDbLine
 10
947.3884611824292
 20
398.5642805707808
 30
0.0
 11
947.4223847008095
 21
398.5499207497534
 31
0.0
  0
LINE
  5
24E
330
22
100
AcDbEntity
  8
_2-7_ビス
  6
Continuous
 62
     7
100
AcDbLine
 10
947.4223847008095
 20
398.5499207497534
 30
0.0
 11
947.4322819178064
 21
398.5470757955599
 31
0.0
  0
LINE
  5
24F
330
22
100
AcDbEntity
  8
_2-7_ビス
  6
Continuous
 62
     7
100
AcDbLine
 10
947.3049722191792
 20
397.2277775507598
 30
0.0
 11
947.3049722191792
 21
397.2277775507598
 31
0.0
  0
LINE
  5
250
330
22
100
AcDbEntity
  8
_2-7_ビス
  6
Continuous
 62
     7
100
AcDbLine
 10
947.3049722191792
 20
397.2277775507598
 30
0.0
 11
947.3043011135921
 21
397.1878193967715
 31
0.0
  0
LINE
  5
251
330
22
100
AcDbEntity
  8
_2-7_ビス
  6
Continuous
 62
     7
100
AcDbLine
 10
947.3043011135921
 20
397.1878193967715
 30
0.0
 11
947.309951432156
 21
397.1483401751892
 31
0.0
  0
LINE
  5
252
330
22
100
AcDbEntity
  8
_2-7_ビス
  6
Continuous
 62
     7
100
AcDbLine
 10
947.309951432156
 20
397.1483401751892
 30
0.0
 11
947.3217514928009
 21
397.1105394421832
 31
0.0
  0
LINE
  5
253
330
22
100
AcDbEntity
  8
_2-7_ビス
  6
Continuous
 62
     7
100
AcDbLine
 10
947.3217514928009
 20
397.1105394421832
 30
0.0
 11
947.3393427566547
 21
397.0755657538981
 31
0.0
  0
LINE
  5
254
330
22
100
AcDbEntity
  8
_2-7_ビス
  6
Continuous
 62
     7
100
AcDbLine
 10
947.3393427566547
 20
397.0755657538981
 30
0.0
 11
947.3621907220675
 21
397.0444817681545
 31
0.0
  0
LINE
  5
255
330
22
100
AcDbEntity
  8
_2-7_ビス
  6
Continuous
 62
     7
100
AcDbLine
 10
947.3621907220675
 20
397.0444817681545
 30
0.0
 11
947.3896011651712
 21
397.0182319561303
 31
0.0
  0
LINE
  5
256
330
22
100
AcDbEntity
  8
_2-7_ビス
  6
Continuous
 62
     7
100
AcDbLine
 10
947.3896011651712
 20
397.0182319561303
 30
0.0
 11
947.4207412335225
 21
396.9976139050806
 31
0.0
  0
LINE
  5
257
330
22
100
AcDbEntity
  8
_2-7_ビス
  6
Continuous
 62
     7
100
AcDbLine
 10
947.4207412335225
 20
396.9976139050806
 30
0.0
 11
947.4546647519028
 21
396.9832540840533
 31
0.0
  0
LINE
  5
258
330
22
100
AcDbEntity
  8
_2-7_ビス
  6
Continuous
 62
     7
100
AcDbLine
 10
947.4546647519028
 20
396.9832540840533
 30
0.0
 11
947.4645619688999
 21
396.9804091298598
 31
0.0
  0
LINE
  5
259
330
22
100
AcDbEntity
  8
_2-7_ビス
  6
Continuous
 62
     7
100
AcDbLine
 10
947.3370751719887
 20
395.6611108850597
 30
0.0
 11
947.3370751719887
 21
395.6611108850597
 31
0.0
  0
LINE
  5
25A
330
22
100
AcDbEntity
  8
_2-7_ビス
  6
Continuous
 62
     7
100
AcDbLine
 10
947.3370751719887
 20
395.6611108850597
 30
0.0
 11
947.3364040664016
 21
395.6211527310714
 31
0.0
  0
LINE
  5
25B
330
22
100
AcDbEntity
  8
_2-7_ビス
  6
Continuous
 62
     7
100
AcDbLine
 10
947.3364040664016
 20
395.6211527310714
 30
0.0
 11
947.3420543849655
 21
395.5816735094892
 31
0.0
  0
LINE
  5
25C
330
22
100
AcDbEntity
  8
_2-7_ビス
  6
Continuous
 62
     7
100
AcDbLine
 10
947.3420543849655
 20
395.5816735094892
 30
0.0
 11
947.3538544456102
 21
395.5438727764832
 31
0.0
  0
LINE
  5
25D
330
22
100
AcDbEntity
  8
_2-7_ビス
  6
Continuous
 62
     7
100
AcDbLine
 10
947.3538544456102
 20
395.5438727764832
 30
0.0
 11
947.3714457094644
 21
395.5088990881981
 31
0.0
  0
LINE
  5
25E
330
22
100
AcDbEntity
  8
_2-7_ビス
  6
Continuous
 62
     7
100
AcDbLine
 10
947.3714457094644
 20
395.5088990881981
 30
0.0
 11
947.3942936748768
 21
395.4778151024546
 31
0.0
  0
LINE
  5
25F
330
22
100
AcDbEntity
  8
_2-7_ビス
  6
Continuous
 62
     7
100
AcDbLine
 10
947.3942936748768
 20
395.4778151024546
 30
0.0
 11
947.4217041179807
 21
395.4515652904303
 31
0.0
  0
LINE
  5
260
330
22
100
AcDbEntity
  8
_2-7_ビス
  6
Continuous
 62
     7
100
AcDbLine
 10
947.4217041179807
 20
395.4515652904303
 30
0.0
 11
947.452844186332
 21
395.4309472393807
 31
0.0
  0
LINE
  5
261
330
22
100
AcDbEntity
  8
_2-7_ビス
  6
Continuous
 62
     7
100
AcDbLine
 10
947.452844186332
 20
395.4309472393807
 30
0.0
 11
947.4867677047123
 21
395.4165874183533
 31
0.0
  0
LINE
  5
262
330
22
100
AcDbEntity
  8
_2-7_ビス
  6
Continuous
 62
     7
100
AcDbLine
 10
947.4867677047123
 20
395.4165874183533
 30
0.0
 11
947.4966649217094
 21
395.4137424641598
 31
0.0
  0
LINE
  5
263
330
22
100
AcDbEntity
  8
_2-7_ビス
  6
Continuous
 62
     7
100
AcDbLine
 10
947.3593901030183
 20
394.0944442193609
 30
0.0
 11
947.3593901030183
 21
394.0944442193609
 31
0.0
  0
LINE
  5
264
330
22
100
AcDbEntity
  8
_2-7_ビス
  6
Continuous
 62
     7
100
AcDbLine
 10
947.3593901030183
 20
394.0944442193609
 30
0.0
 11
947.3587189974312
 21
394.0544860653725
 31
0.0
  0
LINE
  5
265
330
22
100
AcDbEntity
  8
_2-7_ビス
  6
Continuous
 62
     7
100
AcDbLine
 10
947.3587189974312
 20
394.0544860653725
 30
0.0
 11
947.3643693159951
 21
394.0150068437903
 31
0.0
  0
LINE
  5
266
330
22
100
AcDbEntity
  8
_2-7_ビス
  6
Continuous
 62
     7
100
AcDbLine
 10
947.3643693159951
 20
394.0150068437903
 30
0.0
 11
947.37616937664
 21
393.9772061107844
 31
0.0
  0
LINE
  5
267
330
22
100
AcDbEntity
  8
_2-7_ビス
  6
Continuous
 62
     7
100
AcDbLine
 10
947.37616937664
 20
393.9772061107844
 30
0.0
 11
947.3937606404941
 21
393.9422324224992
 31
0.0
  0
LINE
  5
268
330
22
100
AcDbEntity
  8
_2-7_ビス
  6
Continuous
 62
     7
100
AcDbLine
 10
947.3937606404941
 20
393.9422324224992
 30
0.0
 11
947.4166086059064
 21
393.9111484367557
 31
0.0
  0
LINE
  5
269
330
22
100
AcDbEntity
  8
_2-7_ビス
  6
Continuous
 62
     7
100
AcDbLine
 10
947.4166086059064
 20
393.9111484367557
 30
0.0
 11
947.4440190490103
 21
393.8848986247314
 31
0.0
  0
LINE
  5
26A
330
22
100
AcDbEntity
  8
_2-7_ビス
  6
Continuous
 62
     7
100
AcDbLine
 10
947.4440190490103
 20
393.8848986247314
 30
0.0
 11
947.4751591173616
 21
393.8642805736817
 31
0.0
  0
LINE
  5
26B
330
22
100
AcDbEntity
  8
_2-7_ビス
  6
Continuous
 62
     7
100
AcDbLine
 10
947.4751591173616
 20
393.8642805736817
 30
0.0
 11
947.5090826357417
 21
393.8499207526543
 31
0.0
  0
LINE
  5
26C
330
22
100
AcDbEntity
  8
_2-7_ビス
  6
Continuous
 62
     7
100
AcDbLine
 10
947.5090826357417
 20
393.8499207526543
 30
0.0
 11
947.518979852739
 21
393.8470757984608
 31
0.0
  0
LINE
  5
26D
330
22
100
AcDbEntity
  8
_2-7_ビス
  6
Continuous
 62
     7
100
AcDbLine
 10
947.3928926819539
 20
392.55250587463
 30
0.0
 11
947.3928926819539
 21
392.55250587463
 31
0.0
  0
LINE
  5
26E
330
22
100
AcDbEntity
  8
_2-7_ビス
  6
Continuous
 62
     7
100
AcDbLine
 10
947.3928926819539
 20
392.55250587463
 30
0.0
 11
947.379230530204
 21
392.5262178726529
 31
0.0
  0
LINE
  5
26F
330
22
100
AcDbEntity
  8
_2-7_ビス
  6
Continuous
 62
     7
100
AcDbLine
 10
947.379230530204
 20
392.5262178726529
 30
0.0
 11
947.3699280206554
 21
392.4977209833394
 31
0.0
  0
LINE
  5
270
330
22
100
AcDbEntity
  8
_2-7_ビス
  6
Continuous
 62
     7
100
AcDbLine
 10
947.3699280206554
 20
392.4977209833394
 30
0.0
 11
947.3652678053538
 21
392.4678810702512
 31
0.0
  0
LINE
  5
271
330
22
100
AcDbEntity
  8
_2-7_ビス
  6
Continuous
 62
     7
100
AcDbLine
 10
947.3652678053538
 20
392.4678810702512
 30
0.0
 11
947.3653914825833
 21
392.4376048040474
 31
0.0
  0
LINE
  5
272
330
22
100
AcDbEntity
  8
_2-7_ビス
  6
Continuous
 62
     7
100
AcDbLine
 10
947.3653914825833
 20
392.4376048040474
 30
0.0
 11
947.370295294473
 21
392.4078121137566
 31
0.0
  0
LINE
  5
273
330
22
100
AcDbEntity
  8
_2-7_ビス
  6
Continuous
 62
     7
100
AcDbLine
 10
947.370295294473
 20
392.4078121137566
 30
0.0
 11
947.3798302411806
 21
392.3794082351972
 31
0.0
  0
LINE
  5
274
330
22
100
AcDbEntity
  8
_2-7_ビス
  6
Continuous
 62
     7
100
AcDbLine
 10
947.3798302411806
 20
392.3794082351972
 30
0.0
 11
947.3937066081756
 21
392.3532562058462
 31
0.0
  0
LINE
  5
275
330
22
100
AcDbEntity
  8
_2-7_ビス
  6
Continuous
 62
     7
100
AcDbLine
 10
947.3937066081756
 20
392.3532562058462
 30
0.0
 11
947.4115027690679
 21
392.3301506418818
 31
0.0
  0
LINE
  5
276
330
22
100
AcDbEntity
  8
_2-7_ビス
  6
Continuous
 62
     7
100
AcDbLine
 10
947.4115027690679
 20
392.3301506418818
 30
0.0
 11
947.4326779965146
 21
392.3107935941733
 31
0.0
  0
LINE
  5
277
330
22
100
AcDbEntity
  8
_2-7_ビス
  6
Continuous
 62
     7
100
AcDbLine
 10
947.4326779965146
 20
392.3107935941733
 30
0.0
 11
947.4565888919448
 21
392.2957732168198
 31
0.0
  0
LINE
  5
278
330
22
100
AcDbEntity
  8
_2-7_ビス
  6
Continuous
 62
     7
100
AcDbLine
 10
947.4565888919448
 20
392.2957732168198
 30
0.0
 11
947.4825089349
 21
392.2855458963871
 31
0.0
  0
LINE
  5
279
330
22
100
AcDbEntity
  8
_2-7_ビス
  6
Continuous
 62
     7
100
AcDbLine
 10
947.4825089349
 20
392.2855458963871
 30
0.0
 11
947.5096505579919
 21
392.2804223848306
 31
0.0
  0
LINE
  5
27A
330
22
100
AcDbEntity
  8
_2-7_ビス
  6
Continuous
 62
     7
100
AcDbLine
 10
947.5096505579919
 20
392.2804223848306
 30
0.0
 11
947.5097966678079
 21
392.2804091327608
 31
0.0
  0
LINE
  5
27B
330
22
100
AcDbEntity
  8
_2-7_ビス
  6
Continuous
 62
     7
100
AcDbLine
 10
947.8129054178076
 20
401.1856722851603
 30
0.0
 11
947.8129054178076
 21
401.1856722851603
 31
0.0
  0
LINE
  5
27C
330
22
100
AcDbEntity
  8
_2-7_ビス
  6
Continuous
 62
     7
100
AcDbLine
 10
947.8129054178076
 20
401.1856722851603
 30
0.0
 11
947.7285795870139
 21
401.1734123285126
 31
0.0
  0
LINE
  5
27D
330
22
100
AcDbEntity
  8
_2-7_ビス
  6
Continuous
 62
     7
100
AcDbLine
 10
947.7285795870139
 20
401.1734123285126
 30
0.0
 11
947.6474712655557
 21
401.1452398618055
 31
0.0
  0
LINE
  5
27E
330
22
100
AcDbEntity
  8
_2-7_ビス
  6
Continuous
 62
     7
100
AcDbLine
 10
947.6474712655557
 20
401.1452398618055
 30
0.0
 11
947.5720448887376
 21
401.102010891184
 31
0.0
  0
LINE
  5
27F
330
22
100
AcDbEntity
  8
_2-7_ビス
  6
Continuous
 62
     7
100
AcDbLine
 10
947.5720448887376
 20
401.102010891184
 30
0.0
 11
947.5045922488515
 21
401.0450389070455
 31
0.0
  0
LINE
  5
280
330
22
100
AcDbEntity
  8
_2-7_ビス
  6
Continuous
 62
     7
100
AcDbLine
 10
947.5045922488515
 20
401.0450389070455
 30
0.0
 11
947.4471628602284
 21
400.9760549742988
 31
0.0
  0
LINE
  5
281
330
22
100
AcDbEntity
  8
_2-7_ビス
  6
Continuous
 62
     7
100
AcDbLine
 10
947.4471628602284
 20
400.9760549742988
 30
0.0
 11
947.4015016857801
 21
400.8971551348328
 31
0.0
  0
LINE
  5
282
330
22
100
AcDbEntity
  8
_2-7_ビス
  6
Continuous
 62
     7
100
AcDbLine
 10
947.4015016857801
 20
400.8971551348328
 30
0.0
 11
947.3689961171869
 21
400.8107367203447
 31
0.0
  0
LINE
  5
283
330
22
100
AcDbEntity
  8
_2-7_ビス
  6
Continuous
 62
     7
100
AcDbLine
 10
947.3689961171869
 20
400.8107367203447
 30
0.0
 11
947.3506338197017
 21
400.7194255106285
 31
0.0
  0
LINE
  5
284
330
22
100
AcDbEntity
  8
_2-7_ビス
  6
Continuous
 62
     7
100
AcDbLine
 10
947.3506338197017
 20
400.7194255106285
 30
0.0
 11
947.3469727224419
 21
400.6259959505861
 31
0.0
  0
LINE
  5
285
330
22
100
AcDbEntity
  8
_2-7_ビス
  6
Continuous
 62
     7
100
AcDbLine
 10
947.3469727224419
 20
400.6259959505861
 30
0.0
 11
947.3581240659955
 21
400.5332868501215
 31
0.0
  0
LINE
  5
286
330
22
100
AcDbEntity
  8
_2-7_ビス
  6
Continuous
 62
     7
100
AcDbLine
 10
947.3581240659955
 20
400.5332868501215
 30
0.0
 11
947.3837490224312
 21
400.4441151283391
 31
0.0
  0
LINE
  5
287
330
22
100
AcDbEntity
  8
_2-7_ビス
  6
Continuous
 62
     7
100
AcDbLine
 10
947.3837490224312
 20
400.4441151283391
 30
0.0
 11
947.4230689904144
 21
400.3611902228828
 31
0.0
  0
LINE
  5
288
330
22
100
AcDbEntity
  8
_2-7_ビス
  6
Continuous
 62
     7
100
AcDbLine
 10
947.4230689904144
 20
400.3611902228828
 30
0.0
 11
947.4748892526147
 21
400.2870317650423
 31
0.0
  0
LINE
  5
289
330
22
100
AcDbEntity
  8
_2-7_ビス
  6
Continuous
 62
     7
100
AcDbLine
 10
947.4748892526147
 20
400.2870317650423
 30
0.0
 11
947.5376352765879
 21
400.2238930220333
 31
0.0
  0
LINE
  5
28A
330
22
100
AcDbEntity
  8
_2-7_ビス
  6
Continuous
 62
     7
100
AcDbLine
 10
947.5376352765879
 20
400.2238930220333
 30
0.0
 11
947.6094005561465
 21
400.1736924326123
 31
0.0
  0
LINE
  5
28B
330
22
100
AcDbEntity
  8
_2-7_ビス
  6
Continuous
 62
     7
100
AcDbLine
 10
947.6094005561465
 20
400.1736924326123
 30
0.0
 11
947.688004539586
 21
400.1379553162863
 31
0.0
  0
LINE
  5
28C
330
22
100
AcDbEntity
  8
_2-7_ビス
  6
Continuous
 62
     7
100
AcDbLine
 10
947.688004539586
 20
400.1379553162863
 30
0.0
 11
947.7710588846447
 21
400.1177675272509
 31
0.0
  0
LINE
  5
28D
330
22
100
AcDbEntity
  8
_2-7_ビス
  6
Continuous
 62
     7
100
AcDbLine
 10
947.7710588846447
 20
400.1177675272509
 30
0.0
 11
947.8129054178076
 21
400.1137424612603
 31
0.0
  0
LINE
  5
28E
330
22
100
AcDbEntity
  8
_2-7_ビス
  6
Continuous
 62
     7
100
AcDbLine
 10
947.8129054178076
 20
409.0190056136605
 30
0.0
 11
947.8129054178076
 21
409.0190056136605
 31
0.0
  0
LINE
  5
28F
330
22
100
AcDbEntity
  8
_2-7_ビス
  6
Continuous
 62
     7
100
AcDbLine
 10
947.8129054178076
 20
409.0190056136605
 30
0.0
 11
947.7285795870139
 21
409.0067456570127
 31
0.0
  0
LINE
  5
290
330
22
100
AcDbEntity
  8
_2-7_ビス
  6
Continuous
 62
     7
100
AcDbLine
 10
947.7285795870139
 20
409.0067456570127
 30
0.0
 11
947.6474712655557
 21
408.9785731903057
 31
0.0
  0
LINE
  5
291
330
22
100
AcDbEntity
  8
_2-7_ビス
  6
Continuous
 62
     7
100
AcDbLine
 10
947.6474712655557
 20
408.9785731903057
 30
0.0
 11
947.5720448887376
 21
408.9353442196842
 31
0.0
  0
LINE
  5
292
330
22
100
AcDbEntity
  8
_2-7_ビス
  6
Continuous
 62
     7
100
AcDbLine
 10
947.5720448887376
 20
408.9353442196842
 30
0.0
 11
947.5045922488515
 21
408.8783722355456
 31
0.0
  0
LINE
  5
293
330
22
100
AcDbEntity
  8
_2-7_ビス
  6
Continuous
 62
     7
100
AcDbLine
 10
947.5045922488515
 20
408.8783722355456
 30
0.0
 11
947.4471628602284
 21
408.8093883027989
 31
0.0
  0
LINE
  5
294
330
22
100
AcDbEntity
  8
_2-7_ビス
  6
Continuous
 62
     7
100
AcDbLine
 10
947.4471628602284
 20
408.8093883027989
 30
0.0
 11
947.4015016857801
 21
408.730488463333
 31
0.0
  0
LINE
  5
295
330
22
100
AcDbEntity
  8
_2-7_ビス
  6
Continuous
 62
     7
100
AcDbLine
 10
947.4015016857801
 20
408.730488463333
 30
0.0
 11
947.3689961171869
 21
408.6440700488449
 31
0.0
  0
LINE
  5
296
330
22
100
AcDbEntity
  8
_2-7_ビス
  6
Continuous
 62
     7
100
AcDbLine
 10
947.3689961171869
 20
408.6440700488449
 30
0.0
 11
947.3506338197017
 21
408.5527588391287
 31
0.0
  0
LINE
  5
297
330
22
100
AcDbEntity
  8
_2-7_ビス
  6
Continuous
 62
     7
100
AcDbLine
 10
947.3506338197017
 20
408.5527588391287
 30
0.0
 11
947.3469727224419
 21
408.4593292790863
 31
0.0
  0
LINE
  5
298
330
22
100
AcDbEntity
  8
_2-7_ビス
  6
Continuous
 62
     7
100
AcDbLine
 10
947.3469727224419
 20
408.4593292790863
 30
0.0
 11
947.3581240659955
 21
408.3666201786217
 31
0.0
  0
LINE
  5
299
330
22
100
AcDbEntity
  8
_2-7_ビス
  6
Continuous
 62
     7
100
AcDbLine
 10
947.3581240659955
 20
408.3666201786217
 30
0.0
 11
947.3837490224312
 21
408.2774484568394
 31
0.0
  0
LINE
  5
29A
330
22
100
AcDbEntity
  8
_2-7_ビス
  6
Continuous
 62
     7
100
AcDbLine
 10
947.3837490224312
 20
408.2774484568394
 30
0.0
 11
947.4230689904144
 21
408.194523551383
 31
0.0
  0
LINE
  5
29B
330
22
100
AcDbEntity
  8
_2-7_ビス
  6
Continuous
 62
     7
100
AcDbLine
 10
947.4230689904144
 20
408.194523551383
 30
0.0
 11
947.4748892526147
 21
408.1203650935426
 31
0.0
  0
LINE
  5
29C
330
22
100
AcDbEntity
  8
_2-7_ビス
  6
Continuous
 62
     7
100
AcDbLine
 10
947.4748892526147
 20
408.1203650935426
 30
0.0
 11
947.5376352765879
 21
408.0572263505335
 31
0.0
  0
LINE
  5
29D
330
22
100
AcDbEntity
  8
_2-7_ビス
  6
Continuous
 62
     7
100
AcDbLine
 10
947.5376352765879
 20
408.0572263505335
 30
0.0
 11
947.6094005561465
 21
408.0070257611125
 31
0.0
  0
LINE
  5
29E
330
22
100
AcDbEntity
  8
_2-7_ビス
  6
Continuous
 62
     7
100
AcDbLine
 10
947.6094005561465
 20
408.0070257611125
 30
0.0
 11
947.688004539586
 21
407.9712886447865
 31
0.0
  0
LINE
  5
29F
330
22
100
AcDbEntity
  8
_2-7_ビス
  6
Continuous
 62
     7
100
AcDbLine
 10
947.688004539586
 20
407.9712886447865
 30
0.0
 11
947.7710588846447
 21
407.9511008557511
 31
0.0
  0
LINE
  5
2A0
330
22
100
AcDbEntity
  8
_2-7_ビス
  6
Continuous
 62
     7
100
AcDbLine
 10
947.7710588846447
 20
407.9511008557511
 30
0.0
 11
947.8129054178076
 21
407.9470757897606
 31
0.0
  0
LINE
  5
2A1
330
22
100
AcDbEntity
  8
_2-7_ビス
  6
Continuous
 62
     7
100
AcDbLine
 10
947.4876886070051
 20
389.88918106406
 30
0.0
 11
947.4876886070051
 21
389.88918106406
 31
0.0
  0
LINE
  5
2A2
330
22
100
AcDbEntity
  8
_2-7_ビス
  6
Continuous
 62
     7
100
AcDbLine
 10
947.4876886070051
 20
389.88918106406
 30
0.0
 11
947.4515033931036
 21
389.7555967372928
 31
0.0
  0
LINE
  5
2A3
330
22
100
AcDbEntity
  8
_2-7_ビス
  6
Continuous
 62
     7
100
AcDbLine
 10
947.4515033931036
 20
389.7555967372928
 30
0.0
 11
947.4369670171624
 21
389.6171336850774
 31
0.0
  0
LINE
  5
2A4
330
22
100
AcDbEntity
  8
_2-7_ビス
  6
Continuous
 62
     7
100
AcDbLine
 10
947.4369670171624
 20
389.6171336850774
 30
0.0
 11
947.4374132739169
 21
389.5593565028601
 31
0.0
  0
LINE
  5
2A5
330
22
100
AcDbEntity
  8
_2-7_ビス
  6
Continuous
 62
     7
100
AcDbLine
 10
946.9298711678076
 20
387.5804091356604
 30
0.0
 11
946.9298711678076
 21
387.5804091356604
 31
0.0
  0
LINE
  5
2A6
330
22
100
AcDbEntity
  8
_2-7_ビス
  6
Continuous
 62
     7
100
AcDbLine
 10
946.9298711678076
 20
387.5804091356604
 30
0.0
 11
946.9238303902647
 21
387.6359397108381
 31
0.0
  0
LINE
  5
2A7
330
22
100
AcDbEntity
  8
_2-7_ビス
  6
Continuous
 62
     7
100
AcDbLine
 10
946.9238303902647
 20
387.6359397108381
 30
0.0
 11
946.9091105563149
 21
387.6894733982226
 31
0.0
  0
LINE
  5
2A8
330
22
100
AcDbEntity
  8
_2-7_ビス
  6
Continuous
 62
     7
100
AcDbLine
 10
946.9091105563149
 20
387.6894733982226
 30
0.0
 11
946.8861589206643
 21
387.7393836038122
 31
0.0
  0
LINE
  5
2A9
330
22
100
AcDbEntity
  8
_2-7_ビス
  6
Continuous
 62
     7
100
AcDbLine
 10
946.8861589206643
 20
387.7393836038122
 30
0.0
 11
946.8556728571483
 21
387.7841538312655
 31
0.0
  0
LINE
  5
2AA
330
22
100
AcDbEntity
  8
_2-7_ビス
  6
Continuous
 62
     7
100
AcDbLine
 10
946.8556728571483
 20
387.7841538312655
 30
0.0
 11
946.8185786693796
 21
387.8224237598764
 31
0.0
  0
LINE
  5
2AB
330
22
100
AcDbEntity
  8
_2-7_ビス
  6
Continuous
 62
     7
100
AcDbLine
 10
946.8185786693796
 20
387.8224237598764
 30
0.0
 11
946.7760034454833
 21
387.8530305772296
 31
0.0
  0
LINE
  5
2AC
330
22
100
AcDbEntity
  8
_2-7_ビス
  6
Continuous
 62
     7
100
AcDbLine
 10
946.7760034454833
 20
387.8530305772296
 30
0.0
 11
946.7292408120931
 21
387.8750443106675
 31
0.0
  0
LINE
  5
2AD
330
22
100
AcDbEntity
  8
_2-7_ビス
  6
Continuous
 62
     7
100
AcDbLine
 10
946.7292408120931
 20
387.8750443106675
 30
0.0
 11
946.6797116281624
 21
387.8877960840392
 31
0.0
  0
LINE
  5
2AE
330
22
100
AcDbEntity
  8
_2-7_ビス
  6
Continuous
 62
     7
100
AcDbLine
 10
946.6797116281624
 20
387.8877960840392
 30
0.0
 11
946.6289208128809
 21
387.8908984411634
 31
0.0
  0
LINE
  5
2AF
330
22
100
AcDbEntity
  8
_2-7_ビス
  6
Continuous
 62
     7
100
AcDbLine
 10
946.6289208128809
 20
387.8908984411634
 30
0.0
 11
946.5784116194697
 21
387.8842571184888
 31
0.0
  0
LINE
  5
2B0
330
22
100
AcDbEntity
  8
_2-7_ビス
  6
Continuous
 62
     7
100
AcDbLine
 10
946.5784116194697
 20
387.8842571184888
 30
0.0
 11
946.5297187442125
 21
387.8680739092441
 31
0.0
  0
LINE
  5
2B1
330
22
100
AcDbEntity
  8
_2-7_ビス
  6
Continuous
 62
     7
100
AcDbLine
 10
946.5297187442125
 20
387.8680739092441
 30
0.0
 11
946.4843216954832
 21
387.8428405320532
 31
0.0
  0
LINE
  5
2B2
330
22
100
AcDbEntity
  8
_2-7_ビス
  6
Continuous
 62
     7
100
AcDbLine
 10
946.4843216954832
 20
387.8428405320532
 30
0.0
 11
946.4435998396361
 21
387.8093236903135
 31
0.0
  0
LINE
  5
2B3
330
22
100
AcDbEntity
  8
_2-7_ビス
  6
Continuous
 62
     7
100
AcDbLine
 10
946.4435998396361
 20
387.8093236903135
 30
0.0
 11
946.4087904896548
 21
387.7685417763006
 31
0.0
  0
LINE
  5
2B4
330
22
100
AcDbEntity
  8
_2-7_ビス
  6
Continuous
 62
     7
100
AcDbLine
 10
946.4087904896548
 20
387.7685417763006
 30
0.0
 11
946.3809513100237
 21
387.7217339278353
 31
0.0
  0
LINE
  5
2B5
330
22
100
AcDbEntity
  8
_2-7_ビス
  6
Continuous
 62
     7
100
AcDbLine
 10
946.3809513100237
 20
387.7217339278353
 30
0.0
 11
946.3609281801293
 21
387.6703223777072
 31
0.0
  0
LINE
  5
2B6
330
22
100
AcDbEntity
  8
_2-7_ビス
  6
Continuous
 62
     7
100
AcDbLine
 10
946.3609281801293
 20
387.6703223777072
 30
0.0
 11
946.3493294926404
 21
387.6158692398517
 31
0.0
  0
LINE
  5
2B7
330
22
100
AcDbEntity
  8
_2-7_ビス
  6
Continuous
 62
     7
100
AcDbLine
 10
946.3493294926404
 20
387.6158692398517
 30
0.0
 11
946.3465076678076
 21
387.5600290453077
 31
0.0
  0
LINE
  5
2B8
330
22
100
AcDbEntity
  8
_2-7_ビス
  6
Continuous
 62
     7
100
AcDbLine
 10
946.3465076678076
 20
387.5600290453077
 30
0.0
 11
946.3465076678076
 21
387.5600290453077
 31
0.0
  0
LINE
  5
2B9
330
22
100
AcDbEntity
  8
_2-7_ビス
  6
Continuous
 62
     7
100
AcDbLine
 10
941.6441554178064
 20
424.5480818321484
 30
0.0
 11
941.6441554178064
 21
428.6435670050607
 31
0.0
  0
LINE
  5
2BA
330
22
100
AcDbEntity
  8
_2-7_ビス
  6
Continuous
 62
     7
100
AcDbLine
 10
941.6441554178064
 20
428.6435670050607
 30
0.0
 11
944.6441554178081
 21
428.6435670050607
 31
0.0
  0
LINE
  5
2BB
330
22
100
AcDbEntity
  8
_2-7_ビス
  6
Continuous
 62
     7
100
AcDbLine
 10
941.6441554178064
 20
424.5480818321484
 30
0.0
 11
940.8941554178081
 21
423.7235209119447
 31
0.0
  0
LINE
  5
2BC
330
22
100
AcDbEntity
  8
_2-7_ビス
  6
Continuous
 62
     7
100
AcDbLine
 10
940.8941554178081
 20
423.7235209119447
 30
0.0
 11
940.8941554178081
 21
421.6249151848299
 31
0.0
  0
LINE
  5
2BD
330
22
100
AcDbEntity
  8
_2-7_ビス
  6
Continuous
 62
     7
100
AcDbLine
 10
940.8941554178081
 20
421.6249151848299
 30
0.0
 11
941.4423746678076
 21
417.5073218715808
 31
0.0
  0
LINE
  5
2BE
330
22
100
AcDbEntity
  8
_2-7_ビス
  6
Continuous
 62
     7
100
AcDbLine
 10
941.4423746678076
 20
417.5073218715808
 30
0.0
 11
941.6842984178073
 21
417.0997073630601
 31
0.0
  0
LINE
  5
2BF
330
22
100
AcDbEntity
  8
_2-7_ビス
  6
Continuous
 62
     7
100
AcDbLine
 10
941.6842984178073
 20
417.0997073630601
 30
0.0
 11
941.6441554178064
 21
417.0997073630601
 31
0.0
  0
LINE
  5
2C0
330
22
100
AcDbEntity
  8
_2-7_ビス
  6
Continuous
 62
     7
100
AcDbLine
 10
941.6441554178064
 20
417.0997073630601
 30
0.0
 11
941.6441554178064
 21
415.2856722764605
 31
0.0
  0
LINE
  5
2C1
330
22
100
AcDbEntity
  8
_2-7_ビス
  6
Continuous
 62
     7
100
AcDbLine
 10
941.6441554178064
 20
415.2856722764605
 30
0.0
 11
942.0771679783742
 21
414.4611108734604
 31
0.0
  0
LINE
  5
2C2
330
22
100
AcDbEntity
  8
_2-7_ビス
  6
Continuous
 62
     7
100
AcDbLine
 10
941.9472641678057
 20
414.2137424525597
 30
0.0
 11
940.9691554178076
 21
414.2137424525597
 31
0.0
  0
LINE
  5
2C3
330
22
100
AcDbEntity
  8
_2-7_ビス
  6
Continuous
 62
     7
100
AcDbLine
 10
940.9691554178076
 20
414.2137424525597
 30
0.0
 11
940.9691554178076
 21
409.9803518586808
 31
0.0
  0
LINE
  5
2C4
330
22
100
AcDbEntity
  8
_2-7_ビス
  6
Continuous
 62
     7
100
AcDbLine
 10
940.9691554178076
 20
409.9803518586808
 30
0.0
 11
941.4706249178076
 21
409.0190056136602
 31
0.0
  0
LINE
  5
2C5
330
22
100
AcDbEntity
  8
_2-7_ビス
  6
Continuous
 62
     7
100
AcDbLine
 10
941.4706249178076
 20
409.0190056136602
 30
0.0
 11
941.4754054178084
 21
409.0190056136602
 31
0.0
  0
LINE
  5
2C6
330
22
100
AcDbEntity
  8
_2-7_ビス
  6
Continuous
 62
     7
100
AcDbLine
 10
941.4754095910931
 20
409.0190059674424
 30
0.0
 11
941.4754054178084
 21
409.0190056136602
 31
0.0
  0
LINE
  5
2C7
330
22
100
AcDbEntity
  8
_2-7_ビス
  6
Continuous
 62
     7
100
AcDbLine
 10
941.4754095910931
 20
409.0190059674424
 30
0.0
 11
941.4754054178084
 21
409.0190056136602
 31
0.0
  0
LINE
  5
2C8
330
22
100
AcDbEntity
  8
_2-7_ビス
  6
Continuous
 62
     7
100
AcDbLine
 10
941.5079966678073
 20
407.9470757897607
 30
0.0
 11
940.9691554178076
 21
407.9470757897607
 31
0.0
  0
LINE
  5
2C9
330
22
100
AcDbEntity
  8
_2-7_ビス
  6
Continuous
 62
     7
100
AcDbLine
 10
940.9691554178076
 20
407.9470757897607
 30
0.0
 11
940.9691554178076
 21
402.1498426529868
 31
0.0
  0
LINE
  5
2CA
330
22
100
AcDbEntity
  8
_2-7_ビス
  6
Continuous
 62
     7
100
AcDbLine
 10
940.9691554178076
 20
402.1498426529868
 30
0.0
 11
941.4754026048685
 21
401.185691283222
 31
0.0
  0
LINE
  5
2CB
330
22
100
AcDbEntity
  8
_2-7_ビス
  6
Continuous
 62
     7
100
AcDbLine
 10
941.4754054178084
 20
401.1856722851602
 30
0.0
 11
941.4789970481628
 21
401.6631236824006
 31
0.0
  0
LINE
  5
2CC
330
22
100
AcDbEntity
  8
_2-7_ビス
  6
Continuous
 62
     7
100
AcDbLine
 10
941.4789970481628
 20
401.6631236824006
 30
0.0
 11
941.7996770557865
 21
401.6804091269604
 31
0.0
  0
LINE
  5
2CD
330
22
100
AcDbEntity
  8
_2-7_ビス
  6
Continuous
 62
     7
100
AcDbLine
 10
941.9583390959532
 20
401.9277775478601
 30
0.0
 11
941.5079966678073
 21
402.7523389508602
 31
0.0
  0
LINE
  5
2CE
330
22
100
AcDbEntity
  8
_2-7_ビス
  6
Continuous
 62
     7
100
AcDbLine
 10
941.5079966678073
 20
402.7523389508602
 30
0.0
 11
941.5079965156829
 21
403.2297904198552
 31
0.0
  0
LINE
  5
2CF
330
22
100
AcDbEntity
  8
_2-7_ビス
  6
Continuous
 62
     7
100
AcDbLine
 10
941.5079965156829
 20
403.2297904198552
 30
0.0
 11
941.8560289178085
 21
403.2470757926605
 31
0.0
  0
LINE
  5
2D0
330
22
100
AcDbEntity
  8
_2-7_ビス
  6
Continuous
 62
     7
100
AcDbLine
 10
942.0156186675276
 20
403.4944442135602
 30
0.0
 11
941.5079966678073
 21
404.3190056165602
 31
0.0
  0
LINE
  5
2D1
330
22
100
AcDbEntity
  8
_2-7_ビス
  6
Continuous
 62
     7
100
AcDbLine
 10
941.5079966678073
 20
404.3190056165602
 30
0.0
 11
941.5079966678073
 21
404.7964571776688
 31
0.0
  0
LINE
  5
2D2
330
22
100
AcDbEntity
  8
_2-7_ビス
  6
Continuous
 62
     7
100
AcDbLine
 10
941.5079966678073
 20
404.7964571776688
 30
0.0
 11
941.8560289178085
 21
404.8137424583607
 31
0.0
  0
LINE
  5
2D3
330
22
100
AcDbEntity
  8
_2-7_ビス
  6
Continuous
 62
     7
100
AcDbLine
 10
942.0156186675276
 20
405.0611108792603
 30
0.0
 11
941.5079966678073
 21
405.8856722822602
 31
0.0
  0
LINE
  5
2D4
330
22
100
AcDbEntity
  8
_2-7_ビス
  6
Continuous
 62
     7
100
AcDbLine
 10
941.5079966678073
 20
405.8856722822602
 30
0.0
 11
941.5079966678073
 21
406.3631238433688
 31
0.0
  0
LINE
  5
2D5
330
22
100
AcDbEntity
  8
_2-7_ビス
  6
Continuous
 62
     7
100
AcDbLine
 10
941.5079966678073
 20
406.3631238433688
 30
0.0
 11
941.8560289178085
 21
406.3804091240607
 31
0.0
  0
LINE
  5
2D6
330
22
100
AcDbEntity
  8
_2-7_ビス
  6
Continuous
 62
     7
100
AcDbLine
 10
942.0156186675276
 20
406.6277775449603
 30
0.0
 11
941.5079965156829
 21
407.4523389479603
 31
0.0
  0
LINE
  5
2D7
330
22
100
AcDbEntity
  8
_2-7_ビス
  6
Continuous
 62
     7
100
AcDbLine
 10
941.5079965156829
 20
407.4523389479603
 30
0.0
 11
941.5079966678073
 21
407.9470757897607
 31
0.0
  0
LINE
  5
2D8
330
22
100
AcDbEntity
  8
_2-7_ビス
  6
Continuous
 62
     7
100
AcDbLine
 10
941.4754095910931
 20
409.0190059674424
 30
0.0
 11
941.4790947923384
 21
409.4964574364362
 31
0.0
  0
LINE
  5
2D9
330
22
100
AcDbEntity
  8
_2-7_ビス
  6
Continuous
 62
     7
100
AcDbLine
 10
941.4790947923384
 20
409.4964574364362
 30
0.0
 11
941.7965396678065
 21
409.5137424554608
 31
0.0
  0
LINE
  5
2DA
330
22
100
AcDbEntity
  8
_2-7_ビス
  6
Continuous
 62
     7
100
AcDbLine
 10
941.9586318081282
 20
409.7611108763604
 30
0.0
 11
941.5079965156829
 21
410.5856722793602
 31
0.0
  0
LINE
  5
2DB
330
22
100
AcDbEntity
  8
_2-7_ビス
  6
Continuous
 62
     7
100
AcDbLine
 10
941.5079965156829
 20
410.5856722793602
 30
0.0
 11
941.5079965156829
 21
411.0631237483543
 31
0.0
  0
LINE
  5
2DC
330
22
100
AcDbEntity
  8
_2-7_ビス
  6
Continuous
 62
     7
100
AcDbLine
 10
941.5079965156829
 20
411.0631237483543
 30
0.0
 11
941.8560289178085
 21
411.0804091211607
 31
0.0
  0
LINE
  5
2DD
330
22
100
AcDbEntity
  8
_2-7_ビス
  6
Continuous
 62
     7
100
AcDbLine
 10
942.0156186675276
 20
411.3277775420604
 30
0.0
 11
941.5079966678073
 21
412.1523389450604
 31
0.0
  0
LINE
  5
2DE
330
22
100
AcDbEntity
  8
_2-7_ビス
  6
Continuous
 62
     7
100
AcDbLine
 10
941.5079966678073
 20
412.1523389450604
 30
0.0
 11
941.5079965156829
 21
412.6297904140543
 31
0.0
  0
LINE
  5
2DF
330
22
100
AcDbEntity
  8
_2-7_ビス
  6
Continuous
 62
     7
100
AcDbLine
 10
941.5079965156829
 20
412.6297904140543
 30
0.0
 11
941.8569150102952
 21
412.6473073680201
 31
0.0
  0
LINE
  5
2E0
330
22
100
AcDbEntity
  8
_2-7_ビス
  6
Continuous
 62
     7
100
AcDbLine
 10
942.0156186675276
 20
412.8944442077604
 30
0.0
 11
941.5079965156829
 21
413.7190056107605
 31
0.0
  0
LINE
  5
2E1
330
22
100
AcDbEntity
  8
_2-7_ビス
  6
Continuous
 62
     7
100
AcDbLine
 10
941.5079965156829
 20
413.7190056107605
 30
0.0
 11
941.5079966733141
 21
414.2137424525597
 31
0.0
  0
LINE
  5
2E2
330
22
100
AcDbEntity
  8
_2-7_ビス
  6
Continuous
 62
     7
100
AcDbLine
 10
941.5079966678073
 20
400.1137424612605
 30
0.0
 11
940.9691554178076
 21
400.1137424612605
 31
0.0
  0
LINE
  5
2E3
330
22
100
AcDbEntity
  8
_2-7_ビス
  6
Continuous
 62
     7
100
AcDbLine
 10
940.9691554178076
 20
400.1137424612605
 30
0.0
 11
940.9691554178076
 21
396.8655007264229
 31
0.0
  0
LINE
  5
2E4
330
22
100
AcDbEntity
  8
_2-7_ビス
  6
Continuous
 62
     7
100
AcDbLine
 10
940.9691554178076
 20
396.8655007264229
 30
0.0
 11
941.4749411678068
 21
393.35233895666
 31
0.0
  0
LINE
  5
2E5
330
22
100
AcDbEntity
  8
_2-7_ビス
  6
Continuous
 62
     7
100
AcDbLine
 10
941.4749411678068
 20
393.35233895666
 30
0.0
 11
941.4756756854707
 21
393.8297900408012
 31
0.0
  0
LINE
  5
2E6
330
22
100
AcDbEntity
  8
_2-7_ビス
  6
Continuous
 62
     7
100
AcDbLine
 10
941.4756756854707
 20
393.8297900408012
 30
0.0
 11
941.7843641678077
 21
393.8470757984604
 31
0.0
  0
LINE
  5
2E7
330
22
100
AcDbEntity
  8
_2-7_ビス
  6
Continuous
 62
     7
100
AcDbLine
 10
941.4749411678068
 20
393.35233895666
 30
0.0
 11
941.9084179783741
 21
392.52777755366
 31
0.0
  0
LINE
  5
2E8
330
22
100
AcDbEntity
  8
_2-7_ビス
  6
Continuous
 62
     7
100
AcDbLine
 10
941.9289207325952
 20
394.0944442193599
 30
0.0
 11
941.4783183991346
 21
394.91900562236
 31
0.0
  0
LINE
  5
2E9
330
22
100
AcDbEntity
  8
_2-7_ビス
  6
Continuous
 62
     7
100
AcDbLine
 10
941.4783183991346
 20
394.91900562236
 30
0.0
 11
941.4804033033981
 21
395.3964567065
 31
0.0
  0
LINE
  5
2EA
330
22
100
AcDbEntity
  8
_2-7_ビス
  6
Continuous
 62
     7
100
AcDbLine
 10
941.4804033033981
 20
395.3964567065
 30
0.0
 11
941.8027301678073
 21
395.4137424641604
 31
0.0
  0
LINE
  5
2EB
330
22
100
AcDbEntity
  8
_2-7_ビス
  6
Continuous
 62
     7
100
AcDbLine
 10
941.9512356636266
 20
395.6611108850601
 30
0.0
 11
941.4873678043012
 21
396.4856719032062
 31
0.0
  0
LINE
  5
2EC
330
22
100
AcDbEntity
  8
_2-7_ビス
  6
Continuous
 62
     7
100
AcDbLine
 10
941.4873678043012
 20
396.4856719032062
 30
0.0
 11
941.4914306449976
 21
396.9631233722012
 31
0.0
  0
LINE
  5
2ED
330
22
100
AcDbEntity
  8
_2-7_ビス
  6
Continuous
 62
     7
100
AcDbLine
 10
941.4914306449976
 20
396.9631233722012
 30
0.0
 11
941.8260840002668
 21
396.9804091298606
 31
0.0
  0
LINE
  5
2EE
330
22
100
AcDbEntity
  8
_2-7_ビス
  6
Continuous
 62
     7
100
AcDbLine
 10
941.983338616434
 20
397.22777755076
 30
0.0
 11
941.5031359922288
 21
398.0523385689062
 31
0.0
  0
LINE
  5
2EF
330
22
100
AcDbEntity
  8
_2-7_ビス
  6
Continuous
 62
     7
100
AcDbLine
 10
941.5031359922288
 20
398.0523385689062
 30
0.0
 11
941.5079966678073
 21
398.5297905148688
 31
0.0
  0
LINE
  5
2F0
330
22
100
AcDbEntity
  8
_2-7_ビス
  6
Continuous
 62
     7
100
AcDbLine
 10
941.5079966678073
 20
398.5297905148688
 30
0.0
 11
941.8560289178085
 21
398.5470757955606
 31
0.0
  0
LINE
  5
2F1
330
22
100
AcDbEntity
  8
_2-7_ビス
  6
Continuous
 62
     7
100
AcDbLine
 10
942.0156186675276
 20
398.7944442164602
 30
0.0
 11
941.5079965156829
 21
399.6190056194602
 31
0.0
  0
LINE
  5
2F2
330
22
100
AcDbEntity
  8
_2-7_ビス
  6
Continuous
 62
     7
100
AcDbLine
 10
941.5079965156829
 20
399.6190056194602
 30
0.0
 11
941.5079966678073
 21
400.1137424612605
 31
0.0
  0
LINE
  5
2F3
330
22
100
AcDbEntity
  8
_2-7_ビス
  6
Continuous
 62
     7
100
AcDbLine
 10
941.7785141678077
 20
392.2804091327603
 30
0.0
 11
941.6441554178064
 21
392.2804091327603
 31
0.0
  0
LINE
  5
2F4
330
22
100
AcDbEntity
  8
_2-7_ビス
  6
Continuous
 62
     7
100
AcDbLine
 10
941.6441554178064
 20
392.2804091327603
 30
0.0
 11
941.6441554178064
 21
391.4970757999098
 31
0.0
  0
LINE
  5
2F5
330
22
100
AcDbEntity
  8
_2-7_ビス
  6
Continuous
 62
     7
100
AcDbLine
 10
941.6441554178064
 20
391.4970757999098
 30
0.0
 11
941.7941554178073
 21
391.4970757999098
 31
0.0
  0
LINE
  5
2F6
330
22
100
AcDbEntity
  8
_2-7_ビス
  6
Continuous
 62
     7
100
AcDbLine
 10
941.7941554178073
 20
391.4970757999098
 30
0.0
 11
941.7941554178073
 21
389.8891810640603
 31
0.0
  0
LINE
  5
2F7
330
22
100
AcDbEntity
  8
_2-7_ビス
  6
Continuous
 62
     7
100
AcDbLine
 10
941.7941554178073
 20
389.8891810640603
 30
0.0
 11
941.8006222286079
 21
389.8891810640603
 31
0.0
  0
LINE
  5
2F8
330
22
100
AcDbEntity
  8
_2-7_ビス
  6
Continuous
 62
     7
100
AcDbLine
 10
941.8508974178065
 20
389.5593565028608
 30
0.0
 11
941.8508975643444
 21
383.6089149100408
 31
0.0
  0
LINE
  5
2F9
330
22
100
AcDbEntity
  8
_2-7_ビス
  6
Continuous
 62
     7
100
AcDbLine
 10
941.8508975643444
 20
383.6089149100408
 30
0.0
 11
942.2913349178081
 21
382.9574940858814
 31
0.0
  0
LINE
  5
2FA
330
22
100
AcDbEntity
  8
_2-7_ビス
  6
Continuous
 62
     7
100
AcDbLine
 10
942.2913349178081
 20
382.9574940858814
 30
0.0
 11
943.2941554178059
 21
381.6435670340608
 31
0.0
  0
LINE
  5
2FB
330
22
100
AcDbEntity
  8
_2-7_ビス
  6
Continuous
 62
     7
100
AcDbLine
 10
943.2941554178059
 20
381.6435670340608
 30
0.0
 11
943.4435338973017
 21
381.6435670340608
 31
0.0
  0
LINE
  5
2FC
330
22
100
AcDbEntity
  8
_2-7_ビス
  6
Continuous
 62
     7
100
AcDbLine
 10
943.4435338973017
 20
381.6435670340608
 30
0.0
 11
942.3584397879873
 21
383.6089149100408
 31
0.0
  0
LINE
  5
2FD
330
22
100
AcDbEntity
  8
_2-7_ビス
  6
Continuous
 62
     7
100
AcDbLine
 10
942.3584397879873
 20
383.6089149100408
 30
0.0
 11
942.3584396678064
 21
387.5804091356601
 31
0.0
  0
LINE
  5
2FE
330
22
100
AcDbEntity
  8
_2-7_ビス
  6
Continuous
 62
     7
100
AcDbLine
 10
942.9418031678064
 20
387.5804091356601
 30
0.0
 11
942.9418028943736
 21
383.6089150627394
 31
0.0
  0
LINE
  5
2FF
330
22
100
AcDbEntity
  8
_2-7_ビス
  6
Continuous
 62
     7
100
AcDbLine
 10
942.9418028943736
 20
383.6089150627394
 30
0.0
 11
944.0268972596086
 21
381.6435670340608
 31
0.0
  0
LINE
  5
300
330
22
100
AcDbEntity
  8
_2-7_ビス
  6
Continuous
 62
     7
100
AcDbLine
 10
944.0268972596086
 20
381.6435670340608
 30
0.0
 11
944.6441554178081
 21
381.6435670340608
 31
0.0
  0
LINE
  5
301
330
22
100
AcDbEntity
  8
_2-7_ビス
  6
Continuous
 62
     7
100
AcDbLine
 10
941.9472641678057
 20
414.2137424525597
 30
0.0
 11
941.9472641678057
 21
414.2137424525597
 31
0.0
  0
LINE
  5
302
330
22
100
AcDbEntity
  8
_2-7_ビス
  6
Continuous
 62
     7
100
AcDbLine
 10
941.9472641678057
 20
414.2137424525597
 30
0.0
 11
941.9742226187063
 21
414.2183962372749
 31
0.0
  0
LINE
  5
303
330
22
100
AcDbEntity
  8
_2-7_ビス
  6
Continuous
 62
     7
100
AcDbLine
 10
941.9742226187063
 20
414.2183962372749
 30
0.0
 11
942.0000364637193
 21
414.2281259974048
 31
0.0
  0
LINE
  5
304
330
22
100
AcDbEntity
  8
_2-7_ビス
  6
Continuous
 62
     7
100
AcDbLine
 10
942.0000364637193
 20
414.2281259974048
 30
0.0
 11
942.0239213622268
 21
414.2426360991113
 31
0.0
  0
LINE
  5
305
330
22
100
AcDbEntity
  8
_2-7_ビス
  6
Continuous
 62
     7
100
AcDbLine
 10
942.0239213622268
 20
414.2426360991113
 30
0.0
 11
942.0451515836736
 21
414.2614856602968
 31
0.0
  0
LINE
  5
306
330
22
100
AcDbEntity
  8
_2-7_ビス
  6
Continuous
 62
     7
100
AcDbLine
 10
942.0451515836736
 20
414.2614856602968
 30
0.0
 11
942.0630820585241
 21
414.2841019465825
 31
0.0
  0
LINE
  5
307
330
22
100
AcDbEntity
  8
_2-7_ビス
  6
Continuous
 62
     7
100
AcDbLine
 10
942.0630820585241
 20
414.2841019465825
 30
0.0
 11
942.0771679783737
 21
414.3097977735544
 31
0.0
  0
LINE
  5
308
330
22
100
AcDbEntity
  8
_2-7_ビス
  6
Continuous
 62
     7
100
AcDbLine
 10
942.0771679783737
 20
414.3097977735544
 30
0.0
 11
942.0869813496748
 21
414.3377923865125
 31
0.0
  0
LINE
  5
309
330
22
100
AcDbEntity
  8
_2-7_ビス
  6
Continuous
 62
     7
100
AcDbLine
 10
942.0869813496748
 20
414.3377923865125
 30
0.0
 11
942.0922239981065
 21
414.367235183308
 31
0.0
  0
LINE
  5
30A
330
22
100
AcDbEntity
  8
_2-7_ビス
  6
Continuous
 62
     7
100
AcDbLine
 10
942.0922239981065
 20
414.367235183308
 30
0.0
 11
942.0927366284495
 21
414.3972315594592
 31
0.0
  0
LINE
  5
30B
330
22
100
AcDbEntity
  8
_2-7_ビス
  6
Continuous
 62
     7
100
AcDbLine
 10
942.0927366284495
 20
414.3972315594592
 30
0.0
 11
942.0885036646899
 21
414.4268700902556
 31
0.0
  0
LINE
  5
30C
330
22
100
AcDbEntity
  8
_2-7_ビス
  6
Continuous
 62
     7
100
AcDbLine
 10
942.0885036646899
 20
414.4268700902556
 30
0.0
 11
942.0796537232901
 21
414.4552502239368
 31
0.0
  0
LINE
  5
30D
330
22
100
AcDbEntity
  8
_2-7_ビス
  6
Continuous
 62
     7
100
AcDbLine
 10
942.0796537232901
 20
414.4552502239368
 30
0.0
 11
942.0664557052401
 21
414.4815096445017
 31
0.0
  0
LINE
  5
30E
330
22
100
AcDbEntity
  8
_2-7_ビス
  6
Continuous
 62
     7
100
AcDbLine
 10
942.0664557052401
 20
414.4815096445017
 30
0.0
 11
942.0664553127229
 21
414.4815102861259
 31
0.0
  0
LINE
  5
30F
330
22
100
AcDbEntity
  8
_2-7_ビス
  6
Continuous
 62
     7
100
AcDbLine
 10
941.8560289178076
 20
412.6470757868601
 30
0.0
 11
941.8560289178076
 21
412.6470757868601
 31
0.0
  0
LINE
  5
310
330
22
100
AcDbEntity
  8
_2-7_ビス
  6
Continuous
 62
     7
100
AcDbLine
 10
941.8560289178076
 20
412.6470757868601
 30
0.0
 11
941.8905521461427
 21
412.6595893371192
 31
0.0
  0
LINE
  5
311
330
22
100
AcDbEntity
  8
_2-7_ビス
  6
Continuous
 62
     7
100
AcDbLine
 10
941.8905521461427
 20
412.6595893371192
 30
0.0
 11
941.9225744244959
 21
412.6785036578974
 31
0.0
  0
LINE
  5
312
330
22
100
AcDbEntity
  8
_2-7_ビス
  6
Continuous
 62
     7
100
AcDbLine
 10
941.9225744244959
 20
412.6785036578974
 30
0.0
 11
941.9511227721432
 21
412.7032440471287
 31
0.0
  0
LINE
  5
313
330
22
100
AcDbEntity
  8
_2-7_ビス
  6
Continuous
 62
     7
100
AcDbLine
 10
941.9511227721432
 20
412.7032440471287
 30
0.0
 11
941.975329761988
 21
412.733058780606
 31
0.0
  0
LINE
  5
314
330
22
100
AcDbEntity
  8
_2-7_ビス
  6
Continuous
 62
     7
100
AcDbLine
 10
941.975329761988
 20
412.733058780606
 30
0.0
 11
941.9944598768934
 21
412.7670419527392
 31
0.0
  0
LINE
  5
315
330
22
100
AcDbEntity
  8
_2-7_ビス
  6
Continuous
 62
     7
100
AcDbLine
 10
941.9944598768934
 20
412.7670419527392
 30
0.0
 11
942.0079318579972
 21
412.8041610020396
 31
0.0
  0
LINE
  5
316
330
22
100
AcDbEntity
  8
_2-7_ビス
  6
Continuous
 62
     7
100
AcDbLine
 10
942.0079318579972
 20
412.8041610020396
 30
0.0
 11
942.0153363659721
 21
412.8432880849771
 31
0.0
  0
LINE
  5
317
330
22
100
AcDbEntity
  8
_2-7_ビス
  6
Continuous
 62
     7
100
AcDbLine
 10
942.0153363659721
 20
412.8432880849771
 30
0.0
 11
942.0164484185892
 21
412.8832343449362
 31
0.0
  0
LINE
  5
318
330
22
100
AcDbEntity
  8
_2-7_ビス
  6
Continuous
 62
     7
100
AcDbLine
 10
942.0164484185892
 20
412.8832343449362
 30
0.0
 11
942.0156186675283
 21
412.8944442077601
 31
0.0
  0
LINE
  5
319
330
22
100
AcDbEntity
  8
_2-7_ビス
  6
Continuous
 62
     7
100
AcDbLine
 10
941.8560289178076
 20
411.0804091211601
 30
0.0
 11
941.8560289178076
 21
411.0804091211601
 31
0.0
  0
LINE
  5
31A
330
22
100
AcDbEntity
  8
_2-7_ビス
  6
Continuous
 62
     7
100
AcDbLine
 10
941.8560289178076
 20
411.0804091211601
 30
0.0
 11
941.8905521461427
 21
411.0929226714191
 31
0.0
  0
LINE
  5
31B
330
22
100
AcDbEntity
  8
_2-7_ビス
  6
Continuous
 62
     7
100
AcDbLine
 10
941.8905521461427
 20
411.0929226714191
 30
0.0
 11
941.9225744244959
 21
411.1118369921973
 31
0.0
  0
LINE
  5
31C
330
22
100
AcDbEntity
  8
_2-7_ビス
  6
Continuous
 62
     7
100
AcDbLine
 10
941.9225744244959
 20
411.1118369921973
 30
0.0
 11
941.9511227721432
 21
411.1365773814288
 31
0.0
  0
LINE
  5
31D
330
22
100
AcDbEntity
  8
_2-7_ビス
  6
Continuous
 62
     7
100
AcDbLine
 10
941.9511227721432
 20
411.1365773814288
 30
0.0
 11
941.975329761988
 21
411.166392114906
 31
0.0
  0
LINE
  5
31E
330
22
100
AcDbEntity
  8
_2-7_ビス
  6
Continuous
 62
     7
100
AcDbLine
 10
941.975329761988
 20
411.166392114906
 30
0.0
 11
941.9944598768934
 21
411.2003752870392
 31
0.0
  0
LINE
  5
31F
330
22
100
AcDbEntity
  8
_2-7_ビス
  6
Continuous
 62
     7
100
AcDbLine
 10
941.9944598768934
 20
411.2003752870392
 30
0.0
 11
942.0079318579972
 21
411.2374943363394
 31
0.0
  0
LINE
  5
320
330
22
100
AcDbEntity
  8
_2-7_ビス
  6
Continuous
 62
     7
100
AcDbLine
 10
942.0079318579972
 20
411.2374943363394
 30
0.0
 11
942.0153363659721
 21
411.276621419277
 31
0.0
  0
LINE
  5
321
330
22
100
AcDbEntity
  8
_2-7_ビス
  6
Continuous
 62
     7
100
AcDbLine
 10
942.0153363659721
 20
411.276621419277
 30
0.0
 11
942.0164484185892
 21
411.3165676792361
 31
0.0
  0
LINE
  5
322
330
22
100
AcDbEntity
  8
_2-7_ビス
  6
Continuous
 62
     7
100
AcDbLine
 10
942.0164484185892
 20
411.3165676792361
 30
0.0
 11
942.0156186675283
 21
411.3277775420601
 31
0.0
  0
LINE
  5
323
330
22
100
AcDbEntity
  8
_2-7_ビス
  6
Continuous
 62
     7
100
AcDbLine
 10
941.7990420584059
 20
409.5137424554602
 30
0.0
 11
941.7990420584059
 21
409.5137424554602
 31
0.0
  0
LINE
  5
324
330
22
100
AcDbEntity
  8
_2-7_ビス
  6
Continuous
 62
     7
100
AcDbLine
 10
941.7990420584059
 20
409.5137424554602
 30
0.0
 11
941.8335652867412
 21
409.5262560057192
 31
0.0
  0
LINE
  5
325
330
22
100
AcDbEntity
  8
_2-7_ビス
  6
Continuous
 62
     7
100
AcDbLine
 10
941.8335652867412
 20
409.5262560057192
 30
0.0
 11
941.8655875650943
 21
409.5451703264973
 31
0.0
  0
LINE
  5
326
330
22
100
AcDbEntity
  8
_2-7_ビス
  6
Continuous
 62
     7
100
AcDbLine
 10
941.8655875650943
 20
409.5451703264973
 30
0.0
 11
941.8941359127417
 21
409.5699107157288
 31
0.0
  0
LINE
  5
327
330
22
100
AcDbEntity
  8
_2-7_ビス
  6
Continuous
 62
     7
100
AcDbLine
 10
941.8941359127417
 20
409.5699107157288
 30
0.0
 11
941.9183429025864
 21
409.5997254492059
 31
0.0
  0
LINE
  5
328
330
22
100
AcDbEntity
  8
_2-7_ビス
  6
Continuous
 62
     7
100
AcDbLine
 10
941.9183429025864
 20
409.5997254492059
 30
0.0
 11
941.9374730174915
 21
409.6337086213392
 31
0.0
  0
LINE
  5
329
330
22
100
AcDbEntity
  8
_2-7_ビス
  6
Continuous
 62
     7
100
AcDbLine
 10
941.9374730174915
 20
409.6337086213392
 30
0.0
 11
941.9509449985955
 21
409.6708276706394
 31
0.0
  0
LINE
  5
32A
330
22
100
AcDbEntity
  8
_2-7_ビス
  6
Continuous
 62
     7
100
AcDbLine
 10
941.9509449985955
 20
409.6708276706394
 30
0.0
 11
941.9583495065705
 21
409.709954753577
 31
0.0
  0
LINE
  5
32B
330
22
100
AcDbEntity
  8
_2-7_ビス
  6
Continuous
 62
     7
100
AcDbLine
 10
941.9583495065705
 20
409.709954753577
 30
0.0
 11
941.9594615591876
 21
409.749901013536
 31
0.0
  0
LINE
  5
32C
330
22
100
AcDbEntity
  8
_2-7_ビス
  6
Continuous
 62
     7
100
AcDbLine
 10
941.9594615591876
 20
409.749901013536
 30
0.0
 11
941.9586318081266
 21
409.7611108763602
 31
0.0
  0
LINE
  5
32D
330
22
100
AcDbEntity
  8
_2-7_ビス
  6
Continuous
 62
     7
100
AcDbLine
 10
941.8560289178076
 20
406.3804091240601
 30
0.0
 11
941.8560289178076
 21
406.3804091240601
 31
0.0
  0
LINE
  5
32E
330
22
100
AcDbEntity
  8
_2-7_ビス
  6
Continuous
 62
     7
100
AcDbLine
 10
941.8560289178076
 20
406.3804091240601
 30
0.0
 11
941.8905521461427
 21
406.3929226743191
 31
0.0
  0
LINE
  5
32F
330
22
100
AcDbEntity
  8
_2-7_ビス
  6
Continuous
 62
     7
100
AcDbLine
 10
941.8905521461427
 20
406.3929226743191
 30
0.0
 11
941.9225744244959
 21
406.4118369950972
 31
0.0
  0
LINE
  5
330
330
22
100
AcDbEntity
  8
_2-7_ビス
  6
Continuous
 62
     7
100
AcDbLine
 10
941.9225744244959
 20
406.4118369950972
 30
0.0
 11
941.9511227721432
 21
406.4365773843285
 31
0.0
  0
LINE
  5
331
330
22
100
AcDbEntity
  8
_2-7_ビス
  6
Continuous
 62
     7
100
AcDbLine
 10
941.9511227721432
 20
406.4365773843285
 30
0.0
 11
941.975329761988
 21
406.4663921178057
 31
0.0
  0
LINE
  5
332
330
22
100
AcDbEntity
  8
_2-7_ビス
  6
Continuous
 62
     7
100
AcDbLine
 10
941.975329761988
 20
406.4663921178057
 30
0.0
 11
941.9944598768934
 21
406.5003752899391
 31
0.0
  0
LINE
  5
333
330
22
100
AcDbEntity
  8
_2-7_ビス
  6
Continuous
 62
     7
100
AcDbLine
 10
941.9944598768934
 20
406.5003752899391
 30
0.0
 11
942.0079318579972
 21
406.5374943392393
 31
0.0
  0
LINE
  5
334
330
22
100
AcDbEntity
  8
_2-7_ビス
  6
Continuous
 62
     7
100
AcDbLine
 10
942.0079318579972
 20
406.5374943392393
 30
0.0
 11
942.0153363659721
 21
406.576621422177
 31
0.0
  0
LINE
  5
335
330
22
100
AcDbEntity
  8
_2-7_ビス
  6
Continuous
 62
     7
100
AcDbLine
 10
942.0153363659721
 20
406.576621422177
 30
0.0
 11
942.0164484185892
 21
406.616567682136
 31
0.0
  0
LINE
  5
336
330
22
100
AcDbEntity
  8
_2-7_ビス
  6
Continuous
 62
     7
100
AcDbLine
 10
942.0164484185892
 20
406.616567682136
 30
0.0
 11
942.0156186675283
 21
406.62777754496
 31
0.0
  0
LINE
  5
337
330
22
100
AcDbEntity
  8
_2-7_ビス
  6
Continuous
 62
     7
100
AcDbLine
 10
941.8560289178076
 20
404.8137424583599
 30
0.0
 11
941.8560289178076
 21
404.8137424583599
 31
0.0
  0
LINE
  5
338
330
22
100
AcDbEntity
  8
_2-7_ビス
  6
Continuous
 62
     7
100
AcDbLine
 10
941.8560289178076
 20
404.8137424583599
 30
0.0
 11
941.8905521461427
 21
404.8262560086191
 31
0.0
  0
LINE
  5
339
330
22
100
AcDbEntity
  8
_2-7_ビス
  6
Continuous
 62
     7
100
AcDbLine
 10
941.8905521461427
 20
404.8262560086191
 30
0.0
 11
941.9225744244959
 21
404.8451703293972
 31
0.0
  0
LINE
  5
33A
330
22
100
AcDbEntity
  8
_2-7_ビス
  6
Continuous
 62
     7
100
AcDbLine
 10
941.9225744244959
 20
404.8451703293972
 30
0.0
 11
941.9511227721432
 21
404.8699107186285
 31
0.0
  0
LINE
  5
33B
330
22
100
AcDbEntity
  8
_2-7_ビス
  6
Continuous
 62
     7
100
AcDbLine
 10
941.9511227721432
 20
404.8699107186285
 30
0.0
 11
941.975329761988
 21
404.8997254521057
 31
0.0
  0
LINE
  5
33C
330
22
100
AcDbEntity
  8
_2-7_ビス
  6
Continuous
 62
     7
100
AcDbLine
 10
941.975329761988
 20
404.8997254521057
 30
0.0
 11
941.9944598768934
 21
404.9337086242391
 31
0.0
  0
LINE
  5
33D
330
22
100
AcDbEntity
  8
_2-7_ビス
  6
Continuous
 62
     7
100
AcDbLine
 10
941.9944598768934
 20
404.9337086242391
 30
0.0
 11
942.0079318579972
 21
404.9708276735393
 31
0.0
  0
LINE
  5
33E
330
22
100
AcDbEntity
  8
_2-7_ビス
  6
Continuous
 62
     7
100
AcDbLine
 10
942.0079318579972
 20
404.9708276735393
 30
0.0
 11
942.0153363659721
 21
405.0099547564768
 31
0.0
  0
LINE
  5
33F
330
22
100
AcDbEntity
  8
_2-7_ビス
  6
Continuous
 62
     7
100
AcDbLine
 10
942.0153363659721
 20
405.0099547564768
 30
0.0
 11
942.0164484185892
 21
405.049901016436
 31
0.0
  0
LINE
  5
340
330
22
100
AcDbEntity
  8
_2-7_ビス
  6
Continuous
 62
     7
100
AcDbLine
 10
942.0164484185892
 20
405.049901016436
 30
0.0
 11
942.0156186675283
 21
405.0611108792599
 31
0.0
  0
LINE
  5
341
330
22
100
AcDbEntity
  8
_2-7_ビス
  6
Continuous
 62
     7
100
AcDbLine
 10
941.8560289178076
 20
403.2470757926599
 30
0.0
 11
941.8560289178076
 21
403.2470757926599
 31
0.0
  0
LINE
  5
342
330
22
100
AcDbEntity
  8
_2-7_ビス
  6
Continuous
 62
     7
100
AcDbLine
 10
941.8560289178076
 20
403.2470757926599
 30
0.0
 11
941.8905521461427
 21
403.259589342919
 31
0.0
  0
LINE
  5
343
330
22
100
AcDbEntity
  8
_2-7_ビス
  6
Continuous
 62
     7
100
AcDbLine
 10
941.8905521461427
 20
403.259589342919
 30
0.0
 11
941.9225744244959
 21
403.2785036636972
 31
0.0
  0
LINE
  5
344
330
22
100
AcDbEntity
  8
_2-7_ビス
  6
Continuous
 62
     7
100
AcDbLine
 10
941.9225744244959
 20
403.2785036636972
 30
0.0
 11
941.9511227721432
 21
403.3032440529285
 31
0.0
  0
LINE
  5
345
330
22
100
AcDbEntity
  8
_2-7_ビス
  6
Continuous
 62
     7
100
AcDbLine
 10
941.9511227721432
 20
403.3032440529285
 30
0.0
 11
941.975329761988
 21
403.3330587864057
 31
0.0
  0
LINE
  5
346
330
22
100
AcDbEntity
  8
_2-7_ビス
  6
Continuous
 62
     7
100
AcDbLine
 10
941.975329761988
 20
403.3330587864057
 30
0.0
 11
941.9944598768934
 21
403.367041958539
 31
0.0
  0
LINE
  5
347
330
22
100
AcDbEntity
  8
_2-7_ビス
  6
Continuous
 62
     7
100
AcDbLine
 10
941.9944598768934
 20
403.367041958539
 30
0.0
 11
942.0079318579972
 21
403.4041610078392
 31
0.0
  0
LINE
  5
348
330
22
100
AcDbEntity
  8
_2-7_ビス
  6
Continuous
 62
     7
100
AcDbLine
 10
942.0079318579972
 20
403.4041610078392
 30
0.0
 11
942.0153363659721
 21
403.4432880907768
 31
0.0
  0
LINE
  5
349
330
22
100
AcDbEntity
  8
_2-7_ビス
  6
Continuous
 62
     7
100
AcDbLine
 10
942.0153363659721
 20
403.4432880907768
 30
0.0
 11
942.0164484185892
 21
403.4832343507359
 31
0.0
  0
LINE
  5
34A
330
22
100
AcDbEntity
  8
_2-7_ビス
  6
Continuous
 62
     7
100
AcDbLine
 10
942.0164484185892
 20
403.4832343507359
 30
0.0
 11
942.0156186675283
 21
403.49444421356
 31
0.0
  0
LINE
  5
34B
330
22
100
AcDbEntity
  8
_2-7_ビス
  6
Continuous
 62
     7
100
AcDbLine
 10
941.7987493462332
 20
401.68040912696
 30
0.0
 11
941.7987493462332
 21
401.68040912696
 31
0.0
  0
LINE
  5
34C
330
22
100
AcDbEntity
  8
_2-7_ビス
  6
Continuous
 62
     7
100
AcDbLine
 10
941.7987493462332
 20
401.68040912696
 30
0.0
 11
941.8332725745683
 21
401.6929226772189
 31
0.0
  0
LINE
  5
34D
330
22
100
AcDbEntity
  8
_2-7_ビス
  6
Continuous
 62
     7
100
AcDbLine
 10
941.8332725745683
 20
401.6929226772189
 30
0.0
 11
941.8652948529214
 21
401.7118369979971
 31
0.0
  0
LINE
  5
34E
330
22
100
AcDbEntity
  8
_2-7_ビス
  6
Continuous
 62
     7
100
AcDbLine
 10
941.8652948529214
 20
401.7118369979971
 30
0.0
 11
941.893843200569
 21
401.7365773872284
 31
0.0
  0
LINE
  5
34F
330
22
100
AcDbEntity
  8
_2-7_ビス
  6
Continuous
 62
     7
100
AcDbLine
 10
941.893843200569
 20
401.7365773872284
 30
0.0
 11
941.9180501904138
 21
401.7663921207057
 31
0.0
  0
LINE
  5
350
330
22
100
AcDbEntity
  8
_2-7_ビス
  6
Continuous
 62
     7
100
AcDbLine
 10
941.9180501904138
 20
401.7663921207057
 30
0.0
 11
941.9371803053188
 21
401.800375292839
 31
0.0
  0
LINE
  5
351
330
22
100
AcDbEntity
  8
_2-7_ビス
  6
Continuous
 62
     7
100
AcDbLine
 10
941.9371803053188
 20
401.800375292839
 30
0.0
 11
941.950652286423
 21
401.8374943421393
 31
0.0
  0
LINE
  5
352
330
22
100
AcDbEntity
  8
_2-7_ビス
  6
Continuous
 62
     7
100
AcDbLine
 10
941.950652286423
 20
401.8374943421393
 30
0.0
 11
941.9580567943976
 21
401.8766214250769
 31
0.0
  0
LINE
  5
353
330
22
100
AcDbEntity
  8
_2-7_ビス
  6
Continuous
 62
     7
100
AcDbLine
 10
941.9580567943976
 20
401.8766214250769
 30
0.0
 11
941.9591688470147
 21
401.9165676850359
 31
0.0
  0
LINE
  5
354
330
22
100
AcDbEntity
  8
_2-7_ビス
  6
Continuous
 62
     7
100
AcDbLine
 10
941.9591688470147
 20
401.9165676850359
 30
0.0
 11
941.9583390959541
 21
401.9277775478599
 31
0.0
  0
LINE
  5
355
330
22
100
AcDbEntity
  8
_2-7_ビス
  6
Continuous
 62
     7
100
AcDbLine
 10
941.8560289178076
 20
398.5470757955599
 30
0.0
 11
941.8560289178076
 21
398.5470757955599
 31
0.0
  0
LINE
  5
356
330
22
100
AcDbEntity
  8
_2-7_ビス
  6
Continuous
 62
     7
100
AcDbLine
 10
941.8560289178076
 20
398.5470757955599
 30
0.0
 11
941.8905521461427
 21
398.5595893458188
 31
0.0
  0
LINE
  5
357
330
22
100
AcDbEntity
  8
_2-7_ビス
  6
Continuous
 62
     7
100
AcDbLine
 10
941.8905521461427
 20
398.5595893458188
 30
0.0
 11
941.9225744244959
 21
398.5785036665969
 31
0.0
  0
LINE
  5
358
330
22
100
AcDbEntity
  8
_2-7_ビス
  6
Continuous
 62
     7
100
AcDbLine
 10
941.9225744244959
 20
398.5785036665969
 30
0.0
 11
941.9511227721432
 21
398.6032440558285
 31
0.0
  0
LINE
  5
359
330
22
100
AcDbEntity
  8
_2-7_ビス
  6
Continuous
 62
     7
100
AcDbLine
 10
941.9511227721432
 20
398.6032440558285
 30
0.0
 11
941.975329761988
 21
398.6330587893057
 31
0.0
  0
LINE
  5
35A
330
22
100
AcDbEntity
  8
_2-7_ビス
  6
Continuous
 62
     7
100
AcDbLine
 10
941.975329761988
 20
398.6330587893057
 30
0.0
 11
941.9944598768934
 21
398.6670419614389
 31
0.0
  0
LINE
  5
35B
330
22
100
AcDbEntity
  8
_2-7_ビス
  6
Continuous
 62
     7
100
AcDbLine
 10
941.9944598768934
 20
398.6670419614389
 30
0.0
 11
942.0079318579972
 21
398.7041610107392
 31
0.0
  0
LINE
  5
35C
330
22
100
AcDbEntity
  8
_2-7_ビス
  6
Continuous
 62
     7
100
AcDbLine
 10
942.0079318579972
 20
398.7041610107392
 30
0.0
 11
942.0153363659721
 21
398.7432880936768
 31
0.0
  0
LINE
  5
35D
330
22
100
AcDbEntity
  8
_2-7_ビス
  6
Continuous
 62
     7
100
AcDbLine
 10
942.0153363659721
 20
398.7432880936768
 30
0.0
 11
942.0164484185892
 21
398.7832343536358
 31
0.0
  0
LINE
  5
35E
330
22
100
AcDbEntity
  8
_2-7_ビス
  6
Continuous
 62
     7
100
AcDbLine
 10
942.0164484185892
 20
398.7832343536358
 30
0.0
 11
942.0156186675283
 21
398.79444421646
 31
0.0
  0
LINE
  5
35F
330
22
100
AcDbEntity
  8
_2-7_ビス
  6
Continuous
 62
     7
100
AcDbLine
 10
941.8237488667118
 20
396.9804091298598
 30
0.0
 11
941.8237488667118
 21
396.9804091298598
 31
0.0
  0
LINE
  5
360
330
22
100
AcDbEntity
  8
_2-7_ビス
  6
Continuous
 62
     7
100
AcDbLine
 10
941.8237488667118
 20
396.9804091298598
 30
0.0
 11
941.8582720950466
 21
396.9929226801188
 31
0.0
  0
LINE
  5
361
330
22
100
AcDbEntity
  8
_2-7_ビス
  6
Continuous
 62
     7
100
AcDbLine
 10
941.8582720950466
 20
396.9929226801188
 30
0.0
 11
941.8902943733998
 21
397.011837000897
 31
0.0
  0
LINE
  5
362
330
22
100
AcDbEntity
  8
_2-7_ビス
  6
Continuous
 62
     7
100
AcDbLine
 10
941.8902943733998
 20
397.011837000897
 30
0.0
 11
941.9188427210476
 21
397.0365773901284
 31
0.0
  0
LINE
  5
363
330
22
100
AcDbEntity
  8
_2-7_ビス
  6
Continuous
 62
     7
100
AcDbLine
 10
941.9188427210476
 20
397.0365773901284
 30
0.0
 11
941.9430497108924
 21
397.0663921236056
 31
0.0
  0
LINE
  5
364
330
22
100
AcDbEntity
  8
_2-7_ビス
  6
Continuous
 62
     7
100
AcDbLine
 10
941.9430497108924
 20
397.0663921236056
 30
0.0
 11
941.9621798257974
 21
397.1003752957389
 31
0.0
  0
LINE
  5
365
330
22
100
AcDbEntity
  8
_2-7_ビス
  6
Continuous
 62
     7
100
AcDbLine
 10
941.9621798257974
 20
397.1003752957389
 30
0.0
 11
941.9756518069014
 21
397.1374943450392
 31
0.0
  0
LINE
  5
366
330
22
100
AcDbEntity
  8
_2-7_ビス
  6
Continuous
 62
     7
100
AcDbLine
 10
941.9756518069014
 20
397.1374943450392
 30
0.0
 11
941.9830563148765
 21
397.1766214279768
 31
0.0
  0
LINE
  5
367
330
22
100
AcDbEntity
  8
_2-7_ビス
  6
Continuous
 62
     7
100
AcDbLine
 10
941.9830563148765
 20
397.1766214279768
 30
0.0
 11
941.9841683674931
 21
397.2165676879357
 31
0.0
  0
LINE
  5
368
330
22
100
AcDbEntity
  8
_2-7_ビス
  6
Continuous
 62
     7
100
AcDbLine
 10
941.9841683674931
 20
397.2165676879357
 30
0.0
 11
941.9833386164324
 21
397.2277775507598
 31
0.0
  0
LINE
  5
369
330
22
100
AcDbEntity
  8
_2-7_ビス
  6
Continuous
 62
     7
100
AcDbLine
 10
941.7916459139044
 20
395.4137424641598
 30
0.0
 11
941.7916459139044
 21
395.4137424641598
 31
0.0
  0
LINE
  5
36A
330
22
100
AcDbEntity
  8
_2-7_ビス
  6
Continuous
 62
     7
100
AcDbLine
 10
941.7916459139044
 20
395.4137424641598
 30
0.0
 11
941.8261691422397
 21
395.4262560144188
 31
0.0
  0
LINE
  5
36B
330
22
100
AcDbEntity
  8
_2-7_ビス
  6
Continuous
 62
     7
100
AcDbLine
 10
941.8261691422397
 20
395.4262560144188
 30
0.0
 11
941.8581914205928
 21
395.4451703351969
 31
0.0
  0
LINE
  5
36C
330
22
100
AcDbEntity
  8
_2-7_ビス
  6
Continuous
 62
     7
100
AcDbLine
 10
941.8581914205928
 20
395.4451703351969
 30
0.0
 11
941.8867397682403
 21
395.4699107244284
 31
0.0
  0
LINE
  5
36D
330
22
100
AcDbEntity
  8
_2-7_ビス
  6
Continuous
 62
     7
100
AcDbLine
 10
941.8867397682403
 20
395.4699107244284
 30
0.0
 11
941.9109467580851
 21
395.4997254579057
 31
0.0
  0
LINE
  5
36E
330
22
100
AcDbEntity
  8
_2-7_ビス
  6
Continuous
 62
     7
100
AcDbLine
 10
941.9109467580851
 20
395.4997254579057
 30
0.0
 11
941.93007687299
 21
395.5337086300389
 31
0.0
  0
LINE
  5
36F
330
22
100
AcDbEntity
  8
_2-7_ビス
  6
Continuous
 62
     7
100
AcDbLine
 10
941.93007687299
 20
395.5337086300389
 30
0.0
 11
941.9435488540944
 21
395.5708276793391
 31
0.0
  0
LINE
  5
370
330
22
100
AcDbEntity
  8
_2-7_ビス
  6
Continuous
 62
     7
100
AcDbLine
 10
941.9435488540944
 20
395.5708276793391
 30
0.0
 11
941.950953362069
 21
395.6099547622768
 31
0.0
  0
LINE
  5
371
330
22
100
AcDbEntity
  8
_2-7_ビス
  6
Continuous
 62
     7
100
AcDbLine
 10
941.950953362069
 20
395.6099547622768
 30
0.0
 11
941.9520654146859
 21
395.6499010222357
 31
0.0
  0
LINE
  5
372
330
22
100
AcDbEntity
  8
_2-7_ビス
  6
Continuous
 62
     7
100
AcDbLine
 10
941.9520654146859
 20
395.6499010222357
 30
0.0
 11
941.9512356636252
 21
395.6611108850597
 31
0.0
  0
LINE
  5
373
330
22
100
AcDbEntity
  8
_2-7_ビス
  6
Continuous
 62
     7
100
AcDbLine
 10
941.7693309828752
 20
393.8470757984608
 30
0.0
 11
941.7693309828752
 21
393.8470757984608
 31
0.0
  0
LINE
  5
374
330
22
100
AcDbEntity
  8
_2-7_ビス
  6
Continuous
 62
     7
100
AcDbLine
 10
941.7693309828752
 20
393.8470757984608
 30
0.0
 11
941.8038542112098
 21
393.85958934872
 31
0.0
  0
LINE
  5
375
330
22
100
AcDbEntity
  8
_2-7_ビス
  6
Continuous
 62
     7
100
AcDbLine
 10
941.8038542112098
 20
393.85958934872
 30
0.0
 11
941.8358764895632
 21
393.878503669498
 31
0.0
  0
LINE
  5
376
330
22
100
AcDbEntity
  8
_2-7_ビス
  6
Continuous
 62
     7
100
AcDbLine
 10
941.8358764895632
 20
393.878503669498
 30
0.0
 11
941.8644248372109
 21
393.9032440587295
 31
0.0
  0
LINE
  5
377
330
22
100
AcDbEntity
  8
_2-7_ビス
  6
Continuous
 62
     7
100
AcDbLine
 10
941.8644248372109
 20
393.9032440587295
 30
0.0
 11
941.8886318270557
 21
393.9330587922066
 31
0.0
  0
LINE
  5
378
330
22
100
AcDbEntity
  8
_2-7_ビス
  6
Continuous
 62
     7
100
AcDbLine
 10
941.8886318270557
 20
393.9330587922066
 30
0.0
 11
941.9077619419606
 21
393.9670419643399
 31
0.0
  0
LINE
  5
379
330
22
100
AcDbEntity
  8
_2-7_ビス
  6
Continuous
 62
     7
100
AcDbLine
 10
941.9077619419606
 20
393.9670419643399
 30
0.0
 11
941.9212339230647
 21
394.0041610136402
 31
0.0
  0
LINE
  5
37A
330
22
100
AcDbEntity
  8
_2-7_ビス
  6
Continuous
 62
     7
100
AcDbLine
 10
941.9212339230647
 20
394.0041610136402
 30
0.0
 11
941.9286384310394
 21
394.0432880965778
 31
0.0
  0
LINE
  5
37B
330
22
100
AcDbEntity
  8
_2-7_ビス
  6
Continuous
 62
     7
100
AcDbLine
 10
941.9286384310394
 20
394.0432880965778
 30
0.0
 11
941.9297504836563
 21
394.0832343565368
 31
0.0
  0
LINE
  5
37C
330
22
100
AcDbEntity
  8
_2-7_ビス
  6
Continuous
 62
     7
100
AcDbLine
 10
941.9297504836563
 20
394.0832343565368
 30
0.0
 11
941.9289207325956
 21
394.0944442193609
 31
0.0
  0
LINE
  5
37D
330
22
100
AcDbEntity
  8
_2-7_ビス
  6
Continuous
 62
     7
100
AcDbLine
 10
941.7785141678081
 20
392.2804091327608
 30
0.0
 11
941.7785141678081
 21
392.2804091327608
 31
0.0
  0
LINE
  5
37E
330
22
100
AcDbEntity
  8
_2-7_ビス
  6
Continuous
 62
     7
100
AcDbLine
 10
941.7785141678081
 20
392.2804091327608
 30
0.0
 11
941.8056601037473
 21
392.2855049516094
 31
0.0
  0
LINE
  5
37F
330
22
100
AcDbEntity
  8
_2-7_ビス
  6
Continuous
 62
     7
100
AcDbLine
 10
941.8056601037473
 20
392.2855049516094
 30
0.0
 11
941.8315887679789
 21
392.2957058234209
 31
0.0
  0
LINE
  5
380
330
22
100
AcDbEntity
  8
_2-7_ビス
  6
Continuous
 62
     7
100
AcDbLine
 10
941.8315887679789
 20
392.2957058234209
 30
0.0
 11
941.8555123311616
 21
392.3107017998673
 31
0.0
  0
LINE
  5
381
330
22
100
AcDbEntity
  8
_2-7_ビス
  6
Continuous
 62
     7
100
AcDbLine
 10
941.8555123311616
 20
392.3107017998673
 30
0.0
 11
941.8767038879332
 21
392.3300372357924
 31
0.0
  0
LINE
  5
382
330
22
100
AcDbEntity
  8
_2-7_ビス
  6
Continuous
 62
     7
100
AcDbLine
 10
941.8767038879332
 20
392.3300372357924
 30
0.0
 11
941.894519543565
 21
392.3531246337599
 31
0.0
  0
LINE
  5
383
330
22
100
AcDbEntity
  8
_2-7_ビス
  6
Continuous
 62
     7
100
AcDbLine
 10
941.894519543565
 20
392.3531246337599
 30
0.0
 11
941.9084179783762
 21
392.3792624948653
 31
0.0
  0
LINE
  5
384
330
22
100
AcDbEntity
  8
_2-7_ビス
  6
Continuous
 62
     7
100
AcDbLine
 10
941.9084179783762
 20
392.3792624948653
 30
0.0
 11
941.9179768954576
 21
392.4076566334255
 31
0.0
  0
LINE
  5
385
330
22
100
AcDbEntity
  8
_2-7_ビス
  6
Continuous
 62
     7
100
AcDbLine
 10
941.9179768954576
 20
392.4076566334255
 30
0.0
 11
941.9229058519507
 21
392.4374443079082
 31
0.0
  0
LINE
  5
386
330
22
100
AcDbEntity
  8
_2-7_ビス
  6
Continuous
 62
     7
100
AcDbLine
 10
941.9229058519507
 20
392.4374443079082
 30
0.0
 11
941.9230550840067
 21
392.4677204348977
 31
0.0
  0
LINE
  5
387
330
22
100
AcDbEntity
  8
_2-7_ビス
  6
Continuous
 62
     7
100
AcDbLine
 10
941.9230550840067
 20
392.4677204348977
 30
0.0
 11
941.9184200572852
 21
392.4975650895957
 31
0.0
  0
LINE
  5
388
330
22
100
AcDbEntity
  8
_2-7_ビス
  6
Continuous
 62
     7
100
AcDbLine
 10
941.9184200572852
 20
392.4975650895957
 30
0.0
 11
941.9091416047272
 21
392.5260714572717
 31
0.0
  0
LINE
  5
389
330
22
100
AcDbEntity
  8
_2-7_ビス
  6
Continuous
 62
     7
100
AcDbLine
 10
941.9091416047272
 20
392.5260714572717
 30
0.0
 11
941.8955016474194
 21
392.5523733863682
 31
0.0
  0
LINE
  5
38A
330
22
100
AcDbEntity
  8
_2-7_ビス
  6
Continuous
 62
     7
100
AcDbLine
 10
941.8955016474194
 20
392.5523733863682
 30
0.0
 11
941.8954181536623
 21
392.55250587463
 31
0.0
  0
LINE
  5
38B
330
22
100
AcDbEntity
  8
_2-7_ビス
  6
Continuous
 62
     7
100
AcDbLine
 10
941.4754054178086
 20
400.1137424612603
 30
0.0
 11
941.4754054178086
 21
400.1137424612603
 31
0.0
  0
LINE
  5
38C
330
22
100
AcDbEntity
  8
_2-7_ビス
  6
Continuous
 62
     7
100
AcDbLine
 10
941.4754054178086
 20
400.1137424612603
 30
0.0
 11
941.5597312486022
 21
400.126002417908
 31
0.0
  0
LINE
  5
38D
330
22
100
AcDbEntity
  8
_2-7_ビス
  6
Continuous
 62
     7
100
AcDbLine
 10
941.5597312486022
 20
400.126002417908
 30
0.0
 11
941.6408395700607
 21
400.1541748846151
 31
0.0
  0
LINE
  5
38E
330
22
100
AcDbEntity
  8
_2-7_ビス
  6
Continuous
 62
     7
100
AcDbLine
 10
941.6408395700607
 20
400.1541748846151
 30
0.0
 11
941.7162659468788
 21
400.1974038552366
 31
0.0
  0
LINE
  5
38F
330
22
100
AcDbEntity
  8
_2-7_ビス
  6
Continuous
 62
     7
100
AcDbLine
 10
941.7162659468788
 20
400.1974038552366
 30
0.0
 11
941.7837185867647
 21
400.2543758393751
 31
0.0
  0
LINE
  5
390
330
22
100
AcDbEntity
  8
_2-7_ビス
  6
Continuous
 62
     7
100
AcDbLine
 10
941.7837185867647
 20
400.2543758393751
 30
0.0
 11
941.841147975388
 21
400.3233597721218
 31
0.0
  0
LINE
  5
391
330
22
100
AcDbEntity
  8
_2-7_ビス
  6
Continuous
 62
     7
100
AcDbLine
 10
941.841147975388
 20
400.3233597721218
 30
0.0
 11
941.8868091498362
 21
400.4022596115877
 31
0.0
  0
LINE
  5
392
330
22
100
AcDbEntity
  8
_2-7_ビス
  6
Continuous
 62
     7
100
AcDbLine
 10
941.8868091498362
 20
400.4022596115877
 30
0.0
 11
941.9193147184294
 21
400.4886780260759
 31
0.0
  0
LINE
  5
393
330
22
100
AcDbEntity
  8
_2-7_ビス
  6
Continuous
 62
     7
100
AcDbLine
 10
941.9193147184294
 20
400.4886780260759
 30
0.0
 11
941.9376770159143
 21
400.579989235792
 31
0.0
  0
LINE
  5
394
330
22
100
AcDbEntity
  8
_2-7_ビス
  6
Continuous
 62
     7
100
AcDbLine
 10
941.9376770159143
 20
400.579989235792
 30
0.0
 11
941.9413381131743
 21
400.6734187958346
 31
0.0
  0
LINE
  5
395
330
22
100
AcDbEntity
  8
_2-7_ビス
  6
Continuous
 62
     7
100
AcDbLine
 10
941.9413381131743
 20
400.6734187958346
 30
0.0
 11
941.9301867696209
 21
400.7661278962991
 31
0.0
  0
LINE
  5
396
330
22
100
AcDbEntity
  8
_2-7_ビス
  6
Continuous
 62
     7
100
AcDbLine
 10
941.9301867696209
 20
400.7661278962991
 30
0.0
 11
941.9045618131853
 21
400.8552996180813
 31
0.0
  0
LINE
  5
397
330
22
100
AcDbEntity
  8
_2-7_ビス
  6
Continuous
 62
     7
100
AcDbLine
 10
941.9045618131853
 20
400.8552996180813
 30
0.0
 11
941.8652418452019
 21
400.9382245235377
 31
0.0
  0
LINE
  5
398
330
22
100
AcDbEntity
  8
_2-7_ビス
  6
Continuous
 62
     7
100
AcDbLine
 10
941.8652418452019
 20
400.9382245235377
 30
0.0
 11
941.8134215830015
 21
401.0123829813783
 31
0.0
  0
LINE
  5
399
330
22
100
AcDbEntity
  8
_2-7_ビス
  6
Continuous
 62
     7
100
AcDbLine
 10
941.8134215830015
 20
401.0123829813783
 30
0.0
 11
941.7506755590284
 21
401.0755217243873
 31
0.0
  0
LINE
  5
39A
330
22
100
AcDbEntity
  8
_2-7_ビス
  6
Continuous
 62
     7
100
AcDbLine
 10
941.7506755590284
 20
401.0755217243873
 30
0.0
 11
941.6789102794696
 21
401.1257223138082
 31
0.0
  0
LINE
  5
39B
330
22
100
AcDbEntity
  8
_2-7_ビス
  6
Continuous
 62
     7
100
AcDbLine
 10
941.6789102794696
 20
401.1257223138082
 30
0.0
 11
941.6003062960305
 21
401.1614594301343
 31
0.0
  0
LINE
  5
39C
330
22
100
AcDbEntity
  8
_2-7_ビス
  6
Continuous
 62
     7
100
AcDbLine
 10
941.6003062960305
 20
401.1614594301343
 30
0.0
 11
941.5172519509713
 21
401.1816472191698
 31
0.0
  0
LINE
  5
39D
330
22
100
AcDbEntity
  8
_2-7_ビス
  6
Continuous
 62
     7
100
AcDbLine
 10
941.5172519509713
 20
401.1816472191698
 30
0.0
 11
941.4754054178086
 21
401.1856722851603
 31
0.0
  0
LINE
  5
39E
330
22
100
AcDbEntity
  8
_2-7_ビス
  6
Continuous
 62
     7
100
AcDbLine
 10
941.4754054178086
 20
407.9470757897606
 30
0.0
 11
941.4754054178086
 21
407.9470757897606
 31
0.0
  0
LINE
  5
39F
330
22
100
AcDbEntity
  8
_2-7_ビス
  6
Continuous
 62
     7
100
AcDbLine
 10
941.4754054178086
 20
407.9470757897606
 30
0.0
 11
941.5597312486022
 21
407.9593357464082
 31
0.0
  0
LINE
  5
3A0
330
22
100
AcDbEntity
  8
_2-7_ビス
  6
Continuous
 62
     7
100
AcDbLine
 10
941.5597312486022
 20
407.9593357464082
 30
0.0
 11
941.6408395700607
 21
407.9875082131153
 31
0.0
  0
LINE
  5
3A1
330
22
100
AcDbEntity
  8
_2-7_ビス
  6
Continuous
 62
     7
100
AcDbLine
 10
941.6408395700607
 20
407.9875082131153
 30
0.0
 11
941.7162659468788
 21
408.0307371837369
 31
0.0
  0
LINE
  5
3A2
330
22
100
AcDbEntity
  8
_2-7_ビス
  6
Continuous
 62
     7
100
AcDbLine
 10
941.7162659468788
 20
408.0307371837369
 30
0.0
 11
941.7837185867647
 21
408.0877091678753
 31
0.0
  0
LINE
  5
3A3
330
22
100
AcDbEntity
  8
_2-7_ビス
  6
Continuous
 62
     7
100
AcDbLine
 10
941.7837185867647
 20
408.0877091678753
 30
0.0
 11
941.841147975388
 21
408.156693100622
 31
0.0
  0
LINE
  5
3A4
330
22
100
AcDbEntity
  8
_2-7_ビス
  6
Continuous
 62
     7
100
AcDbLine
 10
941.841147975388
 20
408.156693100622
 30
0.0
 11
941.8868091498362
 21
408.2355929400879
 31
0.0
  0
LINE
  5
3A5
330
22
100
AcDbEntity
  8
_2-7_ビス
  6
Continuous
 62
     7
100
AcDbLine
 10
941.8868091498362
 20
408.2355929400879
 30
0.0
 11
941.9193147184294
 21
408.3220113545761
 31
0.0
  0
LINE
  5
3A6
330
22
100
AcDbEntity
  8
_2-7_ビス
  6
Continuous
 62
     7
100
AcDbLine
 10
941.9193147184294
 20
408.3220113545761
 30
0.0
 11
941.9376770159143
 21
408.4133225642922
 31
0.0
  0
LINE
  5
3A7
330
22
100
AcDbEntity
  8
_2-7_ビス
  6
Continuous
 62
     7
100
AcDbLine
 10
941.9376770159143
 20
408.4133225642922
 30
0.0
 11
941.9413381131743
 21
408.5067521243348
 31
0.0
  0
LINE
  5
3A8
330
22
100
AcDbEntity
  8
_2-7_ビス
  6
Continuous
 62
     7
100
AcDbLine
 10
941.9413381131743
 20
408.5067521243348
 30
0.0
 11
941.9301867696209
 21
408.5994612247993
 31
0.0
  0
LINE
  5
3A9
330
22
100
AcDbEntity
  8
_2-7_ビス
  6
Continuous
 62
     7
100
AcDbLine
 10
941.9301867696209
 20
408.5994612247993
 30
0.0
 11
941.9045618131853
 21
408.6886329465817
 31
0.0
  0
LINE
  5
3AA
330
22
100
AcDbEntity
  8
_2-7_ビス
  6
Continuous
 62
     7
100
AcDbLine
 10
941.9045618131853
 20
408.6886329465817
 30
0.0
 11
941.8652418452019
 21
408.7715578520379
 31
0.0
  0
LINE
  5
3AB
330
22
100
AcDbEntity
  8
_2-7_ビス
  6
Continuous
 62
     7
100
AcDbLine
 10
941.8652418452019
 20
408.7715578520379
 30
0.0
 11
941.8134215830015
 21
408.8457163098785
 31
0.0
  0
LINE
  5
3AC
330
22
100
AcDbEntity
  8
_2-7_ビス
  6
Continuous
 62
     7
100
AcDbLine
 10
941.8134215830015
 20
408.8457163098785
 30
0.0
 11
941.7506755590284
 21
408.9088550528874
 31
0.0
  0
LINE
  5
3AD
330
22
100
AcDbEntity
  8
_2-7_ビス
  6
Continuous
 62
     7
100
AcDbLine
 10
941.7506755590284
 20
408.9088550528874
 30
0.0
 11
941.6789102794696
 21
408.9590556423084
 31
0.0
  0
LINE
  5
3AE
330
22
100
AcDbEntity
  8
_2-7_ビス
  6
Continuous
 62
     7
100
AcDbLine
 10
941.6789102794696
 20
408.9590556423084
 30
0.0
 11
941.6003062960305
 21
408.9947927586345
 31
0.0
  0
LINE
  5
3AF
330
22
100
AcDbEntity
  8
_2-7_ビス
  6
Continuous
 62
     7
100
AcDbLine
 10
941.6003062960305
 20
408.9947927586345
 30
0.0
 11
941.5172519509713
 21
409.0149805476699
 31
0.0
  0
LINE
  5
3B0
330
22
100
AcDbEntity
  8
_2-7_ビス
  6
Continuous
 62
     7
100
AcDbLine
 10
941.5172519509713
 20
409.0149805476699
 30
0.0
 11
941.4754054178086
 21
409.0190056136605
 31
0.0
  0
LINE
  5
3B1
330
22
100
AcDbEntity
  8
_2-7_ビス
  6
Continuous
 62
     7
100
AcDbLine
 10
941.8508975616967
 20
389.5593565028601
 30
0.0
 11
941.8508975616967
 21
389.5593565028601
 31
0.0
  0
LINE
  5
3B2
330
22
100
AcDbEntity
  8
_2-7_ビス
  6
Continuous
 62
     7
100
AcDbLine
 10
941.8508975616967
 20
389.5593565028601
 30
0.0
 11
941.8454936372707
 21
389.6986121247753
 31
0.0
  0
LINE
  5
3B3
330
22
100
AcDbEntity
  8
_2-7_ビス
  6
Continuous
 62
     7
100
AcDbLine
 10
941.8454936372707
 20
389.6986121247753
 30
0.0
 11
941.8181769492512
 21
389.8347204698581
 31
0.0
  0
LINE
  5
3B4
330
22
100
AcDbEntity
  8
_2-7_ビス
  6
Continuous
 62
     7
100
AcDbLine
 10
941.8181769492512
 20
389.8347204698581
 30
0.0
 11
941.8006222286088
 21
389.88918106406
 31
0.0
  0
LINE
  5
3B5
330
22
100
AcDbEntity
  8
_2-7_ビス
  6
Continuous
 62
     7
100
AcDbLine
 10
942.9418031678064
 20
387.5600290453077
 30
0.0
 11
942.9418031678064
 21
387.5600290453077
 31
0.0
  0
LINE
  5
3B6
330
22
100
AcDbEntity
  8
_2-7_ビス
  6
Continuous
 62
     7
100
AcDbLine
 10
942.9418031678064
 20
387.5600290453077
 30
0.0
 11
942.9389813429736
 21
387.6158692398517
 31
0.0
  0
LINE
  5
3B7
330
22
100
AcDbEntity
  8
_2-7_ビス
  6
Continuous
 62
     7
100
AcDbLine
 10
942.9389813429736
 20
387.6158692398517
 30
0.0
 11
942.9273826554847
 21
387.6703223777072
 31
0.0
  0
LINE
  5
3B8
330
22
100
AcDbEntity
  8
_2-7_ビス
  6
Continuous
 62
     7
100
AcDbLine
 10
942.9273826554847
 20
387.6703223777072
 30
0.0
 11
942.9073595255902
 21
387.7217339278351
 31
0.0
  0
LINE
  5
3B9
330
22
100
AcDbEntity
  8
_2-7_ビス
  6
Continuous
 62
     7
100
AcDbLine
 10
942.9073595255902
 20
387.7217339278351
 30
0.0
 11
942.8795203459593
 21
387.7685417763005
 31
0.0
  0
LINE
  5
3BA
330
22
100
AcDbEntity
  8
_2-7_ビス
  6
Continuous
 62
     7
100
AcDbLine
 10
942.8795203459593
 20
387.7685417763005
 30
0.0
 11
942.8447109959778
 21
387.8093236903134
 31
0.0
  0
LINE
  5
3BB
330
22
100
AcDbEntity
  8
_2-7_ビス
  6
Continuous
 62
     7
100
AcDbLine
 10
942.8447109959778
 20
387.8093236903134
 30
0.0
 11
942.803989140131
 21
387.8428405320532
 31
0.0
  0
LINE
  5
3BC
330
22
100
AcDbEntity
  8
_2-7_ビス
  6
Continuous
 62
     7
100
AcDbLine
 10
942.803989140131
 20
387.8428405320532
 30
0.0
 11
942.7585920914015
 21
387.8680739092441
 31
0.0
  0
LINE
  5
3BD
330
22
100
AcDbEntity
  8
_2-7_ビス
  6
Continuous
 62
     7
100
AcDbLine
 10
942.7585920914015
 20
387.8680739092441
 30
0.0
 11
942.7098992161441
 21
387.8842571184888
 31
0.0
  0
LINE
  5
3BE
330
22
100
AcDbEntity
  8
_2-7_ビス
  6
Continuous
 62
     7
100
AcDbLine
 10
942.7098992161441
 20
387.8842571184888
 30
0.0
 11
942.6593900227331
 21
387.8908984411634
 31
0.0
  0
LINE
  5
3BF
330
22
100
AcDbEntity
  8
_2-7_ビス
  6
Continuous
 62
     7
100
AcDbLine
 10
942.6593900227331
 20
387.8908984411634
 30
0.0
 11
942.6085992074519
 21
387.8877960840392
 31
0.0
  0
LINE
  5
3C0
330
22
100
AcDbEntity
  8
_2-7_ビス
  6
Continuous
 62
     7
100
AcDbLine
 10
942.6085992074519
 20
387.8877960840392
 30
0.0
 11
942.5590700235208
 21
387.8750443106675
 31
0.0
  0
LINE
  5
3C1
330
22
100
AcDbEntity
  8
_2-7_ビス
  6
Continuous
 62
     7
100
AcDbLine
 10
942.5590700235208
 20
387.8750443106675
 30
0.0
 11
942.512307390131
 21
387.8530305772296
 31
0.0
  0
LINE
  5
3C2
330
22
100
AcDbEntity
  8
_2-7_ビス
  6
Continuous
 62
     7
100
AcDbLine
 10
942.512307390131
 20
387.8530305772296
 30
0.0
 11
942.4697321662344
 21
387.8224237598765
 31
0.0
  0
LINE
  5
3C3
330
22
100
AcDbEntity
  8
_2-7_ビス
  6
Continuous
 62
     7
100
AcDbLine
 10
942.4697321662344
 20
387.8224237598765
 30
0.0
 11
942.4326379784659
 21
387.7841538312657
 31
0.0
  0
LINE
  5
3C4
330
22
100
AcDbEntity
  8
_2-7_ビス
  6
Continuous
 62
     7
100
AcDbLine
 10
942.4326379784659
 20
387.7841538312657
 30
0.0
 11
942.4021519149496
 21
387.7393836038122
 31
0.0
  0
LINE
  5
3C5
330
22
100
AcDbEntity
  8
_2-7_ビス
  6
Continuous
 62
     7
100
AcDbLine
 10
942.4021519149496
 20
387.7393836038122
 30
0.0
 11
942.3792002792993
 21
387.6894733982227
 31
0.0
  0
LINE
  5
3C6
330
22
100
AcDbEntity
  8
_2-7_ビス
  6
Continuous
 62
     7
100
AcDbLine
 10
942.3792002792993
 20
387.6894733982227
 30
0.0
 11
942.3644804453493
 21
387.6359397108382
 31
0.0
  0
LINE
  5
3C7
330
22
100
AcDbEntity
  8
_2-7_ビス
  6
Continuous
 62
     7
100
AcDbLine
 10
942.3644804453493
 20
387.6359397108382
 30
0.0
 11
942.3584396678064
 21
387.5804091356604
 31
0.0
  0
LINE
  5
3C8
330
22
100
AcDbEntity
  8
_2-7_ビス
  6
Continuous
 62
     7
100
AcDbLine
 10
942.3584396678064
 20
387.5804091356604
 30
0.0
 11
942.3584396678064
 21
387.5804091356604
 31
0.0
  0
LINE
  5
3C9
330
22
100
AcDbEntity
  8
_2-7_ビス
  6
Continuous
 62
     7
100
AcDbLine
 10
946.7691512938099
 20
433.6435670050607
 30
0.0
 11
942.5191496442121
 21
433.6435670050607
 31
0.0
  0
LINE
  5
3CA
330
22
100
AcDbEntity
  8
_2-7_ビス
  6
Continuous
 62
     7
100
AcDbLine
 10
939.6441463450141
 20
436.5185703042587
 30
0.0
 11
942.5191496442121
 21
433.6435670050607
 31
0.0
  0
LINE
  5
3CB
330
22
100
AcDbEntity
  8
_2-7_ビス
  6
Continuous
 62
     7
100
AcDbLine
 10
949.644154593008
 20
436.5185703042587
 30
0.0
 11
939.6441463450141
 21
436.5185703042587
 31
0.0
  0
LINE
  5
3CC
330
22
100
AcDbEntity
  8
_2-7_ビス
  6
Continuous
 62
     7
100
AcDbLine
 10
939.6441463450141
 20
437.0185966978399
 30
0.0
 11
939.6441463450141
 21
436.5185703042587
 31
0.0
  0
LINE
  5
3CD
330
22
100
AcDbEntity
  8
_2-7_ビス
  6
Continuous
 62
     7
100
AcDbLine
 10
949.644154593008
 20
436.5185703042587
 30
0.0
 11
949.644154593008
 21
437.0185966978399
 31
0.0
  0
LINE
  5
3CE
330
22
100
AcDbEntity
  8
_2-7_ビス
  6
Continuous
 62
     7
100
AcDbLine
 10
949.644154593008
 20
437.0185966978399
 30
0.0
 11
939.6441463450141
 21
437.0185966978399
 31
0.0
  0
LINE
  5
3CF
330
22
100
AcDbEntity
  8
_2-7_ビス
  6
Continuous
 62
     7
100
AcDbLine
 10
949.644154593008
 20
436.5185703042587
 30
0.0
 11
946.7691512938099
 21
433.6435670050607
 31
0.0
  0
ARC
  5
3D0
330
22
100
AcDbEntity
  8
_2-7_ビス
  6
DASHED3
 62
     7
100
AcDbCircle
 10
944.644150469011
 20
435.7541297162108
 30
0.0
 40
1.840317539266638
100
AcDbArc
 50
217.1175079345703
 51
322.8824768066406
  0
LINE
  5
3D1
330
22
100
AcDbEntity
  8
_2-7_ビス
  6
DASHED3
 62
     7
100
AcDbLine
 10
947.1941663051612
 20
436.5185703042587
 30
0.0
 11
946.1116418251132
 21
434.6435455602753
 31
0.0
  0
LINE
  5
3D2
330
22
100
AcDbEntity
  8
_2-7_ビス
  6
DASHED3
 62
     7
100
AcDbLine
 10
942.0941717488348
 20
436.5185703042587
 30
0.0
 11
943.1766962288829
 21
434.6435455602753
 31
0.0
  0
LINE
  5
3D3
330
22
100
AcDbEntity
  8
_2-7_ビス
  6
DASHED3
 62
     7
100
AcDbLine
 10
942.0941717488348
 20
436.5185703042587
 30
0.0
 11
942.0941717488348
 21
437.0185966978399
 31
0.0
  0
LINE
  5
3D4
330
22
100
AcDbEntity
  8
_2-7_ビス
  6
DASHED3
 62
     7
100
AcDbLine
 10
947.1941663051612
 20
436.5185703042587
 30
0.0
 11
947.1941663051612
 21
437.0185966978399
 31
0.0
  0
LINE
  5
3D5
330
22
100
AcDbEntity
  8
_2-7_ビス
  6
Continuous
 62
     7
100
AcDbLine
 10
946.6441504690092
 20
433.6435670050607
 30
0.0
 11
946.6441504690092
 21
428.6435670050607
 31
0.0
  0
LINE
  5
3D6
330
22
100
AcDbEntity
  8
_2-7_ビス
  6
Continuous
 62
     7
100
AcDbLine
 10
942.6441504690105
 20
433.6435670050607
 30
0.0
 11
942.6441504690084
 21
428.6435670050607
 31
0.0
  0
POINT
  5
3D7
330
22
100
AcDbEntity
  8
_2-B_DIM
 62
     1
100
AcDbPoint
 10
971.294470033696
 20
392.4487850775942
 30
0.0
  0
LINE
  5
3D8
330
22
100
AcDbEntity
  8
_2-B_DIM
  6
Continuous
 62
     7
100
AcDbLine
 10
971.294470033696
 20
418.4874904144683
 30
0.0
 11
971.294470033696
 21
392.4487850775942
 31
0.0
  0
TEXT
  5
3D9
330
22
100
AcDbEntity
  8
_2-B_DIM
 62
     7
100
AcDbText
 10
973.3229738917229
 20
394.9487850775942
 30
0.0
 40
15.0
  1
40以上
100
AcDbText
  0
LINE
  5
3DA
330
22
100
AcDbEntity
  8
_2-4_OUT_LINE
  6
Continuous
 62
     2
100
AcDbLine
 10
1016.294470033696
 20
433.6435670050607
 30
0.0
 11
1016.294470033696
 21
438.6435670050608
 31
0.0
  0
LINE
  5
3DB
330
22
100
AcDbEntity
  8
_2-4_OUT_LINE
  6
Continuous
 62
     2
100
AcDbLine
 10
970.3183729718912
 20
438.6435670050608
 30
0.0
 11
1016.294470033696
 21
438.6435670050608
 31
0.0
  0
LINE
  5
3DC
330
22
100
AcDbEntity
  8
_2-4_OUT_LINE
  6
Continuous
 62
     2
100
AcDbLine
 10
1016.294470033696
 20
433.6435670050607
 30
0.0
 11
1362.698408641517
 21
433.6435670050607
 31
0.0
  0
LINE
  5
3DD
330
22
100
AcDbEntity
  8
_2-2_IN_LINE
  6
Continuous
 62
     7
100
AcDbLine
 10
862.6984086415166
 20
433.6435670050607
 30
0.0
 11
1016.294470033696
 21
433.6435670050607
 31
0.0
  0
LINE
  5
3DE
330
22
100
AcDbEntity
  8
_2-2_IN_LINE
  6
Continuous
 62
     7
100
AcDbLine
 10
1010.297337966764
 20
438.6435670050608
 30
0.0
 11
1010.315556754287
 21
438.7744719517425
 31
0.0
  0
LINE
  5
3DF
330
22
100
AcDbEntity
  8
_2-2_IN_LINE
  6
Continuous
 62
     7
100
AcDbLine
 10
1010.315556754287
 20
438.7744719517425
 30
0.0
 11
1010.348623533947
 21
438.9995458867613
 31
0.0
  0
LINE
  5
3E0
330
22
100
AcDbEntity
  8
_2-2_IN_LINE
  6
Continuous
 62
     7
100
AcDbLine
 10
1010.348623533947
 20
438.9995458867613
 30
0.0
 11
1010.386287749813
 21
439.2228857970192
 31
0.0
  0
LINE
  5
3E1
330
22
100
AcDbEntity
  8
_2-2_IN_LINE
  6
Continuous
 62
     7
100
AcDbLine
 10
1010.386287749813
 20
439.2228857970192
 30
0.0
 11
1010.431459171638
 21
439.4433941984906
 31
0.0
  0
LINE
  5
3E2
330
22
100
AcDbEntity
  8
_2-2_IN_LINE
  6
Continuous
 62
     7
100
AcDbLine
 10
1010.431459171638
 20
439.4433941984906
 30
0.0
 11
1010.487047569168
 21
439.6599736071496
 31
0.0
  0
LINE
  5
3E3
330
22
100
AcDbEntity
  8
_2-2_IN_LINE
  6
Continuous
 62
     7
100
AcDbLine
 10
1010.487047569168
 20
439.6599736071496
 30
0.0
 11
1010.555962712157
 21
439.8715265389685
 31
0.0
  0
LINE
  5
3E4
330
22
100
AcDbEntity
  8
_2-2_IN_LINE
  6
Continuous
 62
     7
100
AcDbLine
 10
1010.555962712157
 20
439.8715265389685
 30
0.0
 11
1010.60318641045
 21
439.9914916419609
 31
0.0
  0
LINE
  5
3E5
330
22
100
AcDbEntity
  8
_2-2_IN_LINE
  6
Continuous
 62
     7
100
AcDbLine
 10
1010.60318641045
 20
439.9914916419609
 30
0.0
 11
1010.644127471713
 21
440.0836084815503
 31
0.0
  0
LINE
  5
3E6
330
22
100
AcDbEntity
  8
_2-2_IN_LINE
  6
Continuous
 62
     7
100
AcDbLine
 10
1010.644127471713
 20
440.0836084815503
 30
0.0
 11
1010.722542644395
 21
440.2393227845643
 31
0.0
  0
LINE
  5
3E7
330
22
100
AcDbEntity
  8
_2-2_IN_LINE
  6
Continuous
 62
     7
100
AcDbLine
 10
1010.722542644395
 20
440.2393227845643
 30
0.0
 11
1010.809649658721
 21
440.391326387444
 31
0.0
  0
LINE
  5
3E8
330
22
100
AcDbEntity
  8
_2-2_IN_LINE
  6
Continuous
 62
     7
100
AcDbLine
 10
1010.809649658721
 20
440.391326387444
 30
0.0
 11
1010.904034647869
 21
440.5398789032441
 31
0.0
  0
LINE
  5
3E9
330
22
100
AcDbEntity
  8
_2-2_IN_LINE
  6
Continuous
 62
     7
100
AcDbLine
 10
1010.904034647869
 20
440.5398789032441
 30
0.0
 11
1011.004283745013
 21
440.6852399450169
 31
0.0
  0
LINE
  5
3EA
330
22
100
AcDbEntity
  8
_2-2_IN_LINE
  6
Continuous
 62
     7
100
AcDbLine
 10
1011.004283745013
 20
440.6852399450169
 30
0.0
 11
1011.108983083331
 21
440.8276691258132
 31
0.0
  0
LINE
  5
3EB
330
22
100
AcDbEntity
  8
_2-2_IN_LINE
  6
Continuous
 62
     7
100
AcDbLine
 10
1011.108983083331
 20
440.8276691258132
 30
0.0
 11
1011.171190663009
 21
440.9090369730168
 31
0.0
  0
LINE
  5
3EC
330
22
100
AcDbEntity
  8
_2-2_IN_LINE
  6
Continuous
 62
     7
100
AcDbLine
 10
1011.171190663009
 20
440.9090369730168
 30
0.0
 11
1011.245406936945
 21
441.0037205658208
 31
0.0
  0
LINE
  5
3ED
330
22
100
AcDbEntity
  8
_2-2_IN_LINE
  6
Continuous
 62
     7
100
AcDbLine
 10
1011.245406936945
 20
441.0037205658208
 30
0.0
 11
1011.375631877049
 21
441.1644393596819
 31
0.0
  0
LINE
  5
3EE
330
22
100
AcDbEntity
  8
_2-2_IN_LINE
  6
Continuous
 62
     7
100
AcDbLine
 10
1011.375631877049
 20
441.1644393596819
 30
0.0
 11
1011.508483696269
 21
441.3223061220722
 31
0.0
  0
LINE
  5
3EF
330
22
100
AcDbEntity
  8
_2-2_IN_LINE
  6
Continuous
 62
     7
100
AcDbLine
 10
1011.508483696269
 20
441.3223061220722
 30
0.0
 11
1011.643681834398
 21
441.4777266155377
 31
0.0
  0
LINE
  5
3F0
330
22
100
AcDbEntity
  8
_2-2_IN_LINE
  6
Continuous
 62
     7
100
AcDbLine
 10
1011.643681834398
 20
441.4777266155377
 30
0.0
 11
1011.780945731222
 21
441.6311066026267
 31
0.0
  0
LINE
  5
3F1
330
22
100
AcDbEntity
  8
_2-2_IN_LINE
  6
Continuous
 62
     7
100
AcDbLine
 10
1011.780945731222
 20
441.6311066026267
 30
0.0
 11
1011.91999482653
 21
441.7828518458808
 31
0.0
  0
LINE
  5
3F2
330
22
100
AcDbEntity
  8
_2-2_IN_LINE
  6
Continuous
 62
     7
100
AcDbLine
 10
1011.91999482653
 20
441.7828518458808
 30
0.0
 11
1012.001350724442
 21
441.8702749388879
 31
0.0
  0
LINE
  5
3F3
330
22
100
AcDbEntity
  8
_2-2_IN_LINE
  6
Continuous
 62
     7
100
AcDbLine
 10
1012.001350724442
 20
441.8702749388879
 30
0.0
 11
1012.086985797856
 21
441.9613451132866
 31
0.0
  0
LINE
  5
3F4
330
22
100
AcDbEntity
  8
_2-2_IN_LINE
  6
Continuous
 62
     7
100
AcDbLine
 10
1012.086985797856
 20
441.9613451132866
 30
0.0
 11
1012.236183156164
 21
442.1170468621202
 31
0.0
  0
LINE
  5
3F5
330
22
100
AcDbEntity
  8
_2-2_IN_LINE
  6
Continuous
 62
     7
100
AcDbLine
 10
1012.236183156164
 20
442.1170468621202
 30
0.0
 11
1012.387933369734
 21
442.2703928405192
 31
0.0
  0
LINE
  5
3F6
330
22
100
AcDbEntity
  8
_2-2_IN_LINE
  6
Continuous
 62
     7
100
AcDbLine
 10
1012.387933369734
 20
442.2703928405192
 30
0.0
 11
1012.542922449237
 21
442.4205804794385
 31
0.0
  0
LINE
  5
3F7
330
22
100
AcDbEntity
  8
_2-2_IN_LINE
  6
Continuous
 62
     7
100
AcDbLine
 10
1012.542922449237
 20
442.4205804794385
 30
0.0
 11
1012.701836405343
 21
442.5668072098373
 31
0.0
  0
LINE
  5
3F8
330
22
100
AcDbEntity
  8
_2-2_IN_LINE
  6
Continuous
 62
     7
100
AcDbLine
 10
1012.701836405343
 20
442.5668072098373
 30
0.0
 11
1012.865361248725
 21
442.7082704626652
 31
0.0
  0
LINE
  5
3F9
330
22
100
AcDbEntity
  8
_2-2_IN_LINE
  6
Continuous
 62
     7
100
AcDbLine
 10
1012.865361248725
 20
442.7082704626652
 30
0.0
 11
1012.962588690313
 21
442.787820269946
 31
0.0
  0
LINE
  5
3FA
330
22
100
AcDbEntity
  8
_2-2_IN_LINE
  6
Continuous
 62
     7
100
AcDbLine
 10
1012.962588690313
 20
442.787820269946
 30
0.0
 11
1013.050242389854
 21
442.8565456224421
 31
0.0
  0
LINE
  5
3FB
330
22
100
AcDbEntity
  8
_2-2_IN_LINE
  6
Continuous
 62
     7
100
AcDbLine
 10
1013.050242389854
 20
442.8565456224421
 30
0.0
 11
1013.204855489775
 21
442.9707583902407
 31
0.0
  0
LINE
  5
3FC
330
22
100
AcDbEntity
  8
_2-2_IN_LINE
  6
Continuous
 62
     7
100
AcDbLine
 10
1013.204855489775
 20
442.9707583902407
 30
0.0
 11
1013.363820632965
 21
443.0787310791723
 31
0.0
  0
LINE
  5
3FD
330
22
100
AcDbEntity
  8
_2-2_IN_LINE
  6
Continuous
 62
     7
100
AcDbLine
 10
1013.363820632965
 20
443.0787310791723
 30
0.0
 11
1013.527067290191
 21
443.1795063105985
 31
0.0
  0
LINE
  5
3FE
330
22
100
AcDbEntity
  8
_2-2_IN_LINE
  6
Continuous
 62
     7
100
AcDbLine
 10
1013.527067290191
 20
443.1795063105985
 30
0.0
 11
1013.694524932222
 21
443.2721267058858
 31
0.0
  0
LINE
  5
3FF
330
22
100
AcDbEntity
  8
_2-2_IN_LINE
  6
Continuous
 62
     7
100
AcDbLine
 10
1013.694524932222
 20
443.2721267058858
 30
0.0
 11
1013.866123029826
 21
443.3556348863957
 31
0.0
  0
LINE
  5
400
330
22
100
AcDbEntity
  8
_2-2_IN_LINE
  6
Continuous
 62
     7
100
AcDbLine
 10
1013.866123029826
 20
443.3556348863957
 30
0.0
 11
1013.967519290994
 21
443.399517157318
 31
0.0
  0
LINE
  5
401
330
22
100
AcDbEntity
  8
_2-2_IN_LINE
  6
Continuous
 62
     7
100
AcDbLine
 10
1013.967519290994
 20
443.399517157318
 30
0.0
 11
1014.081424783734
 21
443.444045870581
 31
0.0
  0
LINE
  5
402
330
22
100
AcDbEntity
  8
_2-2_IN_LINE
  6
Continuous
 62
     7
100
AcDbLine
 10
1014.081424783734
 20
443.444045870581
 30
0.0
 11
1014.281313241588
 21
443.5113564989936
 31
0.0
  0
LINE
  5
403
330
22
100
AcDbEntity
  8
_2-2_IN_LINE
  6
Continuous
 62
     7
100
AcDbLine
 10
1014.281313241588
 20
443.5113564989936
 30
0.0
 11
1014.485015340447
 21
443.5679600504935
 31
0.0
  0
LINE
  5
404
330
22
100
AcDbEntity
  8
_2-2_IN_LINE
  6
Continuous
 62
     7
100
AcDbLine
 10
1014.485015340447
 20
443.5679600504935
 30
0.0
 11
1014.691814417255
 21
443.6153349242229
 31
0.0
  0
LINE
  5
405
330
22
100
AcDbEntity
  8
_2-2_IN_LINE
  6
Continuous
 62
     7
100
AcDbLine
 10
1014.691814417255
 20
443.6153349242229
 30
0.0
 11
1014.900993808964
 21
443.6549595193336
 31
0.0
  0
LINE
  5
406
330
22
100
AcDbEntity
  8
_2-2_IN_LINE
  6
Continuous
 62
     7
100
AcDbLine
 10
1014.900993808964
 20
443.6549595193336
 30
0.0
 11
1015.11183685252
 21
443.6883122349676
 31
0.0
  0
LINE
  5
407
330
22
100
AcDbEntity
  8
_2-2_IN_LINE
  6
Continuous
 62
     7
100
AcDbLine
 10
1015.11183685252
 20
443.6883122349676
 30
0.0
 11
1015.23460570055
 21
443.705365601002
 31
0.0
  0
LINE
  5
408
330
22
100
AcDbEntity
  8
_2-2_IN_LINE
  6
Continuous
 62
     7
100
AcDbLine
 10
1015.23460570055
 20
443.705365601002
 30
0.0
 11
1015.383062670633
 21
443.7240826002701
 31
0.0
  0
LINE
  5
409
330
22
100
AcDbEntity
  8
_2-2_IN_LINE
  6
Continuous
 62
     7
100
AcDbLine
 10
1015.383062670633
 20
443.7240826002701
 30
0.0
 11
1015.639382935918
 21
443.7509893613586
 31
0.0
  0
LINE
  5
40A
330
22
100
AcDbEntity
  8
_2-2_IN_LINE
  6
Continuous
 62
     7
100
AcDbLine
 10
1015.639382935918
 20
443.7509893613586
 30
0.0
 11
1015.8957782645
 21
443.7698476086577
 31
0.0
  0
LINE
  5
40B
330
22
100
AcDbEntity
  8
_2-2_IN_LINE
  6
Continuous
 62
     7
100
AcDbLine
 10
1015.8957782645
 20
443.7698476086577
 30
0.0
 11
1016.15180610113
 21
443.7791936998453
 31
0.0
  0
LINE
  5
40C
330
22
100
AcDbEntity
  8
_2-2_IN_LINE
  6
Continuous
 62
     7
100
AcDbLine
 10
1016.15180610113
 20
443.7791936998453
 30
0.0
 11
1016.407023890564
 21
443.7775639925988
 31
0.0
  0
LINE
  5
40D
330
22
100
AcDbEntity
  8
_2-2_IN_LINE
  6
Continuous
 62
     7
100
AcDbLine
 10
1016.407023890564
 20
443.7775639925988
 30
0.0
 11
1016.660989077555
 21
443.7634948445954
 31
0.0
  0
LINE
  5
40E
330
22
100
AcDbEntity
  8
_2-2_IN_LINE
  6
Continuous
 62
     7
100
AcDbLine
 10
1016.660989077555
 20
443.7634948445954
 30
0.0
 11
1016.807540553791
 21
443.7490582358149
 31
0.0
  0
LINE
  5
40F
330
22
100
AcDbEntity
  8
_2-2_IN_LINE
  6
Continuous
 62
     7
100
AcDbLine
 10
1016.807540553791
 20
443.7490582358149
 30
0.0
 11
1016.914884745359
 21
443.7353684497296
 31
0.0
  0
LINE
  5
410
330
22
100
AcDbEntity
  8
_2-2_IN_LINE
  6
Continuous
 62
     7
100
AcDbLine
 10
1016.914884745359
 20
443.7353684497296
 30
0.0
 11
1017.099334806128
 21
443.7064088184891
 31
0.0
  0
LINE
  5
411
330
22
100
AcDbEntity
  8
_2-2_IN_LINE
  6
Continuous
 62
     7
100
AcDbLine
 10
1017.099334806128
 20
443.7064088184891
 30
0.0
 11
1017.283305663568
 21
443.67209333695
 31
0.0
  0
LINE
  5
412
330
22
100
AcDbEntity
  8
_2-2_IN_LINE
  6
Continuous
 62
     7
100
AcDbLine
 10
1017.283305663568
 20
443.67209333695
 30
0.0
 11
1017.467161699426
 21
443.6340785109226
 31
0.0
  0
LINE
  5
413
330
22
100
AcDbEntity
  8
_2-2_IN_LINE
  6
Continuous
 62
     7
100
AcDbLine
 10
1017.467161699426
 20
443.6340785109226
 30
0.0
 11
1017.651267295447
 21
443.5940208462173
 31
0.0
  0
LINE
  5
414
330
22
100
AcDbEntity
  8
_2-2_IN_LINE
  6
Continuous
 62
     7
100
AcDbLine
 10
1017.651267295447
 20
443.5940208462173
 30
0.0
 11
1017.835986833375
 21
443.5535768486399
 31
0.0
  0
LINE
  5
415
330
22
100
AcDbEntity
  8
_2-2_IN_LINE
  6
Continuous
 62
     7
100
AcDbLine
 10
1017.835986833375
 20
443.5535768486399
 30
0.0
 11
1017.943549058911
 21
443.5305950617546
 31
0.0
  0
LINE
  5
416
330
22
100
AcDbEntity
  8
_2-2_IN_LINE
  6
Continuous
 62
     7
100
AcDbLine
 10
1017.943549058911
 20
443.5305950617546
 30
0.0
 11
1018.065660290239
 21
443.505321340256
 31
0.0
  0
LINE
  5
417
330
22
100
AcDbEntity
  8
_2-2_IN_LINE
  6
Continuous
 62
     7
100
AcDbLine
 10
1018.065660290239
 20
443.505321340256
 30
0.0
 11
1018.276458313802
 21
443.46197182402
 31
0.0
  0
LINE
  5
418
330
22
100
AcDbEntity
  8
_2-2_IN_LINE
  6
Continuous
 62
     7
100
AcDbLine
 10
1018.276458313802
 20
443.46197182402
 30
0.0
 11
1018.48616353764
 21
443.4158386658716
 31
0.0
  0
LINE
  5
419
330
22
100
AcDbEntity
  8
_2-2_IN_LINE
  6
Continuous
 62
     7
100
AcDbLine
 10
1018.48616353764
 20
443.4158386658716
 30
0.0
 11
1018.693120486908
 21
443.3633526241695
 31
0.0
  0
LINE
  5
41A
330
22
100
AcDbEntity
  8
_2-2_IN_LINE
  6
Continuous
 62
     7
100
AcDbLine
 10
1018.693120486908
 20
443.3633526241695
 30
0.0
 11
1018.895673686762
 21
443.3009444572692
 31
0.0
  0
LINE
  5
41B
330
22
100
AcDbEntity
  8
_2-2_IN_LINE
  6
Continuous
 62
     7
100
AcDbLine
 10
1018.895673686762
 20
443.3009444572692
 30
0.0
 11
1019.092167662362
 21
443.225044923536
 31
0.0
  0
LINE
  5
41C
330
22
100
AcDbEntity
  8
_2-2_IN_LINE
  6
Continuous
 62
     7
100
AcDbLine
 10
1019.092167662362
 20
443.225044923536
 30
0.0
 11
1019.202705488483
 21
443.1734349828801
 31
0.0
  0
LINE
  5
41D
330
22
100
AcDbEntity
  8
_2-2_IN_LINE
  6
Continuous
 62
     7
100
AcDbLine
 10
1019.202705488483
 20
443.1734349828801
 30
0.0
 11
1019.302027719661
 21
443.1203495109551
 31
0.0
  0
LINE
  5
41E
330
22
100
AcDbEntity
  8
_2-2_IN_LINE
  6
Continuous
 62
     7
100
AcDbLine
 10
1019.302027719661
 20
443.1203495109551
 30
0.0
 11
1019.467451634853
 21
443.0170632298567
 31
0.0
  0
LINE
  5
41F
330
22
100
AcDbEntity
  8
_2-2_IN_LINE
  6
Continuous
 62
     7
100
AcDbLine
 10
1019.467451634853
 20
443.0170632298567
 30
0.0
 11
1019.625503206212
 21
442.9005135981245
 31
0.0
  0
LINE
  5
420
330
22
100
AcDbEntity
  8
_2-2_IN_LINE
  6
Continuous
 62
     7
100
AcDbLine
 10
1019.625503206212
 20
442.9005135981245
 30
0.0
 11
1019.776178252629
 21
442.7725869248097
 31
0.0
  0
LINE
  5
421
330
22
100
AcDbEntity
  8
_2-2_IN_LINE
  6
Continuous
 62
     7
100
AcDbLine
 10
1019.776178252629
 20
442.7725869248097
 30
0.0
 11
1019.919472592994
 21
442.6351695189625
 31
0.0
  0
LINE
  5
422
330
22
100
AcDbEntity
  8
_2-2_IN_LINE
  6
Continuous
 62
     7
100
AcDbLine
 10
1019.919472592994
 20
442.6351695189625
 30
0.0
 11
1020.055382046199
 21
442.4901476896345
 31
0.0
  0
LINE
  5
423
330
22
100
AcDbEntity
  8
_2-2_IN_LINE
  6
Continuous
 62
     7
100
AcDbLine
 10
1020.055382046199
 20
442.4901476896345
 30
0.0
 11
1020.130824126185
 21
442.4032939856354
 31
0.0
  0
LINE
  5
424
330
22
100
AcDbEntity
  8
_2-2_IN_LINE
  6
Continuous
 62
     7
100
AcDbLine
 10
1020.130824126185
 20
442.4032939856354
 30
0.0
 11
1020.215119150556
 21
442.300726597646
 31
0.0
  0
LINE
  5
425
330
22
100
AcDbEntity
  8
_2-2_IN_LINE
  6
Continuous
 62
     7
100
AcDbLine
 10
1020.215119150556
 20
442.300726597646
 30
0.0
 11
1020.353291009825
 21
442.1194415879088
 31
0.0
  0
LINE
  5
426
330
22
100
AcDbEntity
  8
_2-2_IN_LINE
  6
Continuous
 62
     7
100
AcDbLine
 10
1020.353291009825
 20
442.1194415879088
 30
0.0
 11
1020.483401276844
 21
441.9332169132896
 31
0.0
  0
LINE
  5
427
330
22
100
AcDbEntity
  8
_2-2_IN_LINE
  6
Continuous
 62
     7
100
AcDbLine
 10
1020.483401276844
 20
441.9332169132896
 30
0.0
 11
1020.60662117883
 21
441.7428508521997
 31
0.0
  0
LINE
  5
428
330
22
100
AcDbEntity
  8
_2-2_IN_LINE
  6
Continuous
 62
     7
100
AcDbLine
 10
1020.60662117883
 20
441.7428508521997
 30
0.0
 11
1020.724121943
 21
441.5491416830561
 31
0.0
  0
LINE
  5
429
330
22
100
AcDbEntity
  8
_2-2_IN_LINE
  6
Continuous
 62
     7
100
AcDbLine
 10
1020.724121943
 20
441.5491416830561
 30
0.0
 11
1020.837074796568
 21
441.3528876842727
 31
0.0
  0
LINE
  5
42A
330
22
100
AcDbEntity
  8
_2-2_IN_LINE
  6
Continuous
 62
     7
100
AcDbLine
 10
1020.837074796568
 20
441.3528876842727
 30
0.0
 11
1020.900965123428
 21
441.238208887244
 31
0.0
  0
LINE
  5
42B
330
22
100
AcDbEntity
  8
_2-2_IN_LINE
  6
Continuous
 62
     7
100
AcDbLine
 10
1020.900965123428
 20
441.238208887244
 30
0.0
 11
1020.968232490934
 21
441.1151422951072
 31
0.0
  0
LINE
  5
42C
330
22
100
AcDbEntity
  8
_2-2_IN_LINE
  6
Continuous
 62
     7
100
AcDbLine
 10
1020.968232490934
 20
441.1151422951072
 30
0.0
 11
1021.082213732142
 21
440.9019355387388
 31
0.0
  0
LINE
  5
42D
330
22
100
AcDbEntity
  8
_2-2_IN_LINE
  6
Continuous
 62
     7
100
AcDbLine
 10
1021.082213732142
 20
440.9019355387388
 30
0.0
 11
1021.194328280507
 21
440.6876385392027
 31
0.0
  0
LINE
  5
42E
330
22
100
AcDbEntity
  8
_2-2_IN_LINE
  6
Continuous
 62
     7
100
AcDbLine
 10
1021.194328280507
 20
440.6876385392027
 30
0.0
 11
1021.305344889754
 21
440.4724892781294
 31
0.0
  0
LINE
  5
42F
330
22
100
AcDbEntity
  8
_2-2_IN_LINE
  6
Continuous
 62
     7
100
AcDbLine
 10
1021.305344889754
 20
440.4724892781294
 30
0.0
 11
1021.416032313611
 21
440.2567257371472
 31
0.0
  0
LINE
  5
430
330
22
100
AcDbEntity
  8
_2-2_IN_LINE
  6
Continuous
 62
     7
100
AcDbLine
 10
1021.416032313611
 20
440.2567257371472
 30
0.0
 11
1021.527159305809
 21
440.0405858978913
 31
0.0
  0
LINE
  5
431
330
22
100
AcDbEntity
  8
_2-2_IN_LINE
  6
Continuous
 62
     7
100
AcDbLine
 10
1021.527159305809
 20
440.0405858978913
 30
0.0
 11
1021.59211730044
 21
439.9151461483919
 31
0.0
  0
LINE
  5
432
330
22
100
AcDbEntity
  8
_2-2_IN_LINE
  6
Continuous
 62
     7
100
AcDbLine
 10
1021.59211730044
 20
439.9151461483919
 30
0.0
 11
1021.680530754616
 21
439.7463179653849
 31
0.0
  0
LINE
  5
433
330
22
100
AcDbEntity
  8
_2-2_IN_LINE
  6
Continuous
 62
     7
100
AcDbLine
 10
1021.680530754616
 20
439.7463179653849
 30
0.0
 11
1021.837035570546
 21
439.4569221994972
 31
0.0
  0
LINE
  5
434
330
22
100
AcDbEntity
  8
_2-2_IN_LINE
  6
Continuous
 62
     7
100
AcDbLine
 10
1021.837035570546
 20
439.4569221994972
 30
0.0
 11
1022.001257163773
 21
439.1722140232472
 31
0.0
  0
LINE
  5
435
330
22
100
AcDbEntity
  8
_2-2_IN_LINE
  6
Continuous
 62
     7
100
AcDbLine
 10
1022.001257163773
 20
439.1722140232472
 30
0.0
 11
1022.176181151159
 21
438.8951605952278
 31
0.0
  0
LINE
  5
436
330
22
100
AcDbEntity
  8
_2-2_IN_LINE
  6
Continuous
 62
     7
100
AcDbLine
 10
1022.176181151159
 20
438.8951605952278
 30
0.0
 11
1022.364793149559
 21
438.6287290740417
 31
0.0
  0
LINE
  5
437
330
22
100
AcDbEntity
  8
_2-2_IN_LINE
  6
Continuous
 62
     7
100
AcDbLine
 10
1022.364793149559
 20
438.6287290740417
 30
0.0
 11
1022.570078775834
 21
438.3758866182851
 31
0.0
  0
LINE
  5
438
330
22
100
AcDbEntity
  8
_2-2_IN_LINE
  6
Continuous
 62
     7
100
AcDbLine
 10
1022.570078775834
 20
438.3758866182851
 30
0.0
 11
1022.697960783661
 21
438.2366337185047
 31
0.0
  0
LINE
  5
439
330
22
100
AcDbEntity
  8
_2-2_IN_LINE
  6
Continuous
 62
     7
100
AcDbLine
 10
1022.697960783661
 20
438.2366337185047
 30
0.0
 11
1022.744175955965
 21
438.1895287125943
 31
0.0
  0
LINE
  5
43A
330
22
100
AcDbEntity
  8
_2-2_IN_LINE
  6
Continuous
 62
     7
100
AcDbLine
 10
1022.744175955965
 20
438.1895287125943
 30
0.0
 11
1022.825875217505
 21
438.1101836175574
 31
0.0
  0
LINE
  5
43B
330
22
100
AcDbEntity
  8
_2-2_IN_LINE
  6
Continuous
 62
     7
100
AcDbLine
 10
1022.825875217505
 20
438.1101836175574
 30
0.0
 11
1022.910077609836
 21
438.0333835081162
 31
0.0
  0
LINE
  5
43C
330
22
100
AcDbEntity
  8
_2-2_IN_LINE
  6
Continuous
 62
     7
100
AcDbLine
 10
1022.910077609836
 20
438.0333835081162
 30
0.0
 11
1022.996723585331
 21
437.9593346047911
 31
0.0
  0
LINE
  5
43D
330
22
100
AcDbEntity
  8
_2-2_IN_LINE
  6
Continuous
 62
     7
100
AcDbLine
 10
1022.996723585331
 20
437.9593346047911
 30
0.0
 11
1023.085753596367
 21
437.8882431281001
 31
0.0
  0
LINE
  5
43E
330
22
100
AcDbEntity
  8
_2-2_IN_LINE
  6
Continuous
 62
     7
100
AcDbLine
 10
1023.085753596367
 20
437.8882431281001
 30
0.0
 11
1023.177108095318
 21
437.8203152985705
 31
0.0
  0
LINE
  5
43F
330
22
100
AcDbEntity
  8
_2-2_IN_LINE
  6
Continuous
 62
     7
100
AcDbLine
 10
1023.177108095318
 20
437.8203152985705
 30
0.0
 11
1023.231135320213
 21
437.7824480021812
 31
0.0
  0
LINE
  5
440
330
22
100
AcDbEntity
  8
_2-2_IN_LINE
  6
Continuous
 62
     7
100
AcDbLine
 10
1023.231135320213
 20
437.7824480021812
 30
0.0
 11
1023.320736731301
 21
437.7231553118033
 31
0.0
  0
LINE
  5
441
330
22
100
AcDbEntity
  8
_2-2_IN_LINE
  6
Continuous
 62
     7
100
AcDbLine
 10
1023.320736731301
 20
437.7231553118033
 30
0.0
 11
1023.478928175472
 21
437.6267420476076
 31
0.0
  0
LINE
  5
442
330
22
100
AcDbEntity
  8
_2-2_IN_LINE
  6
Continuous
 62
     7
100
AcDbLine
 10
1023.478928175472
 20
437.6267420476076
 30
0.0
 11
1023.640339462504
 21
437.5354136385364
 31
0.0
  0
LINE
  5
443
330
22
100
AcDbEntity
  8
_2-2_IN_LINE
  6
Continuous
 62
     7
100
AcDbLine
 10
1023.640339462504
 20
437.5354136385364
 30
0.0
 11
1023.803259410797
 21
437.446522930086
 31
0.0
  0
LINE
  5
444
330
22
100
AcDbEntity
  8
_2-2_IN_LINE
  6
Continuous
 62
     7
100
AcDbLine
 10
1023.803259410797
 20
437.446522930086
 30
0.0
 11
1023.96597683875
 21
437.3574227677503
 31
0.0
  0
LINE
  5
445
330
22
100
AcDbEntity
  8
_2-2_IN_LINE
  6
Continuous
 62
     7
100
AcDbLine
 10
1023.96597683875
 20
437.3574227677503
 30
0.0
 11
1024.126780564762
 21
437.2654659970252
 31
0.0
  0
LINE
  5
446
330
22
100
AcDbEntity
  8
_2-2_IN_LINE
  6
Continuous
 62
     7
100
AcDbLine
 10
1024.126780564762
 20
437.2654659970252
 30
0.0
 11
1024.218495573088
 21
437.2097790555133
 31
0.0
  0
LINE
  5
447
330
22
100
AcDbEntity
  8
_2-2_IN_LINE
  6
Continuous
 62
     7
100
AcDbLine
 10
1024.218495573088
 20
437.2097790555133
 30
0.0
 11
1024.310906565487
 21
437.1504142856408
 31
0.0
  0
LINE
  5
448
330
22
100
AcDbEntity
  8
_2-2_IN_LINE
  6
Continuous
 62
     7
100
AcDbLine
 10
1024.310906565487
 20
437.1504142856408
 30
0.0
 11
1024.466849567641
 21
437.0429125238731
 31
0.0
  0
LINE
  5
449
330
22
100
AcDbEntity
  8
_2-2_IN_LINE
  6
Continuous
 62
     7
100
AcDbLine
 10
1024.466849567641
 20
437.0429125238731
 30
0.0
 11
1024.619172109862
 21
436.9299293339056
 31
0.0
  0
LINE
  5
44A
330
22
100
AcDbEntity
  8
_2-2_IN_LINE
  6
Continuous
 62
     7
100
AcDbLine
 10
1024.619172109862
 20
436.9299293339056
 30
0.0
 11
1024.768648598598
 21
436.8126692815102
 31
0.0
  0
LINE
  5
44B
330
22
100
AcDbEntity
  8
_2-2_IN_LINE
  6
Continuous
 62
     7
100
AcDbLine
 10
1024.768648598598
 20
436.8126692815102
 30
0.0
 11
1024.916053440292
 21
436.6923369324608
 31
0.0
  0
LINE
  5
44C
330
22
100
AcDbEntity
  8
_2-2_IN_LINE
  6
Continuous
 62
     7
100
AcDbLine
 10
1024.916053440292
 20
436.6923369324608
 30
0.0
 11
1025.062161041387
 21
436.5701368525359
 31
0.0
  0
LINE
  5
44D
330
22
100
AcDbEntity
  8
_2-2_IN_LINE
  6
Continuous
 62
     7
100
AcDbLine
 10
1025.062161041387
 20
436.5701368525359
 30
0.0
 11
1025.146614210791
 21
436.4988796734431
 31
0.0
  0
LINE
  5
44E
330
22
100
AcDbEntity
  8
_2-2_IN_LINE
  6
Continuous
 62
     7
100
AcDbLine
 10
1025.146614210791
 20
436.4988796734431
 30
0.0
 11
1025.252456074408
 21
436.4093990895439
 31
0.0
  0
LINE
  5
44F
330
22
100
AcDbEntity
  8
_2-2_IN_LINE
  6
Continuous
 62
     7
100
AcDbLine
 10
1025.252456074408
 20
436.4093990895439
 30
0.0
 11
1025.434028852719
 21
436.2543160357475
 31
0.0
  0
LINE
  5
450
330
22
100
AcDbEntity
  8
_2-2_IN_LINE
  6
Continuous
 62
     7
100
AcDbLine
 10
1025.434028852719
 20
436.2543160357475
 30
0.0
 11
1025.613203505344
 21
436.0969268675059
 31
0.0
  0
LINE
  5
451
330
22
100
AcDbEntity
  8
_2-2_IN_LINE
  6
Continuous
 62
     7
100
AcDbLine
 10
1025.613203505344
 20
436.0969268675059
 30
0.0
 11
1025.788535631568
 21
435.9357366695808
 31
0.0
  0
LINE
  5
452
330
22
100
AcDbEntity
  8
_2-2_IN_LINE
  6
Continuous
 62
     7
100
AcDbLine
 10
1025.788535631568
 20
435.9357366695808
 30
0.0
 11
1025.958580830678
 21
435.7692505267303
 31
0.0
  0
LINE
  5
453
330
22
100
AcDbEntity
  8
_2-2_IN_LINE
  6
Continuous
 62
     7
100
AcDbLine
 10
1025.958580830678
 20
435.7692505267303
 30
0.0
 11
1026.121894701956
 21
435.5959735237209
 31
0.0
  0
LINE
  5
454
330
22
100
AcDbEntity
  8
_2-2_IN_LINE
  6
Continuous
 62
     7
100
AcDbLine
 10
1026.121894701956
 20
435.5959735237209
 30
0.0
 11
1026.212963283896
 21
435.4917722155099
 31
0.0
  0
LINE
  5
455
330
22
100
AcDbEntity
  8
_2-2_IN_LINE
  6
Continuous
 62
     7
100
AcDbLine
 10
1026.212963283896
 20
435.4917722155099
 30
0.0
 11
1026.264622556532
 21
435.4296849399887
 31
0.0
  0
LINE
  5
456
330
22
100
AcDbEntity
  8
_2-2_IN_LINE
  6
Continuous
 62
     7
100
AcDbLine
 10
1026.264622556532
 20
435.4296849399887
 30
0.0
 11
1026.350947666838
 21
435.3202122001497
 31
0.0
  0
LINE
  5
457
330
22
100
AcDbEntity
  8
_2-2_IN_LINE
  6
Continuous
 62
     7
100
AcDbLine
 10
1026.350947666838
 20
435.3202122001497
 30
0.0
 11
1026.433307538971
 21
435.2077109423911
 31
0.0
  0
LINE
  5
458
330
22
100
AcDbEntity
  8
_2-2_IN_LINE
  6
Continuous
 62
     7
100
AcDbLine
 10
1026.433307538971
 20
435.2077109423911
 30
0.0
 11
1026.511128229715
 21
435.0922300096796
 31
0.0
  0
LINE
  5
459
330
22
100
AcDbEntity
  8
_2-2_IN_LINE
  6
Continuous
 62
     7
100
AcDbLine
 10
1026.511128229715
 20
435.0922300096796
 30
0.0
 11
1026.58383579586
 21
434.9738182449871
 31
0.0
  0
LINE
  5
45A
330
22
100
AcDbEntity
  8
_2-2_IN_LINE
  6
Continuous
 62
     7
100
AcDbLine
 10
1026.58383579586
 20
434.9738182449871
 30
0.0
 11
1026.650856294189
 21
434.8525244912823
 31
0.0
  0
LINE
  5
45B
330
22
100
AcDbEntity
  8
_2-2_IN_LINE
  6
Continuous
 62
     7
100
AcDbLine
 10
1026.650856294189
 20
434.8525244912823
 30
0.0
 11
1026.686896205276
 21
434.780872833442
 31
0.0
  0
LINE
  5
45C
330
22
100
AcDbEntity
  8
_2-2_IN_LINE
  6
Continuous
 62
     7
100
AcDbLine
 10
1026.686896205276
 20
434.780872833442
 30
0.0
 11
1026.733548058634
 21
434.6793969423905
 31
0.0
  0
LINE
  5
45D
330
22
100
AcDbEntity
  8
_2-2_IN_LINE
  6
Continuous
 62
     7
100
AcDbLine
 10
1026.733548058634
 20
434.6793969423905
 30
0.0
 11
1026.805034816985
 21
434.5006325633406
 31
0.0
  0
LINE
  5
45E
330
22
100
AcDbEntity
  8
_2-2_IN_LINE
  6
Continuous
 62
     7
100
AcDbLine
 10
1026.805034816985
 20
434.5006325633406
 30
0.0
 11
1026.866986155608
 21
434.3178121451913
 31
0.0
  0
LINE
  5
45F
330
22
100
AcDbEntity
  8
_2-2_IN_LINE
  6
Continuous
 62
     7
100
AcDbLine
 10
1026.866986155608
 20
434.3178121451913
 30
0.0
 11
1026.921484043877
 21
434.1318212860008
 31
0.0
  0
LINE
  5
460
330
22
100
AcDbEntity
  8
_2-2_IN_LINE
  6
Continuous
 62
     7
100
AcDbLine
 10
1026.921484043877
 20
434.1318212860008
 30
0.0
 11
1026.970610451164
 21
433.9435455838272
 31
0.0
  0
LINE
  5
461
330
22
100
AcDbEntity
  8
_2-2_IN_LINE
  6
Continuous
 62
     7
100
AcDbLine
 10
1026.970610451164
 20
433.9435455838272
 30
0.0
 11
1027.016447346841
 21
433.753870636722
 31
0.0
  0
LINE
  5
462
330
22
100
AcDbEntity
  8
_2-2_IN_LINE
  6
Continuous
 62
     7
100
AcDbLine
 10
1027.016447346841
 20
433.753870636722
 30
0.0
 11
1027.042345896312
 21
433.6435670050607
 31
0.0
  0
LINE
  5
463
330
22
100
AcDbEntity
  8
_2-B_DIM
  6
Continuous
 62
     7
100
AcDbLine
 10
1016.294470033696
 20
418.4874904144683
 30
0.0
 11
1016.294470033696
 21
392.4487850775942
 31
0.0
  0
POINT
  5
464
330
22
100
AcDbEntity
  8
_2-B_DIM
 62
     1
100
AcDbPoint
 10
1016.294470033696
 20
392.4487850775942
 30
0.0
  0
LINE
  5
465
330
22
100
AcDbEntity
  8
_2-B_DIM
  6
Continuous
 62
     7
100
AcDbLine
 10
971.294470033696
 20
392.4487850775942
 30
0.0
 11
1016.294470033696
 21
392.4487850775942
 31
0.0
  0
LINE
  5
466
330
22
100
AcDbEntity
  8
_2-A_MOJI
  6
Continuous
 62
     7
100
AcDbLine
 10
1105.777333146224
 20
473.4130081001697
 30
0.0
 11
1074.565351161362
 21
473.4130081001697
 31
0.0
  0
LINE
  5
467
330
22
100
AcDbEntity
  8
_2-A_MOJI
  6
Continuous
 62
     7
100
AcDbLine
 10
1105.777333146224
 20
498.4130081001697
 30
0.0
 11
1048.707179516691
 21
498.4130081001697
 31
0.0
  0
TEXT
  5
468
330
22
100
AcDbEntity
  8
_2-A_MOJI
 62
     7
100
AcDbText
 10
1115.777333146224
 20
490.9130081001698
 30
0.0
 40
15.0
  1
プルーフシーラー
100
AcDbText
  0
TEXT
  5
469
330
22
100
AcDbEntity
  8
_2-A_MOJI
 62
     7
100
AcDbText
 10
1115.777333146224
 20
465.9130081001698
 30
0.0
 40
15.0
  1
塩ビシート 接着工法
100
AcDbText
  0
LINE
  5
46A
330
22
100
AcDbEntity
  8
_2-A_MOJI
  6
Continuous
 62
     7
100
AcDbLine
 10
1051.178370042545
 20
432.9055685667257
 30
0.0
 11
1074.565351161362
 21
473.4130081001697
 31
0.0
  0
LINE
  5
46B
330
22
100
AcDbEntity
  8
_2-A_MOJI
  6
Continuous
 62
     7
100
AcDbLine
 10
1016.735198784986
 20
443.0359130542436
 30
0.0
 11
1048.707179516691
 21
498.4130081001697
 31
0.0
  0
LINE
  5
46C
330
22
100
AcDbEntity
  8
_2-A_MOJI
  6
Continuous
 62
     7
100
AcDbLine
 10
1105.777333146224
 20
523.4130081001697
 30
0.0
 11
1006.040482898646
 21
523.4130081001697
 31
0.0
  0
LINE
  5
46D
330
22
100
AcDbEntity
  8
_2-A_MOJI
  6
Continuous
 62
     7
100
AcDbLine
 10
956.2045935985283
 20
437.0947157919864
 30
0.0
 11
1006.040482898646
 21
523.4130081001697
 31
0.0
  0
TEXT
  5
46E
330
22
100
AcDbEntity
  8
_2-A_MOJI
 62
     7
100
AcDbText
 10
1115.777333146224
 20
515.9130081001697
 30
0.0
 40
15.0
  1
ＢＰ－Ｈ１８
100
AcDbText
  0
ENDSEC
  0
SECTION
  2
OBJECTS
  0
DICTIONARY
  5
C
330
0
100
AcDbDictionary
281
     1
  3
ACAD_COLOR
350
1B
  3
ACAD_GROUP
350
D
  3
ACAD_LAYOUT
350
19
  3
ACAD_MATERIAL
350
1A
  3
ACAD_MLINESTYLE
350
16
  3
ACAD_PLOTSETTINGS
350
18
  3
ACAD_PLOTSTYLENAME
350
E
  3
ACAD_TABLESTYLE
350
1C
  3
ACDBHEADERROUNDTRIPXREC
350
476
  3
AcDbVariableDictionary
350
471
  0
DICTIONARY
  5
1B
102
{ACAD_REACTORS
330
C
102
}
330
C
100
AcDbDictionary
281
     1
  0
DICTIONARY
  5
D
102
{ACAD_REACTORS
330
C
102
}
330
C
100
AcDbDictionary
281
     1
  0
DICTIONARY
  5
19
102
{ACAD_REACTORS
330
C
102
}
330
C
100
AcDbDictionary
281
     1
  3
Model
350
25
  3
レイアウト1
350
21
  0
DICTIONARY
  5
1A
102
{ACAD_REACTORS
330
C
102
}
330
C
100
AcDbDictionary
281
     1
  0
DICTIONARY
  5
16
102
{ACAD_REACTORS
330
C
102
}
330
C
100
AcDbDictionary
281
     1
  3
Standard
350
17
  0
DICTIONARY
  5
18
102
{ACAD_REACTORS
330
C
102
}
330
C
100
AcDbDictionary
281
     1
  0
ACDBDICTIONARYWDFLT
  5
E
102
{ACAD_REACTORS
330
C
102
}
330
C
100
AcDbDictionary
281
     1
  3
Normal
350
F
100
AcDbDictionaryWithDefault
340
F
  0
DICTIONARY
  5
1C
102
{ACAD_REACTORS
330
C
102
}
330
C
100
AcDbDictionary
281
     1
  3
Standard
350
1D
  0
DICTIONARY
  5
476
102
{ACAD_REACTORS
330
C
102
}
330
C
100
AcDbDictionary
281
     1
  0
DICTIONARY
  5
471
102
{ACAD_REACTORS
330
C
102
}
330
C
100
AcDbDictionary
281
     1
  3
CTABLESTYLE
350
472
  3
DIMASSOC
350
473
  3
PROJECTNAME
350
474
  0
LAYOUT
  5
25
102
{ACAD_XDICTIONARY
360
479
102
}
102
{ACAD_REACTORS
330
19
102
}
330
19
100
AcDbPlotSettings
  1

  2
PC1665
  4

  6

 40
0.0
 41
0.0
 42
0.0
 43
0.0
 44
0.0
 45
0.0
 46
0.0
 47
0.0
 48
0.0
 49
0.0
140
0.0
141
0.0
142
1.0
143
1.0
 70
  1712
 72
     0
 73
     0
 74
     0
  7

 75
     0
147
1.0
148
0.0
149
0.0
100
AcDbLayout
  1
Model
 70
     1
 71
     0
 10
0.0
 20
0.0
 11
12.0
 21
9.0
 12
0.0
 22
0.0
 32
0.0
 14
0.0
 24
0.0
 34
0.0
 15
0.0
 25
0.0
 35
0.0
146
0.0
 13
0.0
 23
0.0
 33
0.0
 16
1.0
 26
0.0
 36
0.0
 17
0.0
 27
1.0
 37
0.0
 76
     0
330
22
  0
LAYOUT
  5
21
102
{ACAD_XDICTIONARY
360
477
102
}
102
{ACAD_REACTORS
330
19
102
}
330
19
100
AcDbPlotSettings
  1

  2
PC1665
  4

  6

 40
0.0
 41
0.0
 42
0.0
 43
0.0
 44
0.0
 45
0.0
 46
0.0
 47
0.0
 48
0.0
 49
0.0
140
0.0
141
0.0
142
1.0
143
1.0
 70
   688
 72
     0
 73
     0
 74
     5
  7

 75
    16
147
1.0
148
0.0
149
0.0
100
AcDbLayout
  1
レイアウト1
 70
     1
 71
     1
 10
0.0
 20
0.0
 11
12.0
 21
9.0
 12
0.0
 22
0.0
 32
0.0
 14
1.000000000000000E+20
 24
1.000000000000000E+20
 34
1.000000000000000E+20
 15
-1.000000000000000E+20
 25
-1.000000000000000E+20
 35
-1.000000000000000E+20
146
0.0
 13
0.0
 23
0.0
 33
0.0
 16
1.0
 26
0.0
 36
0.0
 17
0.0
 27
1.0
 37
0.0
 76
     0
330
1E
  0
MLINESTYLE
  5
17
102
{ACAD_REACTORS
330
16
102
}
330
16
100
AcDbMlineStyle
  2
STANDARD
 70
     0
  3

 62
   256
 51
90.0
 52
90.0
 71
     2
 49
0.5
 62
   256
  6
BYLAYER
 49
-0.5
 62
   256
  6
BYLAYER
  0
ACDBPLACEHOLDER
  5
F
102
{ACAD_REACTORS
330
E
102
}
330
E
  0
TABLESTYLE
  5
1D
102
{ACAD_REACTORS
330
1C
102
}
330
1C
100
AcDbTableStyle
  3
Standard
 70
     0
 71
     0
 40
0.06
 41
0.06
280
     0
281
     0
  7
STANDARD
140
0.18
170
     2
 62
     0
 63
     7
283
     0
274
    -2
284
     1
 64
     0
275
    -2
285
     1
 65
     0
276
    -2
286
     1
 66
     0
277
    -2
287
     1
 67
     0
278
    -2
288
     1
 68
     0
279
    -2
289
     1
 69
     0
  7
STANDARD
140
0.25
170
     5
 62
     0
 63
     7
283
     0
274
    -2
284
     1
 64
     0
275
    -2
285
     1
 65
     0
276
    -2
286
     1
 66
     0
277
    -2
287
     1
 67
     0
278
    -2
288
     1
 68
     0
279
    -2
289
     1
 69
     0
  7
STANDARD
140
0.18
170
     5
 62
     0
 63
     7
283
     0
274
    -2
284
     1
 64
     0
275
    -2
285
     1
 65
     0
276
    -2
286
     1
 66
     0
277
    -2
287
     1
 67
     0
278
    -2
288
     1
 68
     0
279
    -2
289
     1
 69
     0
  0
DICTIONARYVAR
  5
472
102
{ACAD_REACTORS
330
471
102
}
330
471
100
DictionaryVariables
280
     0
  1
STANDARD
  0
DICTIONARYVAR
  5
473
102
{ACAD_REACTORS
330
471
102
}
330
471
100
DictionaryVariables
280
     0
  1
1
  0
DICTIONARYVAR
  5
474
102
{ACAD_REACTORS
330
471
102
}
330
471
100
DictionaryVariables
280
     0
  1

  0
DICTIONARY
  5
479
330
25
100
AcDbDictionary
280
     1
281
     1
  3
ACAD_XREC_ROUNDTRIP
360
47A
  0
DICTIONARY
  5
477
330
21
100
AcDbDictionary
280
     1
281
     1
  3
ACAD_XREC_ROUNDTRIP
360
478
  0
XRECORD
  5
47A
102
{ACAD_REACTORS
330
479
102
}
330
479
100
AcDbXrecord
280
     1
102
SHADEPLOT
 70
     0
102
SHADEPLOTRESLEVEL
 70
     2
102
SHADEPLOTCUSTOMDPI
 70
   300
  0
XRECORD
  5
478
102
{ACAD_REACTORS
330
477
102
}
330
477
100
AcDbXrecord
280
     1
102
SHADEPLOT
 70
     0
102
SHADEPLOTRESLEVEL
 70
     2
102
SHADEPLOTCUSTOMDPI
 70
   300
  0
ENDSEC
  0
EOF
