  0
SECTION
  2
HEADER
  9
$ACADVER
  1
AC1015
  9
$ACADMAINTVER
 70
    20
  9
$DWGCODEPAGE
  3
ANSI_932
  9
$INSBASE
 10
0.0
 20
0.0
 30
0.0
  9
$EXTMIN
 10
553.6468561199107
 20
13.32367290663933
 30
-0.0015258207003583
  9
$EXTMAX
 10
1553.883366070086
 20
1443.35220677819
 30
0.0000000349246037
  9
$LIMMIN
 10
0.0
 20
0.0
  9
$LIMMAX
 10
2100.0
 20
1485.0
  9
$ORTHOMODE
 70
     0
  9
$REGENMODE
 70
     1
  9
$FILLMODE
 70
     1
  9
$QTEXTMODE
 70
     0
  9
$MIRRTEXT
 70
     0
  9
$LTSCALE
 40
5.0
  9
$ATTMODE
 70
     1
  9
$TEXTSIZE
 40
0.2
  9
$TRACEWID
 40
0.05
  9
$TEXTSTYLE
  7
STANDARD
  9
$CLAYER
  8
0
  9
$CELTYPE
  6
CONTINUOUS
  9
$CECOLOR
 62
   256
  9
$CELTSCALE
 40
1.0
  9
$DISPSILH
 70
     0
  9
$DIMSCALE
 40
1.0
  9
$DIMASZ
 40
0.18
  9
$DIMEXO
 40
0.0625
  9
$DIMDLI
 40
0.38
  9
$DIMRND
 40
0.0
  9
$DIMDLE
 40
0.0
  9
$DIMEXE
 40
0.18
  9
$DIMTP
 40
0.0
  9
$DIMTM
 40
0.0
  9
$DIMTXT
 40
0.18
  9
$DIMCEN
 40
0.09
  9
$DIMTSZ
 40
0.0
  9
$DIMTOL
 70
     0
  9
$DIMLIM
 70
     0
  9
$DIMTIH
 70
     1
  9
$DIMTOH
 70
     1
  9
$DIMSE1
 70
     0
  9
$DIMSE2
 70
     0
  9
$DIMTAD
 70
     0
  9
$DIMZIN
 70
     0
  9
$DIMBLK
  1

  9
$DIMASO
 70
     1
  9
$DIMSHO
 70
     1
  9
$DIMPOST
  1

  9
$DIMAPOST
  1

  9
$DIMALT
 70
     0
  9
$DIMALTD
 70
     2
  9
$DIMALTF
 40
25.4
  9
$DIMLFAC
 40
1.0
  9
$DIMTOFL
 70
     0
  9
$DIMTVP
 40
0.0
  9
$DIMTIX
 70
     0
  9
$DIMSOXD
 70
     0
  9
$DIMSAH
 70
     0
  9
$DIMBLK1
  1

  9
$DIMBLK2
  1

  9
$DIMSTYLE
  2
Standard
  9
$DIMCLRD
 70
     0
  9
$DIMCLRE
 70
     0
  9
$DIMCLRT
 70
     0
  9
$DIMTFAC
 40
1.0
  9
$DIMGAP
 40
0.09
  9
$DIMJUST
 70
     0
  9
$DIMSD1
 70
     0
  9
$DIMSD2
 70
     0
  9
$DIMTOLJ
 70
     1
  9
$DIMTZIN
 70
     0
  9
$DIMALTZ
 70
     0
  9
$DIMALTTZ
 70
     0
  9
$DIMUPT
 70
     0
  9
$DIMDEC
 70
     4
  9
$DIMTDEC
 70
     4
  9
$DIMALTU
 70
     2
  9
$DIMALTTD
 70
     2
  9
$DIMTXSTY
  7
STANDARD
  9
$DIMAUNIT
 70
     0
  9
$DIMADEC
 70
     0
  9
$DIMALTRND
 40
0.0
  9
$DIMAZIN
 70
     0
  9
$DIMDSEP
 70
    46
  9
$DIMATFIT
 70
     3
  9
$DIMFRAC
 70
     0
  9
$DIMLDRBLK
  1

  9
$DIMLUNIT
 70
     2
  9
$DIMLWD
 70
    -2
  9
$DIMLWE
 70
    -2
  9
$DIMTMOVE
 70
     0
  9
$LUNITS
 70
     2
  9
$LUPREC
 70
     4
  9
$SKETCHINC
 40
0.1
  9
$FILLETRAD
 40
0.0
  9
$AUNITS
 70
     0
  9
$AUPREC
 70
     0
  9
$MENU
  1
.
  9
$ELEVATION
 40
0.0
  9
$PELEVATION
 40
0.0
  9
$THICKNESS
 40
0.0
  9
$LIMCHECK
 70
     0
  9
$CHAMFERA
 40
0.0
  9
$CHAMFERB
 40
0.0
  9
$CHAMFERC
 40
0.0
  9
$CHAMFERD
 40
0.0
  9
$SKPOLY
 70
     0
  9
$TDCREATE
 40
2454846.609637801
  9
$TDUCREATE
 40
2454846.234637801
  9
$TDUPDATE
 40
2454846.617637501
  9
$TDUUPDATE
 40
2454846.242637500
  9
$TDINDWG
 40
0.0080018750
  9
$TDUSRTIMER
 40
0.0080018750
  9
$USRTIMER
 70
     1
  9
$ANGBASE
 50
0.0
  9
$ANGDIR
 70
     0
  9
$PDMODE
 70
     0
  9
$PDSIZE
 40
0.0
  9
$PLINEWID
 40
0.0
  9
$SPLFRAME
 70
     0
  9
$SPLINETYPE
 70
     6
  9
$SPLINESEGS
 70
     8
  9
$HANDSEED
  5
6D1
  9
$SURFTAB1
 70
     6
  9
$SURFTAB2
 70
     6
  9
$SURFTYPE
 70
     6
  9
$SURFU
 70
     6
  9
$SURFV
 70
     6
  9
$UCSBASE
  2

  9
$UCSNAME
  2

  9
$UCSORG
 10
0.0
 20
0.0
 30
0.0
  9
$UCSXDIR
 10
1.0
 20
0.0
 30
0.0
  9
$UCSYDIR
 10
0.0
 20
1.0
 30
0.0
  9
$UCSORTHOREF
  2

  9
$UCSORTHOVIEW
 70
     0
  9
$UCSORGTOP
 10
0.0
 20
0.0
 30
0.0
  9
$UCSORGBOTTOM
 10
0.0
 20
0.0
 30
0.0
  9
$UCSORGLEFT
 10
0.0
 20
0.0
 30
0.0
  9
$UCSORGRIGHT
 10
0.0
 20
0.0
 30
0.0
  9
$UCSORGFRONT
 10
0.0
 20
0.0
 30
0.0
  9
$UCSORGBACK
 10
0.0
 20
0.0
 30
0.0
  9
$PUCSBASE
  2

  9
$PUCSNAME
  2

  9
$PUCSORG
 10
0.0
 20
0.0
 30
0.0
  9
$PUCSXDIR
 10
1.0
 20
0.0
 30
0.0
  9
$PUCSYDIR
 10
0.0
 20
1.0
 30
0.0
  9
$PUCSORTHOREF
  2

  9
$PUCSORTHOVIEW
 70
     0
  9
$PUCSORGTOP
 10
0.0
 20
0.0
 30
0.0
  9
$PUCSORGBOTTOM
 10
0.0
 20
0.0
 30
0.0
  9
$PUCSORGLEFT
 10
0.0
 20
0.0
 30
0.0
  9
$PUCSORGRIGHT
 10
0.0
 20
0.0
 30
0.0
  9
$PUCSORGFRONT
 10
0.0
 20
0.0
 30
0.0
  9
$PUCSORGBACK
 10
0.0
 20
0.0
 30
0.0
  9
$USERI1
 70
     0
  9
$USERI2
 70
     0
  9
$USERI3
 70
     0
  9
$USERI4
 70
     0
  9
$USERI5
 70
     0
  9
$USERR1
 40
0.0
  9
$USERR2
 40
0.0
  9
$USERR3
 40
0.0
  9
$USERR4
 40
0.0
  9
$USERR5
 40
0.0
  9
$WORLDVIEW
 70
     1
  9
$SHADEDGE
 70
     3
  9
$SHADEDIF
 70
    70
  9
$TILEMODE
 70
     1
  9
$MAXACTVP
 70
    64
  9
$PINSBASE
 10
0.0
 20
0.0
 30
0.0
  9
$PLIMCHECK
 70
     0
  9
$PEXTMIN
 10
1.000000000000000E+20
 20
1.000000000000000E+20
 30
1.000000000000000E+20
  9
$PEXTMAX
 10
-1.000000000000000E+20
 20
-1.000000000000000E+20
 30
-1.000000000000000E+20
  9
$PLIMMIN
 10
0.0
 20
0.0
  9
$PLIMMAX
 10
12.0
 20
9.0
  9
$UNITMODE
 70
     0
  9
$VISRETAIN
 70
     1
  9
$PLINEGEN
 70
     0
  9
$PSLTSCALE
 70
     1
  9
$TREEDEPTH
 70
  3020
  9
$CMLSTYLE
  2
Standard
  9
$CMLJUST
 70
     0
  9
$CMLSCALE
 40
1.0
  9
$PROXYGRAPHICS
 70
     1
  9
$MEASUREMENT
 70
     0
  9
$CELWEIGHT
370
    -1
  9
$ENDCAPS
280
     0
  9
$JOINSTYLE
280
     0
  9
$LWDISPLAY
290
     0
  9
$INSUNITS
 70
     0
  9
$HYPERLINKBASE
  1

  9
$STYLESHEET
  1

  9
$XEDIT
290
     1
  9
$CEPSNTYPE
380
     0
  9
$PSTYLEMODE
290
     1
  9
$FINGERPRINTGUID
  2
{F6A4E04C-FA06-4E6A-AA95-9CC5BBF847B7}
  9
$VERSIONGUID
  2
{58D74F2C-32DE-4483-994E-6C2ABE5452ED}
  9
$EXTNAMES
290
     1
  9
$PSVPSCALE
 40
0.0
  9
$OLESTARTUP
290
     0
  0
ENDSEC
  0
SECTION
  2
CLASSES
  0
CLASS
  1
ACDBDICTIONARYWDFLT
  2
AcDbDictionaryWithDefault
  3
ObjectDBX Classes
 90
        0
280
     0
281
     0
  0
CLASS
  1
TABLESTYLE
  2
AcDbTableStyle
  3
ObjectDBX Classes
 90
     2047
280
     0
281
     0
  0
CLASS
  1
DICTIONARYVAR
  2
AcDbDictionaryVar
  3
ObjectDBX Classes
 90
        0
280
     0
281
     0
  0
CLASS
  1
ACDBPLACEHOLDER
  2
AcDbPlaceHolder
  3
ObjectDBX Classes
 90
        0
280
     0
281
     0
  0
CLASS
  1
LAYOUT
  2
AcDbLayout
  3
ObjectDBX Classes
 90
        0
280
     0
281
     0
  0
ENDSEC
  0
SECTION
  2
TABLES
  0
TABLE
  2
VPORT
  5
8
330
0
100
AcDbSymbolTable
 70
     2
  0
VPORT
  5
6CB
330
8
100
AcDbSymbolTableRecord
100
AcDbViewportTableRecord
  2
*Active
 70
     0
 10
0.0
 20
0.0
 11
1.0
 21
1.0
 12
1053.765111094998
 22
728.337939842415
 13
0.0
 23
0.0
 14
1.0
 24
1.0
 15
0.0
 25
0.0
 16
0.0
 26
0.0
 36
1.0
 17
0.0
 27
0.0
 37
0.0
 40
1443.009125706996
 41
2.069696969696969
 42
50.0
 43
0.0
 44
0.0
 50
0.0
 51
0.0
 71
     0
 72
   100
 73
     1
 74
     1
 75
     0
 76
     0
 77
     0
 78
     0
281
     0
 65
     1
110
0.0
120
0.0
130
0.0
111
1.0
121
0.0
131
0.0
112
0.0
122
1.0
132
0.0
 79
     0
146
0.0
  0
ENDTAB
  0
TABLE
  2
LTYPE
  5
5
330
0
100
AcDbSymbolTable
 70
    35
  0
LTYPE
  5
13
330
5
100
AcDbSymbolTableRecord
100
AcDbLinetypeTableRecord
  2
ByBlock
 70
     0
  3

 72
    65
 73
     0
 40
0.0
  0
LTYPE
  5
14
330
5
100
AcDbSymbolTableRecord
100
AcDbLinetypeTableRecord
  2
ByLayer
 70
     0
  3

 72
    65
 73
     0
 40
0.0
  0
LTYPE
  5
15
330
5
100
AcDbSymbolTableRecord
100
AcDbLinetypeTableRecord
  2
CONTINUOUS
 70
     0
  3
実線
 72
    65
 73
     0
 40
0.0
  0
LTYPE
  5
26
330
5
100
AcDbSymbolTableRecord
100
AcDbLinetypeTableRecord
  2
DASHED1
 70
     0
  3
--  --  --  --  --  --  --  --  
 72
    65
 73
     2
 40
2.5
 49
1.25
 74
     0
 49
-1.25
 74
     0
  0
LTYPE
  5
27
330
5
100
AcDbSymbolTableRecord
100
AcDbLinetypeTableRecord
  2
DASHED2
 70
     0
  3
----    ----    ----    ----    
 72
    65
 73
     2
 40
5.0
 49
2.5
 74
     0
 49
-2.5
 74
     0
  0
LTYPE
  5
28
330
5
100
AcDbSymbolTableRecord
100
AcDbLinetypeTableRecord
  2
DASHED3
 70
     0
  3
------  ------  ------  ------  
 72
    65
 73
     2
 40
5.0
 49
3.75
 74
     0
 49
-1.25
 74
     0
  0
LTYPE
  5
29
330
5
100
AcDbSymbolTableRecord
100
AcDbLinetypeTableRecord
  2
CENTER1
 70
     0
  3
----- - ----- - ----- - ----- - 
 72
    65
 73
     4
 40
10.0
 49
6.25
 74
     0
 49
-1.25
 74
     0
 49
1.25
 74
     0
 49
-1.25
 74
     0
  0
LTYPE
  5
2A
330
5
100
AcDbSymbolTableRecord
100
AcDbLinetypeTableRecord
  2
CENTER2
 70
     0
  3
----------  --  ----------  --  
 72
    65
 73
     4
 40
20.0
 49
12.5
 74
     0
 49
-2.5
 74
     0
 49
2.5
 74
     0
 49
-2.5
 74
     0
  0
LTYPE
  5
2B
330
5
100
AcDbSymbolTableRecord
100
AcDbLinetypeTableRecord
  2
PHANTOM1
 70
     0
  3
--- - - --- - - --- - - --- - - 
 72
    65
 73
     6
 40
10.0
 49
3.25
 74
     0
 49
-1.25
 74
     0
 49
1.25
 74
     0
 49
-1.25
 74
     0
 49
1.25
 74
     0
 49
-1.25
 74
     0
  0
LTYPE
  5
2C
330
5
100
AcDbSymbolTableRecord
100
AcDbLinetypeTableRecord
  2
PHANTOM2
 70
     0
  3
--------  -  -  --------  -  -  
 72
    65
 73
     6
 40
20.0
 49
10.0
 74
     0
 49
-2.5
 74
     0
 49
1.25
 74
     0
 49
-2.5
 74
     0
 49
1.25
 74
     0
 49
-2.5
 74
     0
  0
LTYPE
  5
2D
330
5
100
AcDbSymbolTableRecord
100
AcDbLinetypeTableRecord
  2
DOT
 70
     0
  3
-   -   -   -   -   -   -   -   
 72
    65
 73
     2
 40
2.5
 49
0.625
 74
     0
 49
-1.875
 74
     0
  0
LTYPE
  5
2E
330
5
100
AcDbSymbolTableRecord
100
AcDbLinetypeTableRecord
  2
DUMMY
 70
     0
  3
ダミー
 72
    65
 73
     0
 40
0.0
  0
LTYPE
  5
2F
330
5
100
AcDbSymbolTableRecord
100
AcDbLinetypeTableRecord
  2
RAND1
 70
     0
  3
ランダム線1
 72
    65
 73
     4
 40
10.0
 49
1.0
 74
     0
 49
-2.0
 74
     0
 49
3.0
 74
     0
 49
-4.0
 74
     0
  0
LTYPE
  5
30
330
5
100
AcDbSymbolTableRecord
100
AcDbLinetypeTableRecord
  2
RAND2
 70
     0
  3
ランダム線2
 72
    65
 73
     4
 40
14.0
 49
2.0
 74
     0
 49
-3.0
 74
     0
 49
4.0
 74
     0
 49
-5.0
 74
     0
  0
LTYPE
  5
31
330
5
100
AcDbSymbolTableRecord
100
AcDbLinetypeTableRecord
  2
RAND3
 70
     0
  3
ランダム線3
 72
    65
 73
     4
 40
18.0
 49
3.0
 74
     0
 49
-4.0
 74
     0
 49
5.0
 74
     0
 49
-6.0
 74
     0
  0
LTYPE
  5
32
330
5
100
AcDbSymbolTableRecord
100
AcDbLinetypeTableRecord
  2
RAND4
 70
     0
  3
ランダム線4
 72
    65
 73
     4
 40
22.0
 49
4.0
 74
     0
 49
-5.0
 74
     0
 49
6.0
 74
     0
 49
-7.0
 74
     0
  0
LTYPE
  5
33
330
5
100
AcDbSymbolTableRecord
100
AcDbLinetypeTableRecord
  2
RAND5
 70
     0
  3
ランダム線5
 72
    65
 73
     4
 40
26.0
 49
5.0
 74
     0
 49
-6.0
 74
     0
 49
7.0
 74
     0
 49
-8.0
 74
     0
  0
LTYPE
  5
34
330
5
100
AcDbSymbolTableRecord
100
AcDbLinetypeTableRecord
  2
LONG1
 70
     0
  3
----------  --  ----------  --  
 72
    65
 73
     4
 40
40.0
 49
32.5
 74
     0
 49
-2.5
 74
     0
 49
2.5
 74
     0
 49
-2.5
 74
     0
  0
LTYPE
  5
35
330
5
100
AcDbSymbolTableRecord
100
AcDbLinetypeTableRecord
  2
LONG2
 70
     0
  3
--------  -  -  --------  -  -  
 72
    65
 73
     6
 40
40.0
 49
30.0
 74
     0
 49
-2.5
 74
     0
 49
1.25
 74
     0
 49
-2.5
 74
     0
 49
1.25
 74
     0
 49
-2.5
 74
     0
  0
LTYPE
  5
36
330
5
100
AcDbSymbolTableRecord
100
AcDbLinetypeTableRecord
  2
LONG3
 70
     0
  3
+++++++++++++++..+++++++++++++++
 72
    65
 73
     2
 40
40.0
 49
37.5
 74
     0
 49
-2.5
 74
     0
  0
LTYPE
  5
37
330
5
100
AcDbSymbolTableRecord
100
AcDbLinetypeTableRecord
  2
LONG4
 70
     0
  3
+++++++++++++++..+++++++++++++++
 72
    65
 73
     2
 40
80.0
 49
75.0
 74
     0
 49
-5.0
 74
     0
  0
LTYPE
  5
38
330
5
100
AcDbSymbolTableRecord
100
AcDbLinetypeTableRecord
  2
LONG5
 70
     0
  3
----------  --  ----------  --  
 72
    65
 73
     4
 40
60.0
 49
37.5
 74
     0
 49
-7.5
 74
     0
 49
7.5
 74
     0
 49
-7.5
 74
     0
  0
LTYPE
  5
39
330
5
100
AcDbSymbolTableRecord
100
AcDbLinetypeTableRecord
  2
DASHED
 70
     0
  3
-------   -------------   ------
 72
    65
 73
     2
 40
7.5
 49
6.0
 74
     0
 49
-1.5
 74
     0
  0
LTYPE
  5
3A
330
5
100
AcDbSymbolTableRecord
100
AcDbLinetypeTableRecord
  2
DASHED_SPACED
 70
     0
  3
----        --------        ----
 72
    65
 73
     2
 40
12.0
 49
6.0
 74
     0
 49
-6.0
 74
     0
  0
LTYPE
  5
3B
330
5
100
AcDbSymbolTableRecord
100
AcDbLinetypeTableRecord
  2
LONG_DASHED_DOTTED
 70
     0
  3
------------- --- --------------
 72
    65
 73
     4
 40
15.25
 49
12.0
 74
     0
 49
-1.5
 74
     0
 49
0.25
 74
     0
 49
-1.5
 74
     0
  0
LTYPE
  5
3C
330
5
100
AcDbSymbolTableRecord
100
AcDbLinetypeTableRecord
  2
LONG_DASHED_DOUBLE-DOTTED
 70
     0
  3
----------- --- --- ------------
 72
    65
 73
     6
 40
17.0
 49
12.0
 74
     0
 49
-1.5
 74
     0
 49
0.25
 74
     0
 49
-1.5
 74
     0
 49
0.25
 74
     0
 49
-1.5
 74
     0
  0
LTYPE
  5
3D
330
5
100
AcDbSymbolTableRecord
100
AcDbLinetypeTableRecord
  2
LONG_DASHED_TRIPLICATE-DOTTED
 70
     0
  3
--------- --- --- --- ----------
 72
    65
 73
     8
 40
18.75
 49
12.0
 74
     0
 49
-1.5
 74
     0
 49
0.25
 74
     0
 49
-1.5
 74
     0
 49
0.25
 74
     0
 49
-1.5
 74
     0
 49
0.25
 74
     0
 49
-1.5
 74
     0
  0
LTYPE
  5
3E
330
5
100
AcDbSymbolTableRecord
100
AcDbLinetypeTableRecord
  2
DOTTED
 70
     0
  3
   -       -       -       -    
 72
    65
 73
     2
 40
1.75
 49
0.25
 74
     0
 49
-1.5
 74
     0
  0
LTYPE
  5
3F
330
5
100
AcDbSymbolTableRecord
100
AcDbLinetypeTableRecord
  2
CHAIN
 70
     0
  3
-------------- -- --------------
 72
    65
 73
     4
 40
18.5
 49
12.0
 74
     0
 49
-1.5
 74
     0
 49
3.5
 74
     0
 49
-1.5
 74
     0
  0
LTYPE
  5
40
330
5
100
AcDbSymbolTableRecord
100
AcDbLinetypeTableRecord
  2
CHAIN_DOUBLE_DASH
 70
     0
  3
------------ -- -- -------------
 72
    65
 73
     6
 40
23.5
 49
12.0
 74
     0
 49
-1.5
 74
     0
 49
3.5
 74
     0
 49
-1.5
 74
     0
 49
3.5
 74
     0
 49
-1.5
 74
     0
  0
LTYPE
  5
41
330
5
100
AcDbSymbolTableRecord
100
AcDbLinetypeTableRecord
  2
DASHED_DOTTED
 70
     0
  3
-----------     -     ----------
 72
    65
 73
     4
 40
9.25
 49
6.0
 74
     0
 49
-1.5
 74
     0
 49
0.25
 74
     0
 49
-1.5
 74
     0
  0
LTYPE
  5
42
330
5
100
AcDbSymbolTableRecord
100
AcDbLinetypeTableRecord
  2
DOUBLE-DASHED_DOTTED
 70
     0
  3
------   -----------   -   -----
 72
    65
 73
     6
 40
16.75
 49
6.0
 74
     0
 49
-1.5
 74
     0
 49
6.0
 74
     0
 49
-1.5
 74
     0
 49
0.25
 74
     0
 49
-1.5
 74
     0
  0
LTYPE
  5
43
330
5
100
AcDbSymbolTableRecord
100
AcDbLinetypeTableRecord
  2
DASHED_DOUBLE-DOTTED
 70
     0
  3
---------    -    -    ---------
 72
    65
 73
     6
 40
11.0
 49
6.0
 74
     0
 49
-1.5
 74
     0
 49
0.25
 74
     0
 49
-1.5
 74
     0
 49
0.25
 74
     0
 49
-1.5
 74
     0
  0
LTYPE
  5
44
330
5
100
AcDbSymbolTableRecord
100
AcDbLinetypeTableRecord
  2
DOUBLE-DASHED_DOUBLE-DOTTED
 70
     0
  3
-----   ---------   -   -   ----
 72
    65
 73
     8
 40
18.5
 49
6.0
 74
     0
 49
-1.5
 74
     0
 49
6.0
 74
     0
 49
-1.5
 74
     0
 49
0.25
 74
     0
 49
-1.5
 74
     0
 49
0.25
 74
     0
 49
-1.5
 74
     0
  0
LTYPE
  5
45
330
5
100
AcDbSymbolTableRecord
100
AcDbLinetypeTableRecord
  2
DASHED_TRIPLICATE-DOTTED
 70
     0
  3
-------    -    -    -    ------
 72
    65
 73
     8
 40
12.75
 49
6.0
 74
     0
 49
-1.5
 74
     0
 49
0.25
 74
     0
 49
-1.5
 74
     0
 49
0.25
 74
     0
 49
-1.5
 74
     0
 49
0.25
 74
     0
 49
-1.5
 74
     0
  0
LTYPE
  5
46
330
5
100
AcDbSymbolTableRecord
100
AcDbLinetypeTableRecord
  2
DOUBLE-DASHED_TRIPLICATE-DOTTED
 70
     0
  3
-----  ---------  -  -  -  -----
 72
    65
 73
    10
 40
20.25
 49
6.0
 74
     0
 49
-1.5
 74
     0
 49
6.0
 74
     0
 49
-1.5
 74
     0
 49
0.25
 74
     0
 49
-1.5
 74
     0
 49
0.25
 74
     0
 49
-1.5
 74
     0
 49
0.25
 74
     0
 49
-1.5
 74
     0
  0
LTYPE
  5
47
330
5
100
AcDbSymbolTableRecord
100
AcDbLinetypeTableRecord
  2
UNDEFINED
 70
     0
  3
--------------------------------
 72
    65
 73
     0
 40
0.0
  0
ENDTAB
  0
TABLE
  2
LAYER
  5
2
330
0
100
AcDbSymbolTable
 70
    17
  0
LAYER
  5
10
330
2
100
AcDbSymbolTableRecord
100
AcDbLayerTableRecord
  2
0
 70
     0
 62
     7
  6
CONTINUOUS
370
    -3
390
F
  0
LAYER
  5
49
330
2
100
AcDbSymbolTableRecord
100
AcDbLayerTableRecord
  2
_2-A_MOJI
 70
     0
 62
     7
  6
CONTINUOUS
370
    -3
390
F
  0
LAYER
  5
4A
330
2
100
AcDbSymbolTableRecord
100
AcDbLayerTableRecord
  2
_4-2_
 70
     0
 62
     7
  6
CONTINUOUS
370
    -3
390
F
  0
LAYER
  5
4B
330
2
100
AcDbSymbolTableRecord
100
AcDbLayerTableRecord
  2
_4-3_
 70
     0
 62
     7
  6
CONTINUOUS
370
    -3
390
F
  0
LAYER
  5
4C
330
2
100
AcDbSymbolTableRecord
100
AcDbLayerTableRecord
  2
_4-4_
 70
     0
 62
     7
  6
CONTINUOUS
370
    -3
390
F
  0
LAYER
  5
4D
330
2
100
AcDbSymbolTableRecord
100
AcDbLayerTableRecord
  2
_4-6_
 70
     0
 62
     7
  6
CONTINUOUS
370
    -3
390
F
  0
LAYER
  5
4E
330
2
100
AcDbSymbolTableRecord
100
AcDbLayerTableRecord
  2
_4-7_
 70
     0
 62
     7
  6
CONTINUOUS
370
    -3
390
F
  0
LAYER
  5
4F
330
2
100
AcDbSymbolTableRecord
100
AcDbLayerTableRecord
  2
_4-A_
 70
     0
 62
     7
  6
CONTINUOUS
370
    -3
390
F
  0
LAYER
  5
50
330
2
100
AcDbSymbolTableRecord
100
AcDbLayerTableRecord
  2
_4-B_
 70
     0
 62
     7
  6
CONTINUOUS
370
    -3
390
F
  0
LAYER
  5
51
330
2
100
AcDbSymbolTableRecord
100
AcDbLayerTableRecord
  2
_4-D_
 70
     0
 62
     7
  6
CONTINUOUS
370
    -3
390
F
  0
LAYER
  5
52
330
2
100
AcDbSymbolTableRecord
100
AcDbLayerTableRecord
  2
_4-E_
 70
     0
 62
     7
  6
CONTINUOUS
370
    -3
390
F
  0
LAYER
  5
53
330
2
100
AcDbSymbolTableRecord
100
AcDbLayerTableRecord
  2
_F-2_
 70
     0
 62
     7
  6
CONTINUOUS
370
    -3
390
F
  0
LAYER
  5
54
330
2
100
AcDbSymbolTableRecord
100
AcDbLayerTableRecord
  2
_F-5_
 70
     0
 62
     7
  6
CONTINUOUS
370
    -3
390
F
  0
LAYER
  5
55
330
2
100
AcDbSymbolTableRecord
100
AcDbLayerTableRecord
  2
_F-7_
 70
     0
 62
     7
  6
CONTINUOUS
370
    -3
390
F
  0
LAYER
  5
56
330
2
100
AcDbSymbolTableRecord
100
AcDbLayerTableRecord
  2
_F-8_
 70
     0
 62
     7
  6
CONTINUOUS
370
    -3
390
F
  0
LAYER
  5
57
330
2
100
AcDbSymbolTableRecord
100
AcDbLayerTableRecord
  2
_F-A_
 70
     0
 62
     7
  6
CONTINUOUS
370
    -3
390
F
  0
LAYER
  5
58
330
2
100
AcDbSymbolTableRecord
100
AcDbLayerTableRecord
  2
ADD_LINE
 70
     0
 62
     7
  6
CONTINUOUS
370
    -3
390
F
  0
ENDTAB
  0
TABLE
  2
STYLE
  5
3
330
0
100
AcDbSymbolTable
 70
     2
  0
STYLE
  5
11
330
3
100
AcDbSymbolTableRecord
100
AcDbTextStyleTableRecord
  2
STANDARD
 70
     0
 40
0.0
 41
1.0
 50
0.0
 71
     0
 42
0.2
  3
txt
  4
bigfont.shx
  0
STYLE
  5
48
330
3
100
AcDbSymbolTableRecord
100
AcDbTextStyleTableRecord
  2
TATEGAKI
 70
     4
 40
0.0
 41
1.0
 50
0.0
 71
     0
 42
1.0
  3
txt
  4
bigfont.shx
  0
ENDTAB
  0
TABLE
  2
VIEW
  5
6
330
0
100
AcDbSymbolTable
 70
     0
  0
ENDTAB
  0
TABLE
  2
UCS
  5
7
330
0
100
AcDbSymbolTable
 70
     0
  0
ENDTAB
  0
TABLE
  2
APPID
  5
9
330
0
100
AcDbSymbolTable
 70
     1
  0
APPID
  5
12
330
9
100
AcDbSymbolTableRecord
100
AcDbRegAppTableRecord
  2
ACAD
 70
     0
  0
ENDTAB
  0
TABLE
  2
DIMSTYLE
  5
A
330
0
100
AcDbSymbolTable
 70
     1
100
AcDbDimStyleTable
 71
     0
  0
DIMSTYLE
105
6C5
330
A
100
AcDbSymbolTableRecord
100
AcDbDimStyleTableRecord
  2
Standard
 70
     0
340
11
  0
ENDTAB
  0
TABLE
  2
BLOCK_RECORD
  5
1
330
0
100
AcDbSymbolTable
 70
     0
  0
BLOCK_RECORD
  5
22
330
1
100
AcDbSymbolTableRecord
100
AcDbBlockTableRecord
  2
*Model_Space
340
25
  0
BLOCK_RECORD
  5
1E
330
1
100
AcDbSymbolTableRecord
100
AcDbBlockTableRecord
  2
*Paper_Space
340
21
  0
ENDTAB
  0
ENDSEC
  0
SECTION
  2
BLOCKS
  0
BLOCK
  5
23
330
22
100
AcDbEntity
  8
0
100
AcDbBlockBegin
  2
*Model_Space
 70
     0
 10
0.0
 20
0.0
 30
0.0
  3
*Model_Space
  1

  0
ENDBLK
  5
24
330
22
100
AcDbEntity
  8
0
100
AcDbBlockEnd
  0
BLOCK
  5
1F
330
1E
100
AcDbEntity
 67
     1
  8
0
100
AcDbBlockBegin
  2
*Paper_Space
 70
     0
 10
0.0
 20
0.0
 30
0.0
  3
*Paper_Space
  1

  0
ENDBLK
  5
20
330
1E
100
AcDbEntity
 67
     1
  8
0
100
AcDbBlockEnd
  0
ENDSEC
  0
SECTION
  2
ENTITIES
  0
LINE
  5
5C
330
22
100
AcDbEntity
  8
ADD_LINE
  6
DOT
 62
   136
100
AcDbLine
 10
1553.783375961779
 20
13.34291341028944
 30
0.0
 11
553.7833759617761
 21
13.34291341028944
 31
0.0
  0
LINE
  5
5D
330
22
100
AcDbEntity
  8
ADD_LINE
  6
DOT
 62
   136
100
AcDbLine
 10
653.7833759617784
 20
773.3429134102892
 30
0.0
 11
1453.783375961778
 21
773.3429134102892
 31
0.0
  0
LINE
  5
5E
330
22
100
AcDbEntity
  8
ADD_LINE
  6
DOT
 62
   136
100
AcDbLine
 10
673.7833759617784
 20
793.3429134102892
 30
0.0
 11
673.7833759617784
 21
753.3429134102893
 31
0.0
  0
LINE
  5
5F
330
22
100
AcDbEntity
  8
ADD_LINE
  6
DOT
 62
   136
100
AcDbLine
 10
958.7833759617785
 20
793.3429134102892
 30
0.0
 11
958.7833759617785
 21
753.3429134102893
 31
0.0
  0
LINE
  5
60
330
22
100
AcDbEntity
  8
ADD_LINE
  6
DOT
 62
   136
100
AcDbLine
 10
808.7833759617785
 20
793.3429134102892
 30
0.0
 11
808.7833759617785
 21
753.3429134102893
 31
0.0
  0
LINE
  5
61
330
22
100
AcDbEntity
  8
ADD_LINE
  6
DOT
 62
   136
100
AcDbLine
 10
553.7833759617784
 20
1443.342913410289
 30
0.0
 11
553.7833759617784
 21
13.34291341028944
 31
0.0
  0
LINE
  5
62
330
22
100
AcDbEntity
  8
ADD_LINE
  6
DOT
 62
   136
100
AcDbLine
 10
553.7833759617784
 20
1443.342913410289
 30
0.0
 11
1553.783375961779
 21
1443.342913410289
 31
0.0
  0
LINE
  5
63
330
22
100
AcDbEntity
  8
ADD_LINE
  6
DOT
 62
   136
100
AcDbLine
 10
1553.783375961779
 20
1443.342913410289
 30
0.0
 11
1553.783375961779
 21
13.34291341028944
 31
0.0
  0
LINE
  5
64
330
22
100
AcDbEntity
  8
ADD_LINE
  6
DOT
 62
   136
100
AcDbLine
 10
653.7833759617784
 20
133.3429134102894
 30
0.0
 11
1453.783375961778
 21
133.3429134102894
 31
0.0
  0
LINE
  5
65
330
22
100
AcDbEntity
  8
ADD_LINE
  6
DOT
 62
   136
100
AcDbLine
 10
673.7833759617784
 20
153.3429134102894
 30
0.0
 11
673.7833759617784
 21
113.3429134102894
 31
0.0
  0
LINE
  5
66
330
22
100
AcDbEntity
  8
ADD_LINE
  6
DOT
 62
   136
100
AcDbLine
 10
958.7833759617785
 20
153.3429134102894
 30
0.0
 11
958.7833759617785
 21
113.3429134102894
 31
0.0
  0
LINE
  5
67
330
22
100
AcDbEntity
  8
ADD_LINE
  6
DOT
 62
   136
100
AcDbLine
 10
808.7833759617785
 20
153.3429134102894
 30
0.0
 11
808.7833759617785
 21
113.3429134102894
 31
0.0
  0
LINE
  5
68
330
22
100
AcDbEntity
  8
ADD_LINE
  6
DOT
 62
   136
100
AcDbLine
 10
1338.783375961778
 20
793.3429134102892
 30
0.0
 11
1338.783375961778
 21
753.3429134102893
 31
0.0
  0
LINE
  5
69
330
22
100
AcDbEntity
  8
ADD_LINE
  6
DOT
 62
   136
100
AcDbLine
 10
1233.783375961778
 20
793.3429134102892
 30
0.0
 11
1233.783375961778
 21
753.3429134102893
 31
0.0
  0
LINE
  5
6A
330
22
100
AcDbEntity
  8
ADD_LINE
  6
DOT
 62
   136
100
AcDbLine
 10
1338.783375961778
 20
153.3429134102894
 30
0.0
 11
1338.783375961778
 21
113.3429134102894
 31
0.0
  0
LINE
  5
6B
330
22
100
AcDbEntity
  8
ADD_LINE
  6
DOT
 62
   136
100
AcDbLine
 10
1233.783375961778
 20
153.3429134102894
 30
0.0
 11
1233.783375961778
 21
113.3429134102894
 31
0.0
  0
LINE
  5
6C
330
22
100
AcDbEntity
  8
_F-7_
  6
Continuous
 62
     1
100
AcDbLine
 10
653.7833759617784
 20
753.3429134102893
 30
0.0
 11
1453.783375961778
 21
753.3429134102893
 31
0.0
  0
LINE
  5
6D
330
22
100
AcDbEntity
  8
_F-5_
  6
Continuous
 62
     6
100
AcDbLine
 10
653.7833759617784
 20
793.3429134102892
 30
0.0
 11
1453.783375961778
 21
793.3429134102892
 31
0.0
  0
LINE
  5
6E
330
22
100
AcDbEntity
  8
_F-2_
  6
Continuous
 62
     7
100
AcDbLine
 10
943.7833759617785
 20
793.3429134102892
 30
0.0
 11
943.7833759617785
 21
753.3429134102893
 31
0.0
  0
TEXT
  5
6F
330
22
100
AcDbEntity
  8
_F-A_
 62
     7
100
AcDbText
 10
808.7833759617785
 20
763.3429134102892
 30
0.0
 40
17.5
  1
下地：ＲＣ
100
AcDbText
  0
TEXT
  5
70
330
22
100
AcDbEntity
  8
_F-A_
 62
     7
100
AcDbText
 10
673.7833759617784
 20
763.3429134102892
 30
0.0
 40
20.0
  1
１１０仕様
100
AcDbText
  0
LINE
  5
71
330
22
100
AcDbEntity
  8
_F-7_
  6
Continuous
 62
     1
100
AcDbLine
 10
653.7833759617784
 20
1343.342913410289
 30
0.0
 11
1453.783375961778
 21
1343.342913410289
 31
0.0
  0
LINE
  5
72
330
22
100
AcDbEntity
  8
_F-7_
  6
Continuous
 62
     1
100
AcDbLine
 10
1453.783375961778
 20
1343.342913410289
 30
0.0
 11
1453.783375961778
 21
753.3429134102893
 31
0.0
  0
LINE
  5
73
330
22
100
AcDbEntity
  8
_F-7_
  6
Continuous
 62
     1
100
AcDbLine
 10
653.7833759617784
 20
1343.342913410289
 30
0.0
 11
653.7833759617784
 21
753.3429134102893
 31
0.0
  0
TEXT
  5
74
330
22
100
AcDbEntity
  8
_F-A_
 62
     7
100
AcDbText
 10
958.7833759617785
 20
763.3429134102892
 30
0.0
 40
17.5
  1
部位：パラペット
100
AcDbText
  0
LINE
  5
75
330
22
100
AcDbEntity
  8
_F-5_
  6
Continuous
 62
     6
100
AcDbLine
 10
793.7833759617785
 20
793.3429134102892
 30
0.0
 11
793.7833759617785
 21
753.3429134102893
 31
0.0
  0
LINE
  5
76
330
22
100
AcDbEntity
  8
_F-5_
  6
Continuous
 62
     6
100
AcDbLine
 10
791.2833759617784
 20
793.3429134102892
 30
0.0
 11
791.2833759617784
 21
753.3429134102893
 31
0.0
  0
LINE
  5
77
330
22
100
AcDbEntity
  8
_F-7_
  6
Continuous
 62
     1
100
AcDbLine
 10
653.7833759617784
 20
113.3429134102894
 30
0.0
 11
1453.783375961778
 21
113.3429134102894
 31
0.0
  0
LINE
  5
78
330
22
100
AcDbEntity
  8
_F-5_
  6
Continuous
 62
     6
100
AcDbLine
 10
653.7833759617784
 20
153.3429134102894
 30
0.0
 11
1453.783375961778
 21
153.3429134102894
 31
0.0
  0
LINE
  5
79
330
22
100
AcDbEntity
  8
_F-2_
  6
Continuous
 62
     7
100
AcDbLine
 10
943.7833759617785
 20
153.3429134102894
 30
0.0
 11
943.7833759617785
 21
113.3429134102894
 31
0.0
  0
TEXT
  5
7A
330
22
100
AcDbEntity
  8
_F-A_
 62
     7
100
AcDbText
 10
808.7833759617785
 20
123.3429134102894
 30
0.0
 40
17.5
  1
下地：ＲＣ
100
AcDbText
  0
TEXT
  5
7B
330
22
100
AcDbEntity
  8
_F-A_
 62
     7
100
AcDbText
 10
673.7833759617784
 20
123.3429134102894
 30
0.0
 40
20.0
  1
１１０仕様
100
AcDbText
  0
LINE
  5
7C
330
22
100
AcDbEntity
  8
_F-7_
  6
Continuous
 62
     1
100
AcDbLine
 10
653.7833759617784
 20
703.3429134102893
 30
0.0
 11
1453.783375961778
 21
703.3429134102893
 31
0.0
  0
LINE
  5
7D
330
22
100
AcDbEntity
  8
_F-7_
  6
Continuous
 62
     1
100
AcDbLine
 10
1453.783375961778
 20
703.3429134102893
 30
0.0
 11
1453.783375961778
 21
113.3429134102894
 31
0.0
  0
LINE
  5
7E
330
22
100
AcDbEntity
  8
_F-7_
  6
Continuous
 62
     1
100
AcDbLine
 10
653.7833759617784
 20
703.3429134102893
 30
0.0
 11
653.7833759617784
 21
113.3429134102894
 31
0.0
  0
TEXT
  5
7F
330
22
100
AcDbEntity
  8
_F-A_
 62
     7
100
AcDbText
 10
958.7833759617785
 20
123.3429134102894
 30
0.0
 40
17.5
  1
部位：パラペット
100
AcDbText
  0
LINE
  5
80
330
22
100
AcDbEntity
  8
_F-5_
  6
Continuous
 62
     6
100
AcDbLine
 10
793.7833759617785
 20
153.3429134102894
 30
0.0
 11
793.7833759617785
 21
113.3429134102894
 31
0.0
  0
LINE
  5
81
330
22
100
AcDbEntity
  8
_F-5_
  6
Continuous
 62
     6
100
AcDbLine
 10
791.2833759617784
 20
153.3429134102894
 30
0.0
 11
791.2833759617784
 21
113.3429134102894
 31
0.0
  0
LINE
  5
82
330
22
100
AcDbEntity
  8
_F-2_
  6
Continuous
 62
     7
100
AcDbLine
 10
1323.783375961778
 20
793.3429134102892
 30
0.0
 11
1323.783375961778
 21
753.3429134102893
 31
0.0
  0
LINE
  5
83
330
22
100
AcDbEntity
  8
_F-2_
  6
Continuous
 62
     7
100
AcDbLine
 10
1218.783375961778
 20
793.3429134102892
 30
0.0
 11
1218.783375961778
 21
753.3429134102893
 31
0.0
  0
TEXT
  5
84
330
22
100
AcDbEntity
  8
_F-A_
 62
     7
100
AcDbText
 10
1338.783375961778
 20
763.3429134102892
 30
0.0
 40
15.0
  1
図番
100
AcDbText
  0
TEXT
  5
85
330
22
100
AcDbEntity
  8
_F-A_
 62
     7
100
AcDbText
 10
1233.783375961778
 20
763.3429134102892
 30
0.0
 40
15.0
  1
Ｓ＝１：８
100
AcDbText
  0
LINE
  5
86
330
22
100
AcDbEntity
  8
_F-2_
  6
Continuous
 62
     7
100
AcDbLine
 10
1323.783375961778
 20
153.3429134102894
 30
0.0
 11
1323.783375961778
 21
113.3429134102894
 31
0.0
  0
LINE
  5
87
330
22
100
AcDbEntity
  8
_F-2_
  6
Continuous
 62
     7
100
AcDbLine
 10
1218.783375961778
 20
153.3429134102894
 30
0.0
 11
1218.783375961778
 21
113.3429134102894
 31
0.0
  0
TEXT
  5
88
330
22
100
AcDbEntity
  8
_F-A_
 62
     7
100
AcDbText
 10
1338.783375961778
 20
123.3429134102894
 30
0.0
 40
15.0
  1
図番
100
AcDbText
  0
TEXT
  5
89
330
22
100
AcDbEntity
  8
_F-A_
 62
     7
100
AcDbText
 10
1233.783375961778
 20
123.3429134102894
 30
0.0
 40
15.0
  1
Ｓ＝１：８
100
AcDbText
  0
TEXT
  5
8A
330
22
100
AcDbEntity
  8
_F-A_
 62
     7
100
AcDbText
 10
1385.201044685885
 20
763.3429134102892
 30
0.0
 40
15.0
  1
１－５
100
AcDbText
  0
TEXT
  5
8B
330
22
100
AcDbEntity
  8
_F-A_
 62
     7
100
AcDbText
 10
1385.201044685885
 20
123.3429134102894
 30
0.0
 40
15.0
  1
１－６
100
AcDbText
  0
LINE
  5
8C
330
22
100
AcDbEntity
  8
_4-4_
  6
Continuous
 62
     2
100
AcDbLine
 10
858.7833759617785
 20
971.170269130588
 30
0.0
 11
1378.783375961778
 21
971.170269130588
 31
0.0
  0
ARC
  5
8D
330
22
100
AcDbEntity
  8
_4-6_
  6
Continuous
 62
     2
100
AcDbCircle
 10
827.806829086777
 20
1205.231077886898
 30
0.0
 40
0.1173425
100
AcDbArc
 50
355.0659180000001
 51
125.411952
  0
LINE
  5
8E
330
22
100
AcDbEntity
  8
_4-6_
  6
Continuous
 62
     2
100
AcDbLine
 10
827.1144468090515
 20
1194.920105654065
 30
0.0
 11
827.1113086645561
 21
1203.613069924778
 31
0.0
  0
LINE
  5
8F
330
22
100
AcDbEntity
  8
_4-6_
  6
Continuous
 62
     2
100
AcDbLine
 10
827.1144468090515
 20
1194.920105654065
 30
0.0
 11
825.1115009617784
 21
1192.744459690997
 31
0.0
  0
LINE
  5
90
330
22
100
AcDbEntity
  8
_4-6_
  6
Continuous
 62
     2
100
AcDbLine
 10
825.1115009617784
 20
1189.185333511897
 30
0.0
 11
825.1115009617784
 21
1192.744459690997
 31
0.0
  0
LINE
  5
91
330
22
100
AcDbEntity
  8
_4-6_
  6
Continuous
 62
     2
100
AcDbLine
 10
825.1115009617784
 20
1189.185333511897
 30
0.0
 11
826.2052509617772
 21
1189.185333511897
 31
0.0
  0
LINE
  5
92
330
22
100
AcDbEntity
  8
_4-6_
  6
Continuous
 62
     2
100
AcDbLine
 10
826.2052509617772
 20
1192.311251560897
 30
0.0
 11
826.2052509617772
 21
1189.185333511897
 31
0.0
  0
LINE
  5
93
330
22
100
AcDbEntity
  8
_4-6_
  6
Continuous
 62
     2
100
AcDbLine
 10
827.9240010261775
 20
1194.185333582114
 30
0.0
 11
826.2052509617772
 21
1192.311251560897
 31
0.0
  0
LINE
  5
94
330
22
100
AcDbEntity
  8
_4-6_
  6
Continuous
 62
     2
100
AcDbLine
 10
827.9237359617786
 20
1205.223541011898
 30
0.0
 11
827.9240010261775
 21
1194.185333582114
 31
0.0
  0
LINE
  5
95
330
22
100
AcDbEntity
  8
_4-6_
  6
Continuous
 62
     2
100
AcDbLine
 10
827.742291586777
 20
1205.329441636896
 30
0.0
 11
827.1114007005655
 21
1204.95962409664
 31
0.0
  0
ARC
  5
96
330
22
100
AcDbEntity
  8
_4-7_
  6
Continuous
 62
     7
100
AcDbCircle
 10
827.9238684617778
 20
1199.705778199397
 30
0.0
 40
2.069499895611049
100
AcDbArc
 50
270.0
 51
90.0
  0
LINE
  5
97
330
22
100
AcDbEntity
  8
_4-7_
  6
Continuous
 62
     7
100
AcDbLine
 10
827.9238684617778
 20
1197.636278303784
 30
0.0
 11
827.9238684617778
 21
1201.775278095007
 31
0.0
  0
LINE
  5
98
330
22
100
AcDbEntity
  8
_4-6_
  6
Continuous
 62
     2
100
AcDbLine
 10
822.5333759617784
 20
1208.300651095586
 30
0.0
 11
827.1113086645561
 21
1203.613069924778
 31
0.0
  0
LINE
  5
99
330
22
100
AcDbEntity
  8
_4-6_
  6
Continuous
 62
     2
100
AcDbLine
 10
823.4708759617785
 20
1211.795269130588
 30
0.0
 11
822.5333759617784
 21
1211.795269130588
 31
0.0
  0
LINE
  5
9A
330
22
100
AcDbEntity
  8
_4-6_
  6
Continuous
 62
     2
100
AcDbLine
 10
822.5333759617784
 20
1211.795269130588
 30
0.0
 11
822.5333759617784
 21
1208.300651095586
 31
0.0
  0
LINE
  5
9B
330
22
100
AcDbEntity
  8
_4-6_
  6
Continuous
 62
     2
100
AcDbLine
 10
823.4708759617785
 20
1211.795269130588
 30
0.0
 11
823.4708759617785
 21
1208.696529406769
 31
0.0
  0
LINE
  5
9C
330
22
100
AcDbEntity
  8
_4-6_
  6
Continuous
 62
     2
100
AcDbLine
 10
823.4708759617785
 20
1208.696529406769
 30
0.0
 11
827.1114007005655
 21
1204.95962409664
 31
0.0
  0
LINE
  5
9D
330
22
100
AcDbEntity
  8
_4-2_
  6
Continuous
 62
     7
100
AcDbLine
 10
825.6583759617784
 20
1205.100802581015
 30
0.0
 11
822.5333759617784
 21
1205.100802581015
 31
0.0
  0
LINE
  5
9E
330
22
100
AcDbEntity
  8
_4-7_
  6
Continuous
 62
     7
100
AcDbLine
 10
827.9238684617778
 20
1198.455778199396
 30
0.0
 11
822.5333759617784
 21
1198.455778199396
 31
0.0
  0
LINE
  5
9F
330
22
100
AcDbEntity
  8
_4-7_
  6
Continuous
 62
     7
100
AcDbLine
 10
827.9238684617778
 20
1200.955778199397
 30
0.0
 11
822.5333759617784
 21
1200.955778199397
 31
0.0
  0
LINE
  5
A0
330
22
100
AcDbEntity
  8
_4-2_
  6
Continuous
 62
     7
100
AcDbLine
 10
825.6583759617784
 20
1193.338487925795
 30
0.0
 11
825.6583759617784
 21
1198.455778199396
 31
0.0
  0
LINE
  5
A1
330
22
100
AcDbEntity
  8
_4-2_
  6
Continuous
 62
     7
100
AcDbLine
 10
825.6583759617784
 20
1200.955778199397
 30
0.0
 11
825.6583759617784
 21
1205.100802581015
 31
0.0
  0
LINE
  5
A2
330
22
100
AcDbEntity
  8
_4-D_
  6
Continuous
 62
     4
100
AcDbLine
 10
825.6583759617765
 20
1194.480992058769
 30
0.0
 11
827.1140798217935
 21
1195.936695918784
 31
0.0
  0
LINE
  5
A3
330
22
100
AcDbEntity
  8
_4-D_
  6
Continuous
 62
     4
100
AcDbLine
 10
825.6583759617795
 20
1196.690700749988
 30
0.0
 11
827.113282408785
 21
1198.14560719699
 31
0.0
  0
LINE
  5
A4
330
22
100
AcDbEntity
  8
_4-D_
  6
Continuous
 62
     4
100
AcDbLine
 10
825.6583759617795
 20
1201.110118132405
 30
0.0
 11
827.1116875827713
 21
1202.563429753396
 31
0.0
  0
LINE
  5
A5
330
22
100
AcDbEntity
  8
_4-D_
  6
Continuous
 62
     4
100
AcDbLine
 10
825.6583759617765
 20
1203.319826823603
 30
0.0
 11
826.5383257707105
 21
1204.199776632535
 31
0.0
  0
LINE
  5
A6
330
22
100
AcDbEntity
  8
_4-D_
  6
Continuous
 62
     4
100
AcDbLine
 10
825.2296430279761
 20
1205.100802581015
 30
0.0
 11
825.4465463163658
 21
1205.317705869405
 31
0.0
  0
LINE
  5
A7
330
22
100
AcDbEntity
  8
_4-D_
  6
Continuous
 62
     4
100
AcDbLine
 10
823.0199343367758
 20
1205.10080258102
 30
0.0
 11
824.3547668620273
 21
1206.435635106269
 31
0.0
  0
LINE
  5
A8
330
22
100
AcDbEntity
  8
_4-D_
  6
Continuous
 62
     4
100
AcDbLine
 10
822.5333759617772
 20
1206.823952897233
 30
0.0
 11
823.2629874076826
 21
1207.55356434314
 31
0.0
  0
LINE
  5
A9
330
22
100
AcDbEntity
  8
_4-D_
  6
Continuous
 62
     4
100
AcDbLine
 10
827.5627416416375
 20
1205.224192503464
 30
0.0
 11
827.9596354385727
 21
1205.621086300399
 31
0.0
  0
LINE
  5
AA
330
22
100
AcDbEntity
  8
_4-D_
  6
Continuous
 62
     4
100
AcDbLine
 10
825.0227264362102
 20
1207.103594680453
 30
0.0
 11
828.8529238061878
 21
1210.933792050431
 31
0.0
  0
LINE
  5
AB
330
22
100
AcDbEntity
  8
_4-D_
  6
Continuous
 62
     4
100
AcDbLine
 10
823.4708759617785
 20
1209.971161588438
 30
0.0
 11
831.1986947284898
 21
1217.69898035515
 31
0.0
  0
LINE
  5
AC
330
22
100
AcDbEntity
  8
_4-D_
  6
Continuous
 62
     4
100
AcDbLine
 10
822.5333759617772
 20
1213.453078970853
 30
0.0
 11
827.1255661215127
 21
1218.045269130588
 31
0.0
  0
LINE
  5
AD
330
22
100
AcDbEntity
  8
_4-D_
  6
Continuous
 62
     4
100
AcDbLine
 10
822.5333759617772
 20
1217.872496353269
 30
0.0
 11
822.706148739096
 21
1218.045269130588
 31
0.0
  0
LINE
  5
AE
330
22
100
AcDbEntity
  8
_4-2_
  6
Continuous
 62
     7
100
AcDbLine
 10
822.5333759617784
 20
1218.045269130588
 30
0.0
 11
831.3593076567519
 21
1218.045269130588
 31
0.0
  0
ARC
  5
AF
330
22
100
AcDbEntity
  8
_4-4_
  6
Continuous
 62
     2
100
AcDbCircle
 10
865.3632935179359
 20
1202.063417136945
 30
0.0
 40
37.57247193883147
100
AcDbArc
 50
154.8265049560955
 51
175.1792108386726
  0
LINE
  5
B0
330
22
100
AcDbEntity
  8
_4-4_
  6
Continuous
 62
     2
100
AcDbLine
 10
831.3593076567519
 20
1218.045269130588
 30
0.0
 11
872.5333759617784
 21
1218.045269130588
 31
0.0
  0
LINE
  5
B1
330
22
100
AcDbEntity
  8
_4-4_
  6
Continuous
 62
     2
100
AcDbLine
 10
872.5333759617784
 20
1218.045269130588
 30
0.0
 11
875.6583759617784
 21
1227.420269130588
 31
0.0
  0
LINE
  5
B2
330
22
100
AcDbEntity
  8
_4-4_
  6
Continuous
 62
     2
100
AcDbLine
 10
875.6583759617784
 20
1227.420269130588
 30
0.0
 11
885.0333759617784
 21
1227.420269130588
 31
0.0
  0
LINE
  5
B3
330
22
100
AcDbEntity
  8
_4-4_
  6
Continuous
 62
     2
100
AcDbLine
 10
885.0333759617784
 20
1227.420269130588
 30
0.0
 11
885.0333759617784
 21
1218.045269130588
 31
0.0
  0
LINE
  5
B4
330
22
100
AcDbEntity
  8
_4-4_
  6
Continuous
 62
     2
100
AcDbLine
 10
885.0333759617784
 20
1218.045269130588
 30
0.0
 11
916.2833759617784
 21
1218.045269130588
 31
0.0
  0
LINE
  5
B5
330
22
100
AcDbEntity
  8
_4-4_
  6
Continuous
 62
     2
100
AcDbLine
 10
916.2833759617784
 20
1311.795269130588
 30
0.0
 11
916.2833759617784
 21
1218.045269130588
 31
0.0
  0
LINE
  5
B6
330
22
100
AcDbEntity
  8
_4-4_
  6
Continuous
 62
     2
100
AcDbLine
 10
728.7833759617784
 20
1318.342913410289
 30
0.0
 11
916.2833759617784
 21
1311.795269130588
 31
0.0
  0
ARC
  5
B7
330
22
100
AcDbEntity
  8
_4-4_
  6
Continuous
 62
     2
100
AcDbCircle
 10
827.5333759617785
 20
976.1702691305902
 30
0.0
 40
1.875
100
AcDbArc
 50
180.0
 51
270.0
  0
ARC
  5
B8
330
22
100
AcDbEntity
  8
_4-2_
  6
Continuous
 62
     7
100
AcDbCircle
 10
827.5333759617785
 20
976.1702691305902
 30
0.0
 40
5.0
100
AcDbArc
 50
180.0
 51
270.0
  0
LINE
  5
B9
330
22
100
AcDbEntity
  8
_4-2_
  6
Continuous
 62
     7
100
AcDbLine
 10
855.035168419946
 20
974.295269130588
 30
0.0
 11
855.0465551621471
 21
974.3770847222656
 31
0.0
  0
LINE
  5
BA
330
22
100
AcDbEntity
  8
_4-2_
  6
Continuous
 62
     7
100
AcDbLine
 10
855.0465551621471
 20
974.3770847222656
 30
0.0
 11
855.067221899436
 21
974.517755931653
 31
0.0
  0
LINE
  5
BB
330
22
100
AcDbEntity
  8
_4-2_
  6
Continuous
 62
     7
100
AcDbLine
 10
855.067221899436
 20
974.517755931653
 30
0.0
 11
855.0907620343524
 21
974.6573433755647
 31
0.0
  0
LINE
  5
BC
330
22
100
AcDbEntity
  8
_4-2_
  6
Continuous
 62
     7
100
AcDbLine
 10
855.0907620343524
 20
974.6573433755647
 30
0.0
 11
855.1189941729919
 21
974.7951611264845
 31
0.0
  0
LINE
  5
BD
330
22
100
AcDbEntity
  8
_4-2_
  6
Continuous
 62
     7
100
AcDbLine
 10
855.1189941729919
 20
974.7951611264845
 30
0.0
 11
855.1537369214484
 21
974.930523256893
 31
0.0
  0
LINE
  5
BE
330
22
100
AcDbEntity
  8
_4-2_
  6
Continuous
 62
     7
100
AcDbLine
 10
855.1537369214484
 20
974.930523256893
 30
0.0
 11
855.1968088858165
 21
975.0627438392816
 31
0.0
  0
LINE
  5
BF
330
22
100
AcDbEntity
  8
_4-2_
  6
Continuous
 62
     7
100
AcDbLine
 10
855.1968088858165
 20
975.0627438392816
 30
0.0
 11
855.2263236972498
 21
975.1377220286499
 31
0.0
  0
LINE
  5
C0
330
22
100
AcDbEntity
  8
_4-2_
  6
Continuous
 62
     7
100
AcDbLine
 10
855.2263236972498
 20
975.1377220286499
 30
0.0
 11
855.2519118605379
 21
975.1952950533938
 31
0.0
  0
LINE
  5
C1
330
22
100
AcDbEntity
  8
_4-2_
  6
Continuous
 62
     7
100
AcDbLine
 10
855.2519118605379
 20
975.1952950533938
 30
0.0
 11
855.3009213434652
 21
975.2926164927783
 31
0.0
  0
LINE
  5
C2
330
22
100
AcDbEntity
  8
_4-2_
  6
Continuous
 62
     7
100
AcDbLine
 10
855.3009213434652
 20
975.2926164927783
 30
0.0
 11
855.3553632274187
 21
975.387618744577
 31
0.0
  0
LINE
  5
C3
330
22
100
AcDbEntity
  8
_4-2_
  6
Continuous
 62
     7
100
AcDbLine
 10
855.3553632274187
 20
975.387618744577
 30
0.0
 11
855.4143538456377
 21
975.4804640669535
 31
0.0
  0
LINE
  5
C4
330
22
100
AcDbEntity
  8
_4-2_
  6
Continuous
 62
     7
100
AcDbLine
 10
855.4143538456377
 20
975.4804640669535
 30
0.0
 11
855.4770095313516
 21
975.5713147180623
 31
0.0
  0
LINE
  5
C5
330
22
100
AcDbEntity
  8
_4-2_
  6
Continuous
 62
     7
100
AcDbLine
 10
855.4770095313516
 20
975.5713147180623
 30
0.0
 11
855.5424466177996
 21
975.6603329560599
 31
0.0
  0
LINE
  5
C6
330
22
100
AcDbEntity
  8
_4-2_
  6
Continuous
 62
     7
100
AcDbLine
 10
855.5424466177996
 20
975.6603329560599
 30
0.0
 11
855.5813263550986
 21
975.71118786056
 31
0.0
  0
LINE
  5
C7
330
22
100
AcDbEntity
  8
_4-2_
  6
Continuous
 62
     7
100
AcDbLine
 10
855.5813263550986
 20
975.71118786056
 30
0.0
 11
855.6277115263092
 21
975.7703651060626
 31
0.0
  0
LINE
  5
C8
330
22
100
AcDbEntity
  8
_4-2_
  6
Continuous
 62
     7
100
AcDbLine
 10
855.6277115263092
 20
975.7703651060626
 30
0.0
 11
855.7091021138726
 21
975.8708143522257
 31
0.0
  0
LINE
  5
C9
330
22
100
AcDbEntity
  8
_4-2_
  6
Continuous
 62
     7
100
AcDbLine
 10
855.7091021138726
 20
975.8708143522257
 30
0.0
 11
855.7921345008855
 21
975.9694810787223
 31
0.0
  0
LINE
  5
CA
330
22
100
AcDbEntity
  8
_4-2_
  6
Continuous
 62
     7
100
AcDbLine
 10
855.7921345008855
 20
975.9694810787223
 30
0.0
 11
855.8766333372169
 21
976.0666188871383
 31
0.0
  0
LINE
  5
CB
330
22
100
AcDbEntity
  8
_4-2_
  6
Continuous
 62
     7
100
AcDbLine
 10
855.8766333372169
 20
976.0666188871383
 30
0.0
 11
855.9624232727319
 21
976.1624813790662
 31
0.0
  0
LINE
  5
CC
330
22
100
AcDbEntity
  8
_4-2_
  6
Continuous
 62
     7
100
AcDbLine
 10
855.9624232727319
 20
976.1624813790662
 30
0.0
 11
856.0493289572978
 21
976.2573221561018
 31
0.0
  0
LINE
  5
CD
330
22
100
AcDbEntity
  8
_4-2_
  6
Continuous
 62
     7
100
AcDbLine
 10
856.0493289572978
 20
976.2573221561018
 30
0.0
 11
856.1001763934937
 21
976.3119615892302
 31
0.0
  0
LINE
  5
CE
330
22
100
AcDbEntity
  8
_4-2_
  6
Continuous
 62
     7
100
AcDbLine
 10
856.1001763934937
 20
976.3119615892302
 30
0.0
 11
856.1536983143785
 21
976.3688804482299
 31
0.0
  0
LINE
  5
CF
330
22
100
AcDbEntity
  8
_4-2_
  6
Continuous
 62
     7
100
AcDbLine
 10
856.1536983143785
 20
976.3688804482299
 30
0.0
 11
856.2469466633194
 21
976.4661940412487
 31
0.0
  0
LINE
  5
D0
330
22
100
AcDbEntity
  8
_4-2_
  6
Continuous
 62
     7
100
AcDbLine
 10
856.2469466633194
 20
976.4661940412487
 30
0.0
 11
856.3417905468019
 21
976.562035277749
 31
0.0
  0
LINE
  5
D1
330
22
100
AcDbEntity
  8
_4-2_
  6
Continuous
 62
     7
100
AcDbLine
 10
856.3417905468019
 20
976.562035277749
 30
0.0
 11
856.4386587214915
 21
976.6559025520736
 31
0.0
  0
LINE
  5
D2
330
22
100
AcDbEntity
  8
_4-2_
  6
Continuous
 62
     7
100
AcDbLine
 10
856.4386587214915
 20
976.6559025520736
 30
0.0
 11
856.5379799440584
 21
976.7472942585744
 31
0.0
  0
LINE
  5
D3
330
22
100
AcDbEntity
  8
_4-2_
  6
Continuous
 62
     7
100
AcDbLine
 10
856.5379799440584
 20
976.7472942585744
 30
0.0
 11
856.6401829711718
 21
976.8357087915902
 31
0.0
  0
LINE
  5
D4
330
22
100
AcDbEntity
  8
_4-2_
  6
Continuous
 62
     7
100
AcDbLine
 10
856.6401829711718
 20
976.8357087915902
 30
0.0
 11
856.7009501221638
 21
976.8854274211424
 31
0.0
  0
LINE
  5
D5
330
22
100
AcDbEntity
  8
_4-2_
  6
Continuous
 62
     7
100
AcDbLine
 10
856.7009501221638
 20
976.8854274211424
 30
0.0
 11
856.7557336843774
 21
976.9283807664498
 31
0.0
  0
LINE
  5
D6
330
22
100
AcDbEntity
  8
_4-2_
  6
Continuous
 62
     7
100
AcDbLine
 10
856.7557336843774
 20
976.9283807664498
 30
0.0
 11
856.8523668718272
 21
976.9997637463271
 31
0.0
  0
LINE
  5
D7
330
22
100
AcDbEntity
  8
_4-2_
  6
Continuous
 62
     7
100
AcDbLine
 10
856.8523668718272
 20
976.9997637463271
 30
0.0
 11
856.9517200863206
 21
977.0672466769077
 31
0.0
  0
LINE
  5
D8
330
22
100
AcDbEntity
  8
_4-2_
  6
Continuous
 62
     7
100
AcDbLine
 10
856.9517200863206
 20
977.0672466769077
 30
0.0
 11
857.0537492470872
 21
977.1302311965486
 31
0.0
  0
LINE
  5
D9
330
22
100
AcDbEntity
  8
_4-2_
  6
Continuous
 62
     7
100
AcDbLine
 10
857.0537492470872
 20
977.1302311965486
 30
0.0
 11
857.158410273357
 21
977.1881189436058
 31
0.0
  0
LINE
  5
DA
330
22
100
AcDbEntity
  8
_4-2_
  6
Continuous
 62
     7
100
AcDbLine
 10
857.158410273357
 20
977.1881189436058
 30
0.0
 11
857.2656590843596
 21
977.2403115564239
 31
0.0
  0
LINE
  5
DB
330
22
100
AcDbEntity
  8
_4-2_
  6
Continuous
 62
     7
100
AcDbLine
 10
857.2656590843596
 20
977.2403115564239
 30
0.0
 11
857.3290317475889
 21
977.2677379757501
 31
0.0
  0
LINE
  5
DC
330
22
100
AcDbEntity
  8
_4-2_
  6
Continuous
 62
     7
100
AcDbLine
 10
857.3290317475889
 20
977.2677379757501
 30
0.0
 11
857.400222680552
 21
977.2955684215405
 31
0.0
  0
LINE
  5
DD
330
22
100
AcDbEntity
  8
_4-2_
  6
Continuous
 62
     7
100
AcDbLine
 10
857.400222680552
 20
977.2955684215405
 30
0.0
 11
857.5251529667104
 21
977.3376375642955
 31
0.0
  0
LINE
  5
DE
330
22
100
AcDbEntity
  8
_4-2_
  6
Continuous
 62
     7
100
AcDbLine
 10
857.5251529667104
 20
977.3376375642955
 30
0.0
 11
857.6524667784962
 21
977.3730147839833
 31
0.0
  0
LINE
  5
DF
330
22
100
AcDbEntity
  8
_4-2_
  6
Continuous
 62
     7
100
AcDbLine
 10
857.6524667784962
 20
977.3730147839833
 30
0.0
 11
857.7817162015014
 21
977.4026240800653
 31
0.0
  0
LINE
  5
E0
330
22
100
AcDbEntity
  8
_4-2_
  6
Continuous
 62
     7
100
AcDbLine
 10
857.7817162015014
 20
977.4026240800653
 30
0.0
 11
857.9124533213198
 21
977.4273894520083
 31
0.0
  0
LINE
  5
E1
330
22
100
AcDbEntity
  8
_4-2_
  6
Continuous
 62
     7
100
AcDbLine
 10
857.9124533213198
 20
977.4273894520083
 30
0.0
 11
858.0442302235416
 21
977.448234899281
 31
0.0
  0
LINE
  5
E2
330
22
100
AcDbEntity
  8
_4-2_
  6
Continuous
 62
     7
100
AcDbLine
 10
858.0442302235416
 20
977.448234899281
 30
0.0
 11
858.1209607535617
 21
977.458893253053
 31
0.0
  0
LINE
  5
E3
330
22
100
AcDbEntity
  8
_4-2_
  6
Continuous
 62
     7
100
AcDbLine
 10
858.1209607535617
 20
977.458893253053
 30
0.0
 11
858.2137463598643
 21
977.4705913775953
 31
0.0
  0
LINE
  5
E4
330
22
100
AcDbEntity
  8
_4-2_
  6
Continuous
 62
     7
100
AcDbLine
 10
858.2137463598643
 20
977.4705913775953
 30
0.0
 11
858.3739465256675
 21
977.4874081032761
 31
0.0
  0
LINE
  5
E5
330
22
100
AcDbEntity
  8
_4-2_
  6
Continuous
 62
     7
100
AcDbLine
 10
858.3739465256675
 20
977.4874081032761
 30
0.0
 11
858.5341936060308
 21
977.4991945078378
 31
0.0
  0
LINE
  5
E6
330
22
100
AcDbEntity
  8
_4-2_
  6
Continuous
 62
     7
100
AcDbLine
 10
858.5341936060308
 20
977.4991945078378
 30
0.0
 11
858.6942110039251
 21
977.5050358148304
 31
0.0
  0
LINE
  5
E7
330
22
100
AcDbEntity
  8
_4-2_
  6
Continuous
 62
     7
100
AcDbLine
 10
858.6942110039251
 20
977.5050358148304
 30
0.0
 11
858.85372212232
 21
977.5040172477988
 31
0.0
  0
LINE
  5
E8
330
22
100
AcDbEntity
  8
_4-2_
  6
Continuous
 62
     7
100
AcDbLine
 10
858.85372212232
 20
977.5040172477988
 30
0.0
 11
859.01245036419
 21
977.4952240302983
 31
0.0
  0
LINE
  5
E9
330
22
100
AcDbEntity
  8
_4-2_
  6
Continuous
 62
     7
100
AcDbLine
 10
859.01245036419
 20
977.4952240302983
 30
0.0
 11
859.1040450368392
 21
977.4862011498102
 31
0.0
  0
LINE
  5
EA
330
22
100
AcDbEntity
  8
_4-2_
  6
Continuous
 62
     7
100
AcDbLine
 10
859.1040450368392
 20
977.4862011498102
 30
0.0
 11
859.1711351565674
 21
977.4776450335059
 31
0.0
  0
LINE
  5
EB
330
22
100
AcDbEntity
  8
_4-2_
  6
Continuous
 62
     7
100
AcDbLine
 10
859.1711351565674
 20
977.4776450335059
 30
0.0
 11
859.2864164445483
 21
977.4595452639815
 31
0.0
  0
LINE
  5
EC
330
22
100
AcDbEntity
  8
_4-2_
  6
Continuous
 62
     7
100
AcDbLine
 10
859.2864164445483
 20
977.4595452639815
 30
0.0
 11
859.4013982304486
 21
977.43809808802
 31
0.0
  0
LINE
  5
ED
330
22
100
AcDbEntity
  8
_4-2_
  6
Continuous
 62
     7
100
AcDbLine
 10
859.4013982304486
 20
977.43809808802
 30
0.0
 11
859.5163082528605
 21
977.4143388217511
 31
0.0
  0
LINE
  5
EE
330
22
100
AcDbEntity
  8
_4-2_
  6
Continuous
 62
     7
100
AcDbLine
 10
859.5163082528605
 20
977.4143388217511
 30
0.0
 11
859.6313742503729
 21
977.3893027813111
 31
0.0
  0
LINE
  5
EF
330
22
100
AcDbEntity
  8
_4-2_
  6
Continuous
 62
     7
100
AcDbLine
 10
859.6313742503729
 20
977.3893027813111
 30
0.0
 11
859.7468239615782
 21
977.3640252828263
 31
0.0
  0
LINE
  5
F0
330
22
100
AcDbEntity
  8
_4-2_
  6
Continuous
 62
     7
100
AcDbLine
 10
859.7468239615782
 20
977.3640252828263
 30
0.0
 11
859.8140503525369
 21
977.3496616660205
 31
0.0
  0
LINE
  5
F1
330
22
100
AcDbEntity
  8
_4-2_
  6
Continuous
 62
     7
100
AcDbLine
 10
859.8140503525369
 20
977.3496616660205
 30
0.0
 11
859.8903698721175
 21
977.3338655900865
 31
0.0
  0
LINE
  5
F2
330
22
100
AcDbEntity
  8
_4-2_
  6
Continuous
 62
     7
100
AcDbLine
 10
859.8903698721175
 20
977.3338655900865
 30
0.0
 11
860.0221186368445
 21
977.3067721424389
 31
0.0
  0
LINE
  5
F3
330
22
100
AcDbEntity
  8
_4-2_
  6
Continuous
 62
     7
100
AcDbLine
 10
860.0221186368445
 20
977.3067721424389
 30
0.0
 11
860.1531844017436
 21
977.2779389185975
 31
0.0
  0
LINE
  5
F4
330
22
100
AcDbEntity
  8
_4-2_
  6
Continuous
 62
     7
100
AcDbLine
 10
860.1531844017436
 20
977.2779389185975
 30
0.0
 11
860.2825324950355
 21
977.2451351425312
 31
0.0
  0
LINE
  5
F5
330
22
100
AcDbEntity
  8
_4-2_
  6
Continuous
 62
     7
100
AcDbLine
 10
860.2825324950355
 20
977.2451351425312
 30
0.0
 11
860.409128244945
 21
977.2061300382178
 31
0.0
  0
LINE
  5
F6
330
22
100
AcDbEntity
  8
_4-2_
  6
Continuous
 62
     7
100
AcDbLine
 10
860.409128244945
 20
977.2061300382178
 30
0.0
 11
860.5319369796948
 21
977.1586928296359
 31
0.0
  0
LINE
  5
F7
330
22
100
AcDbEntity
  8
_4-2_
  6
Continuous
 62
     7
100
AcDbLine
 10
860.5319369796948
 20
977.1586928296359
 30
0.0
 11
860.6010231210198
 21
977.1264366167239
 31
0.0
  0
LINE
  5
F8
330
22
100
AcDbEntity
  8
_4-2_
  6
Continuous
 62
     7
100
AcDbLine
 10
860.6010231210198
 20
977.1264366167239
 30
0.0
 11
860.6630995155079
 21
977.0932581967727
 31
0.0
  0
LINE
  5
F9
330
22
100
AcDbEntity
  8
_4-2_
  6
Continuous
 62
     7
100
AcDbLine
 10
860.6630995155079
 20
977.0932581967727
 30
0.0
 11
860.7664894625006
 21
977.0287042710871
 31
0.0
  0
LINE
  5
FA
330
22
100
AcDbEntity
  8
_4-2_
  6
Continuous
 62
     7
100
AcDbLine
 10
860.7664894625006
 20
977.0287042710871
 30
0.0
 11
860.8652716946004
 21
976.9558607512536
 31
0.0
  0
LINE
  5
FB
330
22
100
AcDbEntity
  8
_4-2_
  6
Continuous
 62
     7
100
AcDbLine
 10
860.8652716946004
 20
976.9558607512536
 30
0.0
 11
860.9594435986114
 21
976.8759065804319
 31
0.0
  0
LINE
  5
FC
330
22
100
AcDbEntity
  8
_4-2_
  6
Continuous
 62
     7
100
AcDbLine
 10
860.9594435986114
 20
976.8759065804319
 30
0.0
 11
861.0490025613408
 21
976.7900207017774
 31
0.0
  0
LINE
  5
FD
330
22
100
AcDbEntity
  8
_4-2_
  6
Continuous
 62
     7
100
AcDbLine
 10
861.0490025613408
 20
976.7900207017774
 30
0.0
 11
861.1339459695932
 21
976.6993820584472
 31
0.0
  0
LINE
  5
FE
330
22
100
AcDbEntity
  8
_4-2_
  6
Continuous
 62
     7
100
AcDbLine
 10
861.1339459695932
 20
976.6993820584472
 30
0.0
 11
861.1810972695829
 21
976.6450984934467
 31
0.0
  0
LINE
  5
FF
330
22
100
AcDbEntity
  8
_4-2_
  6
Continuous
 62
     7
100
AcDbLine
 10
861.1810972695829
 20
976.6450984934467
 30
0.0
 11
861.2337816598152
 21
976.5809938759538
 31
0.0
  0
LINE
  5
100
330
22
100
AcDbEntity
  8
_4-2_
  6
Continuous
 62
     7
100
AcDbLine
 10
861.2337816598152
 20
976.5809938759538
 30
0.0
 11
861.3201390718595
 21
976.4676907448702
 31
0.0
  0
LINE
  5
101
330
22
100
AcDbEntity
  8
_4-2_
  6
Continuous
 62
     7
100
AcDbLine
 10
861.3201390718595
 20
976.4676907448702
 30
0.0
 11
861.4014579887461
 21
976.3513003232324
 31
0.0
  0
LINE
  5
102
330
22
100
AcDbEntity
  8
_4-2_
  6
Continuous
 62
     7
100
AcDbLine
 10
861.4014579887461
 20
976.3513003232324
 30
0.0
 11
861.4784704274859
 21
976.2323215350525
 31
0.0
  0
LINE
  5
103
330
22
100
AcDbEntity
  8
_4-2_
  6
Continuous
 62
     7
100
AcDbLine
 10
861.4784704274859
 20
976.2323215350525
 30
0.0
 11
861.5519084050935
 21
976.1112533043379
 31
0.0
  0
LINE
  5
104
330
22
100
AcDbEntity
  8
_4-2_
  6
Continuous
 62
     7
100
AcDbLine
 10
861.5519084050935
 20
976.1112533043379
 30
0.0
 11
861.6225039385742
 21
975.988594555098
 31
0.0
  0
LINE
  5
105
330
22
100
AcDbEntity
  8
_4-2_
  6
Continuous
 62
     7
100
AcDbLine
 10
861.6225039385742
 20
975.988594555098
 30
0.0
 11
861.66243539286
 21
975.9169203069532
 31
0.0
  0
LINE
  5
106
330
22
100
AcDbEntity
  8
_4-2_
  6
Continuous
 62
     7
100
AcDbLine
 10
861.66243539286
 20
975.9169203069532
 30
0.0
 11
861.7044774975521
 21
975.8400036868685
 31
0.0
  0
LINE
  5
107
330
22
100
AcDbEntity
  8
_4-2_
  6
Continuous
 62
     7
100
AcDbLine
 10
861.7044774975521
 20
975.8400036868685
 30
0.0
 11
861.7757157733068
 21
975.7067494641377
 31
0.0
  0
LINE
  5
108
330
22
100
AcDbEntity
  8
_4-2_
  6
Continuous
 62
     7
100
AcDbLine
 10
861.7757157733068
 20
975.7067494641377
 30
0.0
 11
861.8457873660338
 21
975.5728138394273
 31
0.0
  0
LINE
  5
109
330
22
100
AcDbEntity
  8
_4-2_
  6
Continuous
 62
     7
100
AcDbLine
 10
861.8457873660338
 20
975.5728138394273
 30
0.0
 11
861.9151727468134
 21
975.4383455512552
 31
0.0
  0
LINE
  5
10A
330
22
100
AcDbEntity
  8
_4-2_
  6
Continuous
 62
     7
100
AcDbLine
 10
861.9151727468134
 20
975.4383455512552
 30
0.0
 11
861.9843523867267
 21
975.3034933381437
 31
0.0
  0
LINE
  5
10B
330
22
100
AcDbEntity
  8
_4-2_
  6
Continuous
 62
     7
100
AcDbLine
 10
861.9843523867267
 20
975.3034933381437
 30
0.0
 11
862.0538067568496
 21
975.1684059386084
 31
0.0
  0
LINE
  5
10C
330
22
100
AcDbEntity
  8
_4-2_
  6
Continuous
 62
     7
100
AcDbLine
 10
862.0538067568496
 20
975.1684059386084
 30
0.0
 11
862.094405503493
 21
975.0900060951712
 31
0.0
  0
LINE
  5
10D
330
22
100
AcDbEntity
  8
_4-2_
  6
Continuous
 62
     7
100
AcDbLine
 10
862.094405503493
 20
975.0900060951712
 30
0.0
 11
862.1496639123538
 21
974.9844884807918
 31
0.0
  0
LINE
  5
10E
330
22
100
AcDbEntity
  8
_4-2_
  6
Continuous
 62
     7
100
AcDbLine
 10
862.1496639123538
 20
974.9844884807918
 30
0.0
 11
862.2474794223091
 21
974.8036161271116
 31
0.0
  0
LINE
  5
10F
330
22
100
AcDbEntity
  8
_4-2_
  6
Continuous
 62
     7
100
AcDbLine
 10
862.2474794223091
 20
974.8036161271116
 30
0.0
 11
862.3501179180754
 21
974.6256735169538
 31
0.0
  0
LINE
  5
110
330
22
100
AcDbEntity
  8
_4-2_
  6
Continuous
 62
     7
100
AcDbLine
 10
862.3501179180754
 20
974.6256735169538
 30
0.0
 11
862.4594454101927
 21
974.4525151244431
 31
0.0
  0
LINE
  5
111
330
22
100
AcDbEntity
  8
_4-2_
  6
Continuous
 62
     7
100
AcDbLine
 10
862.4594454101927
 20
974.4525151244431
 30
0.0
 11
862.5773279091935
 21
974.2859954237033
 31
0.0
  0
LINE
  5
112
330
22
100
AcDbEntity
  8
_4-2_
  6
Continuous
 62
     7
100
AcDbLine
 10
862.5773279091935
 20
974.2859954237033
 30
0.0
 11
862.7056314256162
 21
974.127968888853
 31
0.0
  0
LINE
  5
113
330
22
100
AcDbEntity
  8
_4-2_
  6
Continuous
 62
     7
100
AcDbLine
 10
862.7056314256162
 20
974.127968888853
 30
0.0
 11
862.7855576805051
 21
974.0409358264892
 31
0.0
  0
LINE
  5
114
330
22
100
AcDbEntity
  8
_4-2_
  6
Continuous
 62
     7
100
AcDbLine
 10
862.7855576805051
 20
974.0409358264892
 30
0.0
 11
862.8144421631963
 21
974.0114951977956
 31
0.0
  0
LINE
  5
115
330
22
100
AcDbEntity
  8
_4-2_
  6
Continuous
 62
     7
100
AcDbLine
 10
862.8144421631963
 20
974.0114951977956
 30
0.0
 11
862.8655042016598
 21
973.9619045134
 31
0.0
  0
LINE
  5
116
330
22
100
AcDbEntity
  8
_4-2_
  6
Continuous
 62
     7
100
AcDbLine
 10
862.8655042016598
 20
973.9619045134
 30
0.0
 11
862.9181306968664
 21
973.9139044449999
 31
0.0
  0
LINE
  5
117
330
22
100
AcDbEntity
  8
_4-2_
  6
Continuous
 62
     7
100
AcDbLine
 10
862.9181306968664
 20
973.9139044449999
 30
0.0
 11
862.9722844315494
 21
973.8676238804183
 31
0.0
  0
LINE
  5
118
330
22
100
AcDbEntity
  8
_4-2_
  6
Continuous
 62
     7
100
AcDbLine
 10
862.9722844315494
 20
973.8676238804183
 30
0.0
 11
863.0279281884476
 21
973.8231917074871
 31
0.0
  0
LINE
  5
119
330
22
100
AcDbEntity
  8
_4-2_
  6
Continuous
 62
     7
100
AcDbLine
 10
863.0279281884476
 20
973.8231917074871
 30
0.0
 11
863.0850247502927
 21
973.7807368140344
 31
0.0
  0
LINE
  5
11A
330
22
100
AcDbEntity
  8
_4-2_
  6
Continuous
 62
     7
100
AcDbLine
 10
863.0850247502927
 20
973.7807368140344
 30
0.0
 11
863.118791765852
 21
973.7570697537888
 31
0.0
  0
LINE
  5
11B
330
22
100
AcDbEntity
  8
_4-2_
  6
Continuous
 62
     7
100
AcDbLine
 10
863.118791765852
 20
973.7570697537888
 30
0.0
 11
863.1747926477817
 21
973.7200118223032
 31
0.0
  0
LINE
  5
11C
330
22
100
AcDbEntity
  8
_4-2_
  6
Continuous
 62
     7
100
AcDbLine
 10
863.1747926477817
 20
973.7200118223032
 30
0.0
 11
863.2736623003882
 21
973.6597535321823
 31
0.0
  0
LINE
  5
11D
330
22
100
AcDbEntity
  8
_4-2_
  6
Continuous
 62
     7
100
AcDbLine
 10
863.2736623003882
 20
973.6597535321823
 30
0.0
 11
863.3745443547841
 21
973.6026732765131
 31
0.0
  0
LINE
  5
11E
330
22
100
AcDbEntity
  8
_4-2_
  6
Continuous
 62
     7
100
AcDbLine
 10
863.3745443547841
 20
973.6026732765131
 30
0.0
 11
863.476369322467
 21
973.5471165837283
 31
0.0
  0
LINE
  5
11F
330
22
100
AcDbEntity
  8
_4-2_
  6
Continuous
 62
     7
100
AcDbLine
 10
863.476369322467
 20
973.5471165837283
 30
0.0
 11
863.5780677149375
 21
973.4914289822693
 31
0.0
  0
LINE
  5
120
330
22
100
AcDbEntity
  8
_4-2_
  6
Continuous
 62
     7
100
AcDbLine
 10
863.5780677149375
 20
973.4914289822693
 30
0.0
 11
863.678570043695
 21
973.4339560005663
 31
0.0
  0
LINE
  5
121
330
22
100
AcDbEntity
  8
_4-2_
  6
Continuous
 62
     7
100
AcDbLine
 10
863.678570043695
 20
973.4339560005663
 30
0.0
 11
863.7358919238987
 21
973.3991516621236
 31
0.0
  0
LINE
  5
122
330
22
100
AcDbEntity
  8
_4-2_
  6
Continuous
 62
     7
100
AcDbLine
 10
863.7358919238987
 20
973.3991516621236
 30
0.0
 11
863.7936487941475
 21
973.3620486809527
 31
0.0
  0
LINE
  5
123
330
22
100
AcDbEntity
  8
_4-2_
  6
Continuous
 62
     7
100
AcDbLine
 10
863.7936487941475
 20
973.3620486809527
 30
0.0
 11
863.8911131704947
 21
973.2948600798467
 31
0.0
  0
LINE
  5
124
330
22
100
AcDbEntity
  8
_4-2_
  6
Continuous
 62
     7
100
AcDbLine
 10
863.8911131704947
 20
973.2948600798467
 30
0.0
 11
863.9863147593823
 21
973.2242455861172
 31
0.0
  0
LINE
  5
125
330
22
100
AcDbEntity
  8
_4-2_
  6
Continuous
 62
     7
100
AcDbLine
 10
863.9863147593823
 20
973.2242455861172
 30
0.0
 11
864.0797375648423
 21
973.1509580533693
 31
0.0
  0
LINE
  5
126
330
22
100
AcDbEntity
  8
_4-2_
  6
Continuous
 62
     7
100
AcDbLine
 10
864.0797375648423
 20
973.1509580533693
 30
0.0
 11
864.1718655909006
 21
973.0757503352142
 31
0.0
  0
LINE
  5
127
330
22
100
AcDbEntity
  8
_4-2_
  6
Continuous
 62
     7
100
AcDbLine
 10
864.1718655909006
 20
973.0757503352142
 30
0.0
 11
864.2631828415856
 21
972.9993752852616
 31
0.0
  0
LINE
  5
128
330
22
100
AcDbEntity
  8
_4-2_
  6
Continuous
 62
     7
100
AcDbLine
 10
864.2631828415856
 20
972.9993752852616
 30
0.0
 11
864.3159660724618
 21
972.9548395483279
 31
0.0
  0
LINE
  5
129
330
22
100
AcDbEntity
  8
_4-2_
  6
Continuous
 62
     7
100
AcDbLine
 10
864.3159660724618
 20
972.9548395483279
 30
0.0
 11
864.3821172372247
 21
972.8989141833894
 31
0.0
  0
LINE
  5
12A
330
22
100
AcDbEntity
  8
_4-2_
  6
Continuous
 62
     7
100
AcDbLine
 10
864.3821172372247
 20
972.8989141833894
 30
0.0
 11
864.4956002236664
 21
972.8019872747667
 31
0.0
  0
LINE
  5
12B
330
22
100
AcDbEntity
  8
_4-2_
  6
Continuous
 62
     7
100
AcDbLine
 10
864.4956002236664
 20
972.8019872747667
 30
0.0
 11
864.6075843815571
 21
972.7036190446179
 31
0.0
  0
LINE
  5
12C
330
22
100
AcDbEntity
  8
_4-2_
  6
Continuous
 62
     7
100
AcDbLine
 10
864.6075843815571
 20
972.7036190446179
 30
0.0
 11
864.7171669604494
 21
972.6028751709137
 31
0.0
  0
LINE
  5
12D
330
22
100
AcDbEntity
  8
_4-2_
  6
Continuous
 62
     7
100
AcDbLine
 10
864.7171669604494
 20
972.6028751709137
 30
0.0
 11
864.8234452098913
 21
972.498821331634
 31
0.0
  0
LINE
  5
12E
330
22
100
AcDbEntity
  8
_4-2_
  6
Continuous
 62
     7
100
AcDbLine
 10
864.8234452098913
 20
972.498821331634
 30
0.0
 11
864.9255163794405
 21
972.3905232047528
 31
0.0
  0
LINE
  5
12F
330
22
100
AcDbEntity
  8
_4-2_
  6
Continuous
 62
     7
100
AcDbLine
 10
864.9255163794405
 20
972.3905232047528
 30
0.0
 11
864.982434243153
 21
972.3253973871184
 31
0.0
  0
LINE
  5
130
330
22
100
AcDbEntity
  8
_4-2_
  6
Continuous
 62
     7
100
AcDbLine
 10
864.982434243153
 20
972.3253973871184
 30
0.0
 11
865.0147212885519
 21
972.2865928399176
 31
0.0
  0
LINE
  5
131
330
22
100
AcDbEntity
  8
_4-2_
  6
Continuous
 62
     7
100
AcDbLine
 10
865.0147212885519
 20
972.2865928399176
 30
0.0
 11
865.0686744824927
 21
972.2181723775193
 31
0.0
  0
LINE
  5
132
330
22
100
AcDbEntity
  8
_4-2_
  6
Continuous
 62
     7
100
AcDbLine
 10
865.0686744824927
 20
972.2181723775193
 30
0.0
 11
865.1201494025745
 21
972.1478590914207
 31
0.0
  0
LINE
  5
133
330
22
100
AcDbEntity
  8
_4-2_
  6
Continuous
 62
     7
100
AcDbLine
 10
865.1201494025745
 20
972.1478590914207
 30
0.0
 11
865.1687873342902
 21
972.0756835084776
 31
0.0
  0
LINE
  5
134
330
22
100
AcDbEntity
  8
_4-2_
  6
Continuous
 62
     7
100
AcDbLine
 10
865.1687873342902
 20
972.0756835084776
 30
0.0
 11
865.2142295631312
 21
972.0016761555429
 31
0.0
  0
LINE
  5
135
330
22
100
AcDbEntity
  8
_4-2_
  6
Continuous
 62
     7
100
AcDbLine
 10
865.2142295631312
 20
972.0016761555429
 30
0.0
 11
865.2561173745869
 21
971.9258675594792
 31
0.0
  0
LINE
  5
136
330
22
100
AcDbEntity
  8
_4-2_
  6
Continuous
 62
     7
100
AcDbLine
 10
865.2561173745869
 20
971.9258675594792
 30
0.0
 11
865.2786423190159
 21
971.8810852733247
 31
0.0
  0
LINE
  5
137
330
22
100
AcDbEntity
  8
_4-2_
  6
Continuous
 62
     7
100
AcDbLine
 10
865.2786423190159
 20
971.8810852733247
 30
0.0
 11
865.3077997273644
 21
971.8176628414211
 31
0.0
  0
LINE
  5
138
330
22
100
AcDbEntity
  8
_4-2_
  6
Continuous
 62
     7
100
AcDbLine
 10
865.3077997273644
 20
971.8176628414211
 30
0.0
 11
865.3524789513321
 21
971.7059351045135
 31
0.0
  0
LINE
  5
139
330
22
100
AcDbEntity
  8
_4-2_
  6
Continuous
 62
     7
100
AcDbLine
 10
865.3524789513321
 20
971.7059351045135
 30
0.0
 11
865.3911985379737
 21
971.5916723431694
 31
0.0
  0
LINE
  5
13A
330
22
100
AcDbEntity
  8
_4-2_
  6
Continuous
 62
     7
100
AcDbLine
 10
865.3911985379737
 20
971.5916723431694
 30
0.0
 11
865.4252597181411
 21
971.4754280561752
 31
0.0
  0
LINE
  5
13B
330
22
100
AcDbEntity
  8
_4-2_
  6
Continuous
 62
     7
100
AcDbLine
 10
865.4252597181411
 20
971.4754280561752
 30
0.0
 11
865.4559637226965
 21
971.3577557423166
 31
0.0
  0
LINE
  5
13C
330
22
100
AcDbEntity
  8
_4-2_
  6
Continuous
 62
     7
100
AcDbLine
 10
865.4559637226965
 20
971.3577557423166
 30
0.0
 11
865.4846117824956
 21
971.2392089003778
 31
0.0
  0
LINE
  5
13D
330
22
100
AcDbEntity
  8
_4-2_
  6
Continuous
 62
     7
100
AcDbLine
 10
865.4846117824956
 20
971.2392089003778
 30
0.0
 11
865.5007983759116
 21
971.170269130588
 31
0.0
  0
LINE
  5
13E
330
22
100
AcDbEntity
  8
_4-2_
  6
Continuous
 62
     7
100
AcDbLine
 10
822.5333759617784
 20
971.170269130588
 30
0.0
 11
858.7833759617785
 21
971.170269130588
 31
0.0
  0
LINE
  5
13F
330
22
100
AcDbEntity
  8
_4-4_
  6
Continuous
 62
     2
100
AcDbLine
 10
858.7833759617785
 20
974.295269130588
 30
0.0
 11
858.7833759617785
 21
971.170269130588
 31
0.0
  0
LINE
  5
140
330
22
100
AcDbEntity
  8
_4-4_
  6
Continuous
 62
     2
100
AcDbLine
 10
827.5333759617785
 20
974.295269130588
 30
0.0
 11
858.7833759617785
 21
974.295269130588
 31
0.0
  0
LINE
  5
141
330
22
100
AcDbEntity
  8
_4-4_
  6
Continuous
 62
     2
100
AcDbLine
 10
825.6583759617784
 20
976.1702691305902
 30
0.0
 11
825.6583759617784
 21
1189.185333511897
 31
0.0
  0
LINE
  5
142
330
22
100
AcDbEntity
  8
_4-2_
  6
Continuous
 62
     7
100
AcDbLine
 10
822.5333759617784
 20
1218.045269130588
 30
0.0
 11
822.5333759617784
 21
968.045269130588
 31
0.0
  0
POINT
  5
143
330
22
100
AcDbEntity
  8
_4-B_
 62
     1
100
AcDbPoint
 10
858.7833759617785
 20
1044.744511631276
 30
0.0
  0
LINE
  5
144
330
22
100
AcDbEntity
  8
_4-B_
  6
Continuous
 62
     7
100
AcDbLine
 10
858.7833759617785
 20
1044.744511631276
 30
0.0
 11
858.7833759617785
 21
994.7065494901281
 31
0.0
  0
POINT
  5
145
330
22
100
AcDbEntity
  8
_4-B_
 62
     1
100
AcDbPoint
 10
825.6583759617784
 20
1044.744511631276
 30
0.0
  0
LINE
  5
146
330
22
100
AcDbEntity
  8
_4-B_
  6
Continuous
 62
     7
100
AcDbLine
 10
825.6583759617784
 20
1044.744511631276
 30
0.0
 11
858.7833759617785
 21
1044.744511631276
 31
0.0
  0
LINE
  5
147
330
22
100
AcDbEntity
  8
_4-2_
  6
Continuous
 62
     7
100
AcDbLine
 10
822.5333759617784
 20
968.045269130588
 30
0.0
 11
1378.783375961778
 21
968.045269130588
 31
0.0
  0
LINE
  5
148
330
22
100
AcDbEntity
  8
_4-4_
  6
Continuous
 62
     2
100
AcDbLine
 10
728.7833759617784
 20
1318.342913410289
 30
0.0
 11
728.7833759617784
 21
818.3429134102913
 31
0.0
  0
LINE
  5
149
330
22
100
AcDbEntity
  8
_4-E_
  6
Continuous
 62
     4
100
AcDbLine
 10
728.7833759617784
 20
1162.366341175167
 30
0.0
 11
879.4969154259852
 21
1313.079880639374
 31
0.0
  0
LINE
  5
14A
330
22
100
AcDbEntity
  8
_4-E_
  6
Continuous
 62
     4
100
AcDbLine
 10
728.7833759617784
 20
1148.224205551438
 30
0.0
 11
893.1618606475216
 21
1312.602690237176
 31
0.0
  0
LINE
  5
14B
330
22
100
AcDbEntity
  8
_4-E_
  6
Continuous
 62
     4
100
AcDbLine
 10
728.7833759617784
 20
1155.2952733633
 30
0.0
 11
886.3293880367528
 21
1312.841285438275
 31
0.0
  0
LINE
  5
14C
330
22
100
AcDbEntity
  8
_4-E_
  6
Continuous
 62
     4
100
AcDbLine
 10
728.7833759617784
 20
962.3663411751673
 30
0.0
 11
822.5333759617784
 21
1056.116341175167
 31
0.0
  0
LINE
  5
14D
330
22
100
AcDbEntity
  8
_4-E_
  6
Continuous
 62
     4
100
AcDbLine
 10
728.7833759617784
 20
948.2242055514385
 30
0.0
 11
822.5333759617784
 21
1041.974205551434
 31
0.0
  0
LINE
  5
14E
330
22
100
AcDbEntity
  8
_4-E_
  6
Continuous
 62
     4
100
AcDbLine
 10
728.7833759617784
 20
955.2952733633004
 30
0.0
 11
822.5333759617784
 21
1049.0452733633
 31
0.0
  0
LINE
  5
14F
330
22
100
AcDbEntity
  8
_4-E_
  6
Continuous
 62
     4
100
AcDbLine
 10
784.7599481969017
 20
818.3429134102913
 30
0.0
 11
934.4623039171981
 21
968.045269130588
 31
0.0
  0
LINE
  5
150
330
22
100
AcDbEntity
  8
_4-E_
  6
Continuous
 62
     4
100
AcDbLine
 10
798.9020838206294
 20
818.3429134102913
 30
0.0
 11
948.604439540928
 21
968.045269130588
 31
0.0
  0
LINE
  5
151
330
22
100
AcDbEntity
  8
_4-E_
  6
Continuous
 62
     4
100
AcDbLine
 10
791.8310160087673
 20
818.3429134102913
 30
0.0
 11
941.5333717290639
 21
968.045269130588
 31
0.0
  0
LINE
  5
152
330
22
100
AcDbEntity
  8
_4-E_
  6
Continuous
 62
     4
100
AcDbLine
 10
1040.712303917198
 20
874.295269130588
 30
0.0
 11
1134.462303917198
 21
968.045269130588
 31
0.0
  0
LINE
  5
153
330
22
100
AcDbEntity
  8
_4-E_
  6
Continuous
 62
     4
100
AcDbLine
 10
1254.854439540927
 20
874.295269130588
 30
0.0
 11
1348.604439540928
 21
968.045269130588
 31
0.0
  0
LINE
  5
154
330
22
100
AcDbEntity
  8
_4-E_
  6
Continuous
 62
     4
100
AcDbLine
 10
1054.854439540926
 20
874.295269130588
 30
0.0
 11
1148.604439540928
 21
968.045269130588
 31
0.0
  0
LINE
  5
155
330
22
100
AcDbEntity
  8
_4-E_
  6
Continuous
 62
     4
100
AcDbLine
 10
1047.783371729063
 20
874.295269130588
 30
0.0
 11
1141.533371729063
 21
968.045269130588
 31
0.0
  0
LINE
  5
156
330
22
100
AcDbEntity
  8
_4-E_
  6
Continuous
 62
     4
100
AcDbLine
 10
1240.712303917198
 20
874.295269130588
 30
0.0
 11
1334.462303917199
 21
968.045269130588
 31
0.0
  0
LINE
  5
157
330
22
100
AcDbEntity
  8
_4-E_
  6
Continuous
 62
     4
100
AcDbLine
 10
1247.783371729063
 20
874.295269130588
 30
0.0
 11
1341.533371729066
 21
968.045269130588
 31
0.0
  0
TEXT
  5
158
330
22
100
AcDbEntity
  8
_4-A_
 62
     7
100
AcDbText
 10
946.6634018696193
 20
1006.448908298233
 30
0.0
 40
15.0
  1
塩ビシート 接着工法
100
AcDbText
  0
LINE
  5
159
330
22
100
AcDbEntity
  8
_4-A_
  6
Continuous
 62
     7
100
AcDbLine
 10
936.6634018696194
 20
1013.948908298234
 30
0.0
 11
912.7405870364816
 21
1013.948908298234
 31
0.0
  0
LINE
  5
15A
330
22
100
AcDbEntity
  8
_4-A_
  6
Continuous
 62
     7
100
AcDbLine
 10
936.6634018696194
 20
1038.948908298233
 30
0.0
 11
896.3670499040777
 21
1038.948908298233
 31
0.0
  0
LINE
  5
15B
330
22
100
AcDbEntity
  8
_4-A_
  6
Continuous
 62
     7
100
AcDbLine
 10
860.017733772937
 20
975.9900459387168
 30
0.0
 11
896.3670499040777
 21
1038.948908298233
 31
0.0
  0
TEXT
  5
15C
330
22
100
AcDbEntity
  8
_4-A_
 62
     7
100
AcDbText
 10
897.1438725987001
 20
1181.448908298233
 30
0.0
 40
15.0
  1
ロンシーラントＳ
100
AcDbText
  0
TEXT
  5
15D
330
22
100
AcDbEntity
  8
_4-A_
 62
     7
100
AcDbText
 10
897.1438725987001
 20
1156.448908298233
 30
0.0
 40
15.0
  1
Ｋ－８（ホルダー内、ロンシーラントＬ充填）
100
AcDbText
  0
LINE
  5
15E
330
22
100
AcDbEntity
  8
_4-A_
  6
Continuous
 62
     7
100
AcDbLine
 10
888.0423281974755
 20
971.170269130588
 30
0.0
 11
912.7405870364816
 21
1013.948908298234
 31
0.0
  0
LINE
  5
15F
330
22
100
AcDbEntity
  8
_4-A_
  6
Continuous
 62
     7
100
AcDbLine
 10
828.1436441958566
 20
1215.505672241312
 30
0.0
 11
843.4761990071988
 21
1188.948908298233
 31
0.0
  0
LINE
  5
160
330
22
100
AcDbEntity
  8
_4-A_
  6
Continuous
 62
     7
100
AcDbLine
 10
887.1438725987001
 20
1188.948908298233
 30
0.0
 11
843.4761990071988
 21
1188.948908298233
 31
0.0
  0
LINE
  5
161
330
22
100
AcDbEntity
  8
_4-A_
  6
Continuous
 62
     7
100
AcDbLine
 10
826.5434645748074
 20
1196.211148056906
 30
0.0
 11
845.1700773841377
 21
1163.948908298233
 31
0.0
  0
LINE
  5
162
330
22
100
AcDbEntity
  8
_4-A_
  6
Continuous
 62
     7
100
AcDbLine
 10
887.1438725987001
 20
1163.948908298233
 30
0.0
 11
845.1700773841377
 21
1163.948908298233
 31
0.0
  0
TEXT
  5
163
330
22
100
AcDbEntity
  8
_4-A_
 62
     7
100
AcDbText
 10
897.1438725987001
 20
1106.448908298233
 30
0.0
 40
15.0
  1
塩ビシート 接着工法
100
AcDbText
  0
LINE
  5
164
330
22
100
AcDbEntity
  8
_4-A_
  6
Continuous
 62
     7
100
AcDbLine
 10
825.6583759617784
 20
1073.977320400619
 30
0.0
 11
848.7359829944022
 21
1113.948908298233
 31
0.0
  0
LINE
  5
165
330
22
100
AcDbEntity
  8
_4-A_
  6
Continuous
 62
     7
100
AcDbLine
 10
887.1438725987001
 20
1113.948908298233
 30
0.0
 11
848.7359829944022
 21
1113.948908298233
 31
0.0
  0
POINT
  5
166
330
22
100
AcDbEntity
  8
_4-B_
 62
     1
100
AcDbPoint
 10
1306.049397609449
 20
1218.045269130588
 30
0.0
  0
LINE
  5
167
330
22
100
AcDbEntity
  8
_4-B_
  6
Continuous
 62
     7
100
AcDbLine
 10
1306.049397609449
 20
1218.045269130588
 30
0.0
 11
1306.049397609449
 21
971.170269130588
 31
0.0
  0
POINT
  5
168
330
22
100
AcDbEntity
  8
_4-B_
 62
     1
100
AcDbPoint
 10
1306.049397609449
 20
971.170269130588
 30
0.0
  0
LINE
  5
169
330
22
100
AcDbEntity
  8
_4-B_
  6
Continuous
 62
     7
100
AcDbLine
 10
1306.049397609449
 20
1218.045269130588
 30
0.0
 11
955.5496748940946
 21
1218.045269130588
 31
0.0
  0
TEXT
  5
16A
330
22
100
AcDbEntity
  8
_4-B_
 62
     7
100
AcDbText
 10
1303.549397609449
 20
1066.795269130588
 30
0.0
 40
15.0
  1
400以上
 50
90.0
100
AcDbText
  0
LINE
  5
16B
330
22
100
AcDbEntity
  8
_4-3_
  6
Continuous
 62
     3
100
AcDbLine
 10
916.2833759617784
 20
874.295269130588
 30
0.0
 11
1378.783375961778
 21
874.295269130588
 31
0.0
  0
LINE
  5
16C
330
22
100
AcDbEntity
  8
_4-3_
  6
Continuous
 62
     3
100
AcDbLine
 10
916.2833759617784
 20
874.295269130588
 30
0.0
 11
916.2833759617784
 21
818.3429134102913
 31
0.0
  0
LINE
  5
16D
330
22
100
AcDbEntity
  8
_4-4_
  6
Continuous
 62
     2
100
AcDbLine
 10
858.7833759617785
 20
331.170269130586
 30
0.0
 11
1378.783375961778
 21
331.170269130586
 31
0.0
  0
LINE
  5
16E
330
22
100
AcDbEntity
  8
_4-4_
  6
Continuous
 62
     2
100
AcDbLine
 10
872.5333759617784
 20
578.0452691305859
 30
0.0
 11
875.6583759617784
 21
587.4202691305859
 31
0.0
  0
LINE
  5
16F
330
22
100
AcDbEntity
  8
_4-4_
  6
Continuous
 62
     2
100
AcDbLine
 10
875.6583759617784
 20
587.4202691305859
 30
0.0
 11
885.0333759617784
 21
587.4202691305859
 31
0.0
  0
LINE
  5
170
330
22
100
AcDbEntity
  8
_4-4_
  6
Continuous
 62
     2
100
AcDbLine
 10
885.0333759617784
 20
587.4202691305859
 30
0.0
 11
885.0333759617784
 21
578.0452691305859
 31
0.0
  0
LINE
  5
171
330
22
100
AcDbEntity
  8
_4-4_
  6
Continuous
 62
     2
100
AcDbLine
 10
885.0333759617784
 20
578.0452691305859
 30
0.0
 11
916.2833759617784
 21
578.0452691305859
 31
0.0
  0
LINE
  5
172
330
22
100
AcDbEntity
  8
_4-4_
  6
Continuous
 62
     2
100
AcDbLine
 10
916.2833759617784
 20
671.7952691305859
 30
0.0
 11
916.2833759617784
 21
578.0452691305859
 31
0.0
  0
LINE
  5
173
330
22
100
AcDbEntity
  8
_4-4_
  6
Continuous
 62
     2
100
AcDbLine
 10
728.7833759617784
 20
678.3429134102894
 30
0.0
 11
916.2833759617784
 21
671.7952691305859
 31
0.0
  0
ARC
  5
174
330
22
100
AcDbEntity
  8
_4-4_
  6
Continuous
 62
     2
100
AcDbCircle
 10
827.5333759617785
 20
336.1702691305883
 30
0.0
 40
1.875
100
AcDbArc
 50
180.0
 51
270.0
  0
ARC
  5
175
330
22
100
AcDbEntity
  8
_4-2_
  6
Continuous
 62
     7
100
AcDbCircle
 10
827.5333759617785
 20
336.1702691305883
 30
0.0
 40
5.0
100
AcDbArc
 50
180.0
 51
270.0
  0
LINE
  5
176
330
22
100
AcDbEntity
  8
_4-2_
  6
Continuous
 62
     7
100
AcDbLine
 10
855.035168419946
 20
334.295269130586
 30
0.0
 11
855.0465551621471
 21
334.3770847222632
 31
0.0
  0
LINE
  5
177
330
22
100
AcDbEntity
  8
_4-2_
  6
Continuous
 62
     7
100
AcDbLine
 10
855.0465551621471
 20
334.3770847222632
 30
0.0
 11
855.067221899436
 21
334.5177559316508
 31
0.0
  0
LINE
  5
178
330
22
100
AcDbEntity
  8
_4-2_
  6
Continuous
 62
     7
100
AcDbLine
 10
855.067221899436
 20
334.5177559316508
 30
0.0
 11
855.0907620343524
 21
334.6573433755626
 31
0.0
  0
LINE
  5
179
330
22
100
AcDbEntity
  8
_4-2_
  6
Continuous
 62
     7
100
AcDbLine
 10
855.0907620343524
 20
334.6573433755626
 30
0.0
 11
855.1189941729919
 21
334.7951611264821
 31
0.0
  0
LINE
  5
17A
330
22
100
AcDbEntity
  8
_4-2_
  6
Continuous
 62
     7
100
AcDbLine
 10
855.1189941729919
 20
334.7951611264821
 30
0.0
 11
855.1537369214484
 21
334.9305232568909
 31
0.0
  0
LINE
  5
17B
330
22
100
AcDbEntity
  8
_4-2_
  6
Continuous
 62
     7
100
AcDbLine
 10
855.1537369214484
 20
334.9305232568909
 30
0.0
 11
855.1968088858165
 21
335.0627438392795
 31
0.0
  0
LINE
  5
17C
330
22
100
AcDbEntity
  8
_4-2_
  6
Continuous
 62
     7
100
AcDbLine
 10
855.1968088858165
 20
335.0627438392795
 30
0.0
 11
855.2263236972498
 21
335.13772202865
 31
0.0
  0
LINE
  5
17D
330
22
100
AcDbEntity
  8
_4-2_
  6
Continuous
 62
     7
100
AcDbLine
 10
855.2263236972498
 20
335.13772202865
 30
0.0
 11
855.2519118605379
 21
335.1952950533919
 31
0.0
  0
LINE
  5
17E
330
22
100
AcDbEntity
  8
_4-2_
  6
Continuous
 62
     7
100
AcDbLine
 10
855.2519118605379
 20
335.1952950533919
 30
0.0
 11
855.3009213434652
 21
335.2926164927762
 31
0.0
  0
LINE
  5
17F
330
22
100
AcDbEntity
  8
_4-2_
  6
Continuous
 62
     7
100
AcDbLine
 10
855.3009213434652
 20
335.2926164927762
 30
0.0
 11
855.3553632274187
 21
335.3876187445749
 31
0.0
  0
LINE
  5
180
330
22
100
AcDbEntity
  8
_4-2_
  6
Continuous
 62
     7
100
AcDbLine
 10
855.3553632274187
 20
335.3876187445749
 30
0.0
 11
855.4143538456377
 21
335.4804640669514
 31
0.0
  0
LINE
  5
181
330
22
100
AcDbEntity
  8
_4-2_
  6
Continuous
 62
     7
100
AcDbLine
 10
855.4143538456377
 20
335.4804640669514
 30
0.0
 11
855.4770095313516
 21
335.57131471806
 31
0.0
  0
LINE
  5
182
330
22
100
AcDbEntity
  8
_4-2_
  6
Continuous
 62
     7
100
AcDbLine
 10
855.4770095313516
 20
335.57131471806
 30
0.0
 11
855.5424466177996
 21
335.6603329560576
 31
0.0
  0
LINE
  5
183
330
22
100
AcDbEntity
  8
_4-2_
  6
Continuous
 62
     7
100
AcDbLine
 10
855.5424466177996
 20
335.6603329560576
 30
0.0
 11
855.5813263550986
 21
335.7111878605579
 31
0.0
  0
LINE
  5
184
330
22
100
AcDbEntity
  8
_4-2_
  6
Continuous
 62
     7
100
AcDbLine
 10
855.5813263550986
 20
335.7111878605579
 30
0.0
 11
855.6277115263092
 21
335.7703651060607
 31
0.0
  0
LINE
  5
185
330
22
100
AcDbEntity
  8
_4-2_
  6
Continuous
 62
     7
100
AcDbLine
 10
855.6277115263092
 20
335.7703651060607
 30
0.0
 11
855.7091021138726
 21
335.8708143522236
 31
0.0
  0
LINE
  5
186
330
22
100
AcDbEntity
  8
_4-2_
  6
Continuous
 62
     7
100
AcDbLine
 10
855.7091021138726
 20
335.8708143522236
 30
0.0
 11
855.7921345008855
 21
335.96948107872
 31
0.0
  0
LINE
  5
187
330
22
100
AcDbEntity
  8
_4-2_
  6
Continuous
 62
     7
100
AcDbLine
 10
855.7921345008855
 20
335.96948107872
 30
0.0
 11
855.8766333372169
 21
336.0666188871361
 31
0.0
  0
LINE
  5
188
330
22
100
AcDbEntity
  8
_4-2_
  6
Continuous
 62
     7
100
AcDbLine
 10
855.8766333372169
 20
336.0666188871361
 30
0.0
 11
855.9624232727319
 21
336.1624813790641
 31
0.0
  0
LINE
  5
189
330
22
100
AcDbEntity
  8
_4-2_
  6
Continuous
 62
     7
100
AcDbLine
 10
855.9624232727319
 20
336.1624813790641
 30
0.0
 11
856.0493289572978
 21
336.2573221560992
 31
0.0
  0
LINE
  5
18A
330
22
100
AcDbEntity
  8
_4-2_
  6
Continuous
 62
     7
100
AcDbLine
 10
856.0493289572978
 20
336.2573221560992
 30
0.0
 11
856.1001763934937
 21
336.311961589228
 31
0.0
  0
LINE
  5
18B
330
22
100
AcDbEntity
  8
_4-2_
  6
Continuous
 62
     7
100
AcDbLine
 10
856.1001763934937
 20
336.311961589228
 30
0.0
 11
856.1536983143785
 21
336.3688804482277
 31
0.0
  0
LINE
  5
18C
330
22
100
AcDbEntity
  8
_4-2_
  6
Continuous
 62
     7
100
AcDbLine
 10
856.1536983143785
 20
336.3688804482277
 30
0.0
 11
856.2469466633194
 21
336.4661940412489
 31
0.0
  0
LINE
  5
18D
330
22
100
AcDbEntity
  8
_4-2_
  6
Continuous
 62
     7
100
AcDbLine
 10
856.2469466633194
 20
336.4661940412489
 30
0.0
 11
856.3417905468019
 21
336.5620352777469
 31
0.0
  0
LINE
  5
18E
330
22
100
AcDbEntity
  8
_4-2_
  6
Continuous
 62
     7
100
AcDbLine
 10
856.3417905468019
 20
336.5620352777469
 30
0.0
 11
856.4386587214915
 21
336.6559025520715
 31
0.0
  0
LINE
  5
18F
330
22
100
AcDbEntity
  8
_4-2_
  6
Continuous
 62
     7
100
AcDbLine
 10
856.4386587214915
 20
336.6559025520715
 30
0.0
 11
856.5379799440584
 21
336.7472942585724
 31
0.0
  0
LINE
  5
190
330
22
100
AcDbEntity
  8
_4-2_
  6
Continuous
 62
     7
100
AcDbLine
 10
856.5379799440584
 20
336.7472942585724
 30
0.0
 11
856.6401829711718
 21
336.8357087915902
 31
0.0
  0
LINE
  5
191
330
22
100
AcDbEntity
  8
_4-2_
  6
Continuous
 62
     7
100
AcDbLine
 10
856.6401829711718
 20
336.8357087915902
 30
0.0
 11
856.7009501221638
 21
336.8854274211404
 31
0.0
  0
LINE
  5
192
330
22
100
AcDbEntity
  8
_4-2_
  6
Continuous
 62
     7
100
AcDbLine
 10
856.7009501221638
 20
336.8854274211404
 30
0.0
 11
856.7557336843774
 21
336.9283807664502
 31
0.0
  0
LINE
  5
193
330
22
100
AcDbEntity
  8
_4-2_
  6
Continuous
 62
     7
100
AcDbLine
 10
856.7557336843774
 20
336.9283807664502
 30
0.0
 11
856.8523668718272
 21
336.9997637463248
 31
0.0
  0
LINE
  5
194
330
22
100
AcDbEntity
  8
_4-2_
  6
Continuous
 62
     7
100
AcDbLine
 10
856.8523668718272
 20
336.9997637463248
 30
0.0
 11
856.9517200863206
 21
337.0672466769057
 31
0.0
  0
LINE
  5
195
330
22
100
AcDbEntity
  8
_4-2_
  6
Continuous
 62
     7
100
AcDbLine
 10
856.9517200863206
 20
337.0672466769057
 30
0.0
 11
857.0537492470872
 21
337.1302311965465
 31
0.0
  0
LINE
  5
196
330
22
100
AcDbEntity
  8
_4-2_
  6
Continuous
 62
     7
100
AcDbLine
 10
857.0537492470872
 20
337.1302311965465
 30
0.0
 11
857.158410273357
 21
337.1881189436036
 31
0.0
  0
LINE
  5
197
330
22
100
AcDbEntity
  8
_4-2_
  6
Continuous
 62
     7
100
AcDbLine
 10
857.158410273357
 20
337.1881189436036
 30
0.0
 11
857.2656590843596
 21
337.2403115564217
 31
0.0
  0
LINE
  5
198
330
22
100
AcDbEntity
  8
_4-2_
  6
Continuous
 62
     7
100
AcDbLine
 10
857.2656590843596
 20
337.2403115564217
 30
0.0
 11
857.3290317475889
 21
337.267737975748
 31
0.0
  0
LINE
  5
199
330
22
100
AcDbEntity
  8
_4-2_
  6
Continuous
 62
     7
100
AcDbLine
 10
857.3290317475889
 20
337.267737975748
 30
0.0
 11
857.400222680552
 21
337.295568421538
 31
0.0
  0
LINE
  5
19A
330
22
100
AcDbEntity
  8
_4-2_
  6
Continuous
 62
     7
100
AcDbLine
 10
857.400222680552
 20
337.295568421538
 30
0.0
 11
857.5251529667104
 21
337.3376375642934
 31
0.0
  0
LINE
  5
19B
330
22
100
AcDbEntity
  8
_4-2_
  6
Continuous
 62
     7
100
AcDbLine
 10
857.5251529667104
 20
337.3376375642934
 30
0.0
 11
857.6524667784962
 21
337.373014783981
 31
0.0
  0
LINE
  5
19C
330
22
100
AcDbEntity
  8
_4-2_
  6
Continuous
 62
     7
100
AcDbLine
 10
857.6524667784962
 20
337.373014783981
 30
0.0
 11
857.7817162015014
 21
337.4026240800632
 31
0.0
  0
LINE
  5
19D
330
22
100
AcDbEntity
  8
_4-2_
  6
Continuous
 62
     7
100
AcDbLine
 10
857.7817162015014
 20
337.4026240800632
 30
0.0
 11
857.9124533213198
 21
337.4273894520062
 31
0.0
  0
LINE
  5
19E
330
22
100
AcDbEntity
  8
_4-2_
  6
Continuous
 62
     7
100
AcDbLine
 10
857.9124533213198
 20
337.4273894520062
 30
0.0
 11
858.0442302235416
 21
337.4482348992788
 31
0.0
  0
LINE
  5
19F
330
22
100
AcDbEntity
  8
_4-2_
  6
Continuous
 62
     7
100
AcDbLine
 10
858.0442302235416
 20
337.4482348992788
 30
0.0
 11
858.1209607535617
 21
337.4588932530506
 31
0.0
  0
LINE
  5
1A0
330
22
100
AcDbEntity
  8
_4-2_
  6
Continuous
 62
     7
100
AcDbLine
 10
858.1209607535617
 20
337.4588932530506
 30
0.0
 11
858.2137463598643
 21
337.470591377593
 31
0.0
  0
LINE
  5
1A1
330
22
100
AcDbEntity
  8
_4-2_
  6
Continuous
 62
     7
100
AcDbLine
 10
858.2137463598643
 20
337.470591377593
 30
0.0
 11
858.3739465256675
 21
337.4874081032741
 31
0.0
  0
LINE
  5
1A2
330
22
100
AcDbEntity
  8
_4-2_
  6
Continuous
 62
     7
100
AcDbLine
 10
858.3739465256675
 20
337.4874081032741
 30
0.0
 11
858.5341936060308
 21
337.4991945078355
 31
0.0
  0
LINE
  5
1A3
330
22
100
AcDbEntity
  8
_4-2_
  6
Continuous
 62
     7
100
AcDbLine
 10
858.5341936060308
 20
337.4991945078355
 30
0.0
 11
858.6942110039251
 21
337.5050358148283
 31
0.0
  0
LINE
  5
1A4
330
22
100
AcDbEntity
  8
_4-2_
  6
Continuous
 62
     7
100
AcDbLine
 10
858.6942110039251
 20
337.5050358148283
 30
0.0
 11
858.85372212232
 21
337.5040172477966
 31
0.0
  0
LINE
  5
1A5
330
22
100
AcDbEntity
  8
_4-2_
  6
Continuous
 62
     7
100
AcDbLine
 10
858.85372212232
 20
337.5040172477966
 30
0.0
 11
859.01245036419
 21
337.495224030296
 31
0.0
  0
LINE
  5
1A6
330
22
100
AcDbEntity
  8
_4-2_
  6
Continuous
 62
     7
100
AcDbLine
 10
859.01245036419
 20
337.495224030296
 30
0.0
 11
859.1040450368392
 21
337.4862011498081
 31
0.0
  0
LINE
  5
1A7
330
22
100
AcDbEntity
  8
_4-2_
  6
Continuous
 62
     7
100
AcDbLine
 10
859.1040450368392
 20
337.4862011498081
 30
0.0
 11
859.1711351565674
 21
337.477645033504
 31
0.0
  0
LINE
  5
1A8
330
22
100
AcDbEntity
  8
_4-2_
  6
Continuous
 62
     7
100
AcDbLine
 10
859.1711351565674
 20
337.477645033504
 30
0.0
 11
859.2864164445483
 21
337.4595452639792
 31
0.0
  0
LINE
  5
1A9
330
22
100
AcDbEntity
  8
_4-2_
  6
Continuous
 62
     7
100
AcDbLine
 10
859.2864164445483
 20
337.4595452639792
 30
0.0
 11
859.4013982304486
 21
337.4380980880178
 31
0.0
  0
LINE
  5
1AA
330
22
100
AcDbEntity
  8
_4-2_
  6
Continuous
 62
     7
100
AcDbLine
 10
859.4013982304486
 20
337.4380980880178
 30
0.0
 11
859.5163082528605
 21
337.4143388217491
 31
0.0
  0
LINE
  5
1AB
330
22
100
AcDbEntity
  8
_4-2_
  6
Continuous
 62
     7
100
AcDbLine
 10
859.5163082528605
 20
337.4143388217491
 30
0.0
 11
859.6313742503729
 21
337.3893027813088
 31
0.0
  0
LINE
  5
1AC
330
22
100
AcDbEntity
  8
_4-2_
  6
Continuous
 62
     7
100
AcDbLine
 10
859.6313742503729
 20
337.3893027813088
 30
0.0
 11
859.7468239615782
 21
337.364025282824
 31
0.0
  0
LINE
  5
1AD
330
22
100
AcDbEntity
  8
_4-2_
  6
Continuous
 62
     7
100
AcDbLine
 10
859.7468239615782
 20
337.364025282824
 30
0.0
 11
859.8140503525369
 21
337.3496616660205
 31
0.0
  0
LINE
  5
1AE
330
22
100
AcDbEntity
  8
_4-2_
  6
Continuous
 62
     7
100
AcDbLine
 10
859.8140503525369
 20
337.3496616660205
 30
0.0
 11
859.8903698721175
 21
337.3338655900844
 31
0.0
  0
LINE
  5
1AF
330
22
100
AcDbEntity
  8
_4-2_
  6
Continuous
 62
     7
100
AcDbLine
 10
859.8903698721175
 20
337.3338655900844
 30
0.0
 11
860.0221186368445
 21
337.3067721424368
 31
0.0
  0
LINE
  5
1B0
330
22
100
AcDbEntity
  8
_4-2_
  6
Continuous
 62
     7
100
AcDbLine
 10
860.0221186368445
 20
337.3067721424368
 30
0.0
 11
860.1531844017436
 21
337.2779389185954
 31
0.0
  0
LINE
  5
1B1
330
22
100
AcDbEntity
  8
_4-2_
  6
Continuous
 62
     7
100
AcDbLine
 10
860.1531844017436
 20
337.2779389185954
 30
0.0
 11
860.2825324950355
 21
337.2451351425289
 31
0.0
  0
LINE
  5
1B2
330
22
100
AcDbEntity
  8
_4-2_
  6
Continuous
 62
     7
100
AcDbLine
 10
860.2825324950355
 20
337.2451351425289
 30
0.0
 11
860.409128244945
 21
337.2061300382157
 31
0.0
  0
LINE
  5
1B3
330
22
100
AcDbEntity
  8
_4-2_
  6
Continuous
 62
     7
100
AcDbLine
 10
860.409128244945
 20
337.2061300382157
 30
0.0
 11
860.5319369796948
 21
337.1586928296338
 31
0.0
  0
LINE
  5
1B4
330
22
100
AcDbEntity
  8
_4-2_
  6
Continuous
 62
     7
100
AcDbLine
 10
860.5319369796948
 20
337.1586928296338
 30
0.0
 11
860.6010231210198
 21
337.1264366167239
 31
0.0
  0
LINE
  5
1B5
330
22
100
AcDbEntity
  8
_4-2_
  6
Continuous
 62
     7
100
AcDbLine
 10
860.6010231210198
 20
337.1264366167239
 30
0.0
 11
860.6630995155079
 21
337.0932581967705
 31
0.0
  0
LINE
  5
1B6
330
22
100
AcDbEntity
  8
_4-2_
  6
Continuous
 62
     7
100
AcDbLine
 10
860.6630995155079
 20
337.0932581967705
 30
0.0
 11
860.7664894625006
 21
337.0287042710848
 31
0.0
  0
LINE
  5
1B7
330
22
100
AcDbEntity
  8
_4-2_
  6
Continuous
 62
     7
100
AcDbLine
 10
860.7664894625006
 20
337.0287042710848
 30
0.0
 11
860.8652716946004
 21
336.9558607512513
 31
0.0
  0
LINE
  5
1B8
330
22
100
AcDbEntity
  8
_4-2_
  6
Continuous
 62
     7
100
AcDbLine
 10
860.8652716946004
 20
336.9558607512513
 30
0.0
 11
860.9594435986114
 21
336.8759065804298
 31
0.0
  0
LINE
  5
1B9
330
22
100
AcDbEntity
  8
_4-2_
  6
Continuous
 62
     7
100
AcDbLine
 10
860.9594435986114
 20
336.8759065804298
 30
0.0
 11
861.0490025613408
 21
336.7900207017752
 31
0.0
  0
LINE
  5
1BA
330
22
100
AcDbEntity
  8
_4-2_
  6
Continuous
 62
     7
100
AcDbLine
 10
861.0490025613408
 20
336.7900207017752
 30
0.0
 11
861.1339459695932
 21
336.6993820584449
 31
0.0
  0
LINE
  5
1BB
330
22
100
AcDbEntity
  8
_4-2_
  6
Continuous
 62
     7
100
AcDbLine
 10
861.1339459695932
 20
336.6993820584449
 30
0.0
 11
861.1810972695829
 21
336.6450984934445
 31
0.0
  0
LINE
  5
1BC
330
22
100
AcDbEntity
  8
_4-2_
  6
Continuous
 62
     7
100
AcDbLine
 10
861.1810972695829
 20
336.6450984934445
 30
0.0
 11
861.2337816598152
 21
336.5809938759517
 31
0.0
  0
LINE
  5
1BD
330
22
100
AcDbEntity
  8
_4-2_
  6
Continuous
 62
     7
100
AcDbLine
 10
861.2337816598152
 20
336.5809938759517
 30
0.0
 11
861.3201390718595
 21
336.467690744868
 31
0.0
  0
LINE
  5
1BE
330
22
100
AcDbEntity
  8
_4-2_
  6
Continuous
 62
     7
100
AcDbLine
 10
861.3201390718595
 20
336.467690744868
 30
0.0
 11
861.4014579887461
 21
336.3513003232302
 31
0.0
  0
LINE
  5
1BF
330
22
100
AcDbEntity
  8
_4-2_
  6
Continuous
 62
     7
100
AcDbLine
 10
861.4014579887461
 20
336.3513003232302
 30
0.0
 11
861.4784704274859
 21
336.2323215350502
 31
0.0
  0
LINE
  5
1C0
330
22
100
AcDbEntity
  8
_4-2_
  6
Continuous
 62
     7
100
AcDbLine
 10
861.4784704274859
 20
336.2323215350502
 30
0.0
 11
861.5519084050935
 21
336.1112533043357
 31
0.0
  0
LINE
  5
1C1
330
22
100
AcDbEntity
  8
_4-2_
  6
Continuous
 62
     7
100
AcDbLine
 10
861.5519084050935
 20
336.1112533043357
 30
0.0
 11
861.6225039385742
 21
335.988594555096
 31
0.0
  0
LINE
  5
1C2
330
22
100
AcDbEntity
  8
_4-2_
  6
Continuous
 62
     7
100
AcDbLine
 10
861.6225039385742
 20
335.988594555096
 30
0.0
 11
861.66243539286
 21
335.916920306951
 31
0.0
  0
LINE
  5
1C3
330
22
100
AcDbEntity
  8
_4-2_
  6
Continuous
 62
     7
100
AcDbLine
 10
861.66243539286
 20
335.916920306951
 30
0.0
 11
861.7044774975521
 21
335.8400036868662
 31
0.0
  0
LINE
  5
1C4
330
22
100
AcDbEntity
  8
_4-2_
  6
Continuous
 62
     7
100
AcDbLine
 10
861.7044774975521
 20
335.8400036868662
 30
0.0
 11
861.7757157733068
 21
335.7067494641356
 31
0.0
  0
LINE
  5
1C5
330
22
100
AcDbEntity
  8
_4-2_
  6
Continuous
 62
     7
100
AcDbLine
 10
861.7757157733068
 20
335.7067494641356
 30
0.0
 11
861.8457873660338
 21
335.5728138394252
 31
0.0
  0
LINE
  5
1C6
330
22
100
AcDbEntity
  8
_4-2_
  6
Continuous
 62
     7
100
AcDbLine
 10
861.8457873660338
 20
335.5728138394252
 30
0.0
 11
861.9151727468134
 21
335.4383455512553
 31
0.0
  0
LINE
  5
1C7
330
22
100
AcDbEntity
  8
_4-2_
  6
Continuous
 62
     7
100
AcDbLine
 10
861.9151727468134
 20
335.4383455512553
 30
0.0
 11
861.9843523867267
 21
335.3034933381414
 31
0.0
  0
LINE
  5
1C8
330
22
100
AcDbEntity
  8
_4-2_
  6
Continuous
 62
     7
100
AcDbLine
 10
861.9843523867267
 20
335.3034933381414
 30
0.0
 11
862.0538067568496
 21
335.1684059386062
 31
0.0
  0
LINE
  5
1C9
330
22
100
AcDbEntity
  8
_4-2_
  6
Continuous
 62
     7
100
AcDbLine
 10
862.0538067568496
 20
335.1684059386062
 30
0.0
 11
862.094405503493
 21
335.0900060951691
 31
0.0
  0
LINE
  5
1CA
330
22
100
AcDbEntity
  8
_4-2_
  6
Continuous
 62
     7
100
AcDbLine
 10
862.094405503493
 20
335.0900060951691
 30
0.0
 11
862.1496639123538
 21
334.9844884807899
 31
0.0
  0
LINE
  5
1CB
330
22
100
AcDbEntity
  8
_4-2_
  6
Continuous
 62
     7
100
AcDbLine
 10
862.1496639123538
 20
334.9844884807899
 30
0.0
 11
862.2474794223091
 21
334.8036161271094
 31
0.0
  0
LINE
  5
1CC
330
22
100
AcDbEntity
  8
_4-2_
  6
Continuous
 62
     7
100
AcDbLine
 10
862.2474794223091
 20
334.8036161271094
 30
0.0
 11
862.3501179180754
 21
334.6256735169518
 31
0.0
  0
LINE
  5
1CD
330
22
100
AcDbEntity
  8
_4-2_
  6
Continuous
 62
     7
100
AcDbLine
 10
862.3501179180754
 20
334.6256735169518
 30
0.0
 11
862.4594454101927
 21
334.4525151244412
 31
0.0
  0
LINE
  5
1CE
330
22
100
AcDbEntity
  8
_4-2_
  6
Continuous
 62
     7
100
AcDbLine
 10
862.4594454101927
 20
334.4525151244412
 30
0.0
 11
862.5773279091935
 21
334.2859954237011
 31
0.0
  0
LINE
  5
1CF
330
22
100
AcDbEntity
  8
_4-2_
  6
Continuous
 62
     7
100
AcDbLine
 10
862.5773279091935
 20
334.2859954237011
 30
0.0
 11
862.7056314256162
 21
334.1279688888509
 31
0.0
  0
LINE
  5
1D0
330
22
100
AcDbEntity
  8
_4-2_
  6
Continuous
 62
     7
100
AcDbLine
 10
862.7056314256162
 20
334.1279688888509
 30
0.0
 11
862.7855576805051
 21
334.0409358264893
 31
0.0
  0
LINE
  5
1D1
330
22
100
AcDbEntity
  8
_4-2_
  6
Continuous
 62
     7
100
AcDbLine
 10
862.7855576805051
 20
334.0409358264893
 30
0.0
 11
862.8144421631963
 21
334.0114951977958
 31
0.0
  0
LINE
  5
1D2
330
22
100
AcDbEntity
  8
_4-2_
  6
Continuous
 62
     7
100
AcDbLine
 10
862.8144421631963
 20
334.0114951977958
 30
0.0
 11
862.8655042016598
 21
333.9619045133978
 31
0.0
  0
LINE
  5
1D3
330
22
100
AcDbEntity
  8
_4-2_
  6
Continuous
 62
     7
100
AcDbLine
 10
862.8655042016598
 20
333.9619045133978
 30
0.0
 11
862.9181306968664
 21
333.9139044449976
 31
0.0
  0
LINE
  5
1D4
330
22
100
AcDbEntity
  8
_4-2_
  6
Continuous
 62
     7
100
AcDbLine
 10
862.9181306968664
 20
333.9139044449976
 30
0.0
 11
862.9722844315494
 21
333.8676238804183
 31
0.0
  0
LINE
  5
1D5
330
22
100
AcDbEntity
  8
_4-2_
  6
Continuous
 62
     7
100
AcDbLine
 10
862.9722844315494
 20
333.8676238804183
 30
0.0
 11
863.0279281884476
 21
333.823191707485
 31
0.0
  0
LINE
  5
1D6
330
22
100
AcDbEntity
  8
_4-2_
  6
Continuous
 62
     7
100
AcDbLine
 10
863.0279281884476
 20
333.823191707485
 30
0.0
 11
863.0850247502927
 21
333.7807368140321
 31
0.0
  0
LINE
  5
1D7
330
22
100
AcDbEntity
  8
_4-2_
  6
Continuous
 62
     7
100
AcDbLine
 10
863.0850247502927
 20
333.7807368140321
 30
0.0
 11
863.118791765852
 21
333.7570697537868
 31
0.0
  0
LINE
  5
1D8
330
22
100
AcDbEntity
  8
_4-2_
  6
Continuous
 62
     7
100
AcDbLine
 10
863.118791765852
 20
333.7570697537868
 30
0.0
 11
863.1747926477817
 21
333.7200118223009
 31
0.0
  0
LINE
  5
1D9
330
22
100
AcDbEntity
  8
_4-2_
  6
Continuous
 62
     7
100
AcDbLine
 10
863.1747926477817
 20
333.7200118223009
 30
0.0
 11
863.2736623003882
 21
333.6597535321804
 31
0.0
  0
LINE
  5
1DA
330
22
100
AcDbEntity
  8
_4-2_
  6
Continuous
 62
     7
100
AcDbLine
 10
863.2736623003882
 20
333.6597535321804
 30
0.0
 11
863.3745443547841
 21
333.6026732765109
 31
0.0
  0
LINE
  5
1DB
330
22
100
AcDbEntity
  8
_4-2_
  6
Continuous
 62
     7
100
AcDbLine
 10
863.3745443547841
 20
333.6026732765109
 30
0.0
 11
863.476369322467
 21
333.5471165837262
 31
0.0
  0
LINE
  5
1DC
330
22
100
AcDbEntity
  8
_4-2_
  6
Continuous
 62
     7
100
AcDbLine
 10
863.476369322467
 20
333.5471165837262
 30
0.0
 11
863.5780677149375
 21
333.4914289822669
 31
0.0
  0
LINE
  5
1DD
330
22
100
AcDbEntity
  8
_4-2_
  6
Continuous
 62
     7
100
AcDbLine
 10
863.5780677149375
 20
333.4914289822669
 30
0.0
 11
863.678570043695
 21
333.4339560005643
 31
0.0
  0
LINE
  5
1DE
330
22
100
AcDbEntity
  8
_4-2_
  6
Continuous
 62
     7
100
AcDbLine
 10
863.678570043695
 20
333.4339560005643
 30
0.0
 11
863.7358919238987
 21
333.3991516621214
 31
0.0
  0
LINE
  5
1DF
330
22
100
AcDbEntity
  8
_4-2_
  6
Continuous
 62
     7
100
AcDbLine
 10
863.7358919238987
 20
333.3991516621214
 30
0.0
 11
863.7936487941475
 21
333.3620486809505
 31
0.0
  0
LINE
  5
1E0
330
22
100
AcDbEntity
  8
_4-2_
  6
Continuous
 62
     7
100
AcDbLine
 10
863.7936487941475
 20
333.3620486809505
 30
0.0
 11
863.8911131704947
 21
333.2948600798446
 31
0.0
  0
LINE
  5
1E1
330
22
100
AcDbEntity
  8
_4-2_
  6
Continuous
 62
     7
100
AcDbLine
 10
863.8911131704947
 20
333.2948600798446
 30
0.0
 11
863.9863147593823
 21
333.2242455861152
 31
0.0
  0
LINE
  5
1E2
330
22
100
AcDbEntity
  8
_4-2_
  6
Continuous
 62
     7
100
AcDbLine
 10
863.9863147593823
 20
333.2242455861152
 30
0.0
 11
864.0797375648423
 21
333.1509580533671
 31
0.0
  0
LINE
  5
1E3
330
22
100
AcDbEntity
  8
_4-2_
  6
Continuous
 62
     7
100
AcDbLine
 10
864.0797375648423
 20
333.1509580533671
 30
0.0
 11
864.1718655909006
 21
333.0757503352121
 31
0.0
  0
LINE
  5
1E4
330
22
100
AcDbEntity
  8
_4-2_
  6
Continuous
 62
     7
100
AcDbLine
 10
864.1718655909006
 20
333.0757503352121
 30
0.0
 11
864.2631828415856
 21
332.9993752852593
 31
0.0
  0
LINE
  5
1E5
330
22
100
AcDbEntity
  8
_4-2_
  6
Continuous
 62
     7
100
AcDbLine
 10
864.2631828415856
 20
332.9993752852593
 30
0.0
 11
864.3159660724618
 21
332.9548395483258
 31
0.0
  0
LINE
  5
1E6
330
22
100
AcDbEntity
  8
_4-2_
  6
Continuous
 62
     7
100
AcDbLine
 10
864.3159660724618
 20
332.9548395483258
 30
0.0
 11
864.3821172372247
 21
332.8989141833873
 31
0.0
  0
LINE
  5
1E7
330
22
100
AcDbEntity
  8
_4-2_
  6
Continuous
 62
     7
100
AcDbLine
 10
864.3821172372247
 20
332.8989141833873
 30
0.0
 11
864.4956002236664
 21
332.8019872747646
 31
0.0
  0
LINE
  5
1E8
330
22
100
AcDbEntity
  8
_4-2_
  6
Continuous
 62
     7
100
AcDbLine
 10
864.4956002236664
 20
332.8019872747646
 30
0.0
 11
864.6075843815571
 21
332.7036190446157
 31
0.0
  0
LINE
  5
1E9
330
22
100
AcDbEntity
  8
_4-2_
  6
Continuous
 62
     7
100
AcDbLine
 10
864.6075843815571
 20
332.7036190446157
 30
0.0
 11
864.7171669604494
 21
332.6028751709114
 31
0.0
  0
LINE
  5
1EA
330
22
100
AcDbEntity
  8
_4-2_
  6
Continuous
 62
     7
100
AcDbLine
 10
864.7171669604494
 20
332.6028751709114
 30
0.0
 11
864.8234452098913
 21
332.498821331632
 31
0.0
  0
LINE
  5
1EB
330
22
100
AcDbEntity
  8
_4-2_
  6
Continuous
 62
     7
100
AcDbLine
 10
864.8234452098913
 20
332.498821331632
 30
0.0
 11
864.9255163794405
 21
332.3905232047505
 31
0.0
  0
LINE
  5
1EC
330
22
100
AcDbEntity
  8
_4-2_
  6
Continuous
 62
     7
100
AcDbLine
 10
864.9255163794405
 20
332.3905232047505
 30
0.0
 11
864.982434243153
 21
332.325397387116
 31
0.0
  0
LINE
  5
1ED
330
22
100
AcDbEntity
  8
_4-2_
  6
Continuous
 62
     7
100
AcDbLine
 10
864.982434243153
 20
332.325397387116
 30
0.0
 11
865.0147212885519
 21
332.2865928399156
 31
0.0
  0
LINE
  5
1EE
330
22
100
AcDbEntity
  8
_4-2_
  6
Continuous
 62
     7
100
AcDbLine
 10
865.0147212885519
 20
332.2865928399156
 30
0.0
 11
865.0686744824927
 21
332.2181723775171
 31
0.0
  0
LINE
  5
1EF
330
22
100
AcDbEntity
  8
_4-2_
  6
Continuous
 62
     7
100
AcDbLine
 10
865.0686744824927
 20
332.2181723775171
 30
0.0
 11
865.1201494025745
 21
332.1478590914185
 31
0.0
  0
LINE
  5
1F0
330
22
100
AcDbEntity
  8
_4-2_
  6
Continuous
 62
     7
100
AcDbLine
 10
865.1201494025745
 20
332.1478590914185
 30
0.0
 11
865.1687873342902
 21
332.0756835084754
 31
0.0
  0
LINE
  5
1F1
330
22
100
AcDbEntity
  8
_4-2_
  6
Continuous
 62
     7
100
AcDbLine
 10
865.1687873342902
 20
332.0756835084754
 30
0.0
 11
865.2142295631312
 21
332.0016761555408
 31
0.0
  0
LINE
  5
1F2
330
22
100
AcDbEntity
  8
_4-2_
  6
Continuous
 62
     7
100
AcDbLine
 10
865.2142295631312
 20
332.0016761555408
 30
0.0
 11
865.2561173745869
 21
331.925867559477
 31
0.0
  0
LINE
  5
1F3
330
22
100
AcDbEntity
  8
_4-2_
  6
Continuous
 62
     7
100
AcDbLine
 10
865.2561173745869
 20
331.925867559477
 30
0.0
 11
865.2786423190159
 21
331.8810852733251
 31
0.0
  0
LINE
  5
1F4
330
22
100
AcDbEntity
  8
_4-2_
  6
Continuous
 62
     7
100
AcDbLine
 10
865.2786423190159
 20
331.8810852733251
 30
0.0
 11
865.3077997273644
 21
331.817662841419
 31
0.0
  0
LINE
  5
1F5
330
22
100
AcDbEntity
  8
_4-2_
  6
Continuous
 62
     7
100
AcDbLine
 10
865.3077997273644
 20
331.817662841419
 30
0.0
 11
865.3524789513321
 21
331.7059351045113
 31
0.0
  0
LINE
  5
1F6
330
22
100
AcDbEntity
  8
_4-2_
  6
Continuous
 62
     7
100
AcDbLine
 10
865.3524789513321
 20
331.7059351045113
 30
0.0
 11
865.3911985379737
 21
331.5916723431669
 31
0.0
  0
LINE
  5
1F7
330
22
100
AcDbEntity
  8
_4-2_
  6
Continuous
 62
     7
100
AcDbLine
 10
865.3911985379737
 20
331.5916723431669
 30
0.0
 11
865.4252597181411
 21
331.4754280561729
 31
0.0
  0
LINE
  5
1F8
330
22
100
AcDbEntity
  8
_4-2_
  6
Continuous
 62
     7
100
AcDbLine
 10
865.4252597181411
 20
331.4754280561729
 30
0.0
 11
865.4559637226965
 21
331.3577557423164
 31
0.0
  0
LINE
  5
1F9
330
22
100
AcDbEntity
  8
_4-2_
  6
Continuous
 62
     7
100
AcDbLine
 10
865.4559637226965
 20
331.3577557423164
 30
0.0
 11
865.4846117824956
 21
331.2392089003757
 31
0.0
  0
LINE
  5
1FA
330
22
100
AcDbEntity
  8
_4-2_
  6
Continuous
 62
     7
100
AcDbLine
 10
865.4846117824956
 20
331.2392089003757
 30
0.0
 11
865.5007983759116
 21
331.170269130586
 31
0.0
  0
LINE
  5
1FB
330
22
100
AcDbEntity
  8
_4-2_
  6
Continuous
 62
     7
100
AcDbLine
 10
822.5333759617784
 20
331.170269130586
 30
0.0
 11
858.7833759617785
 21
331.170269130586
 31
0.0
  0
LINE
  5
1FC
330
22
100
AcDbEntity
  8
_4-4_
  6
Continuous
 62
     2
100
AcDbLine
 10
858.7833759617785
 20
334.295269130586
 30
0.0
 11
858.7833759617785
 21
331.170269130586
 31
0.0
  0
LINE
  5
1FD
330
22
100
AcDbEntity
  8
_4-4_
  6
Continuous
 62
     2
100
AcDbLine
 10
827.5333759617785
 20
334.295269130586
 30
0.0
 11
858.7833759617785
 21
334.295269130586
 31
0.0
  0
LINE
  5
1FE
330
22
100
AcDbEntity
  8
_4-2_
  6
Continuous
 62
     7
100
AcDbLine
 10
822.5333759617784
 20
578.0452691305859
 30
0.0
 11
822.5333759617784
 21
328.045269130586
 31
0.0
  0
LINE
  5
1FF
330
22
100
AcDbEntity
  8
_4-2_
  6
Continuous
 62
     7
100
AcDbLine
 10
822.5333759617784
 20
328.045269130586
 30
0.0
 11
1378.783375961778
 21
328.045269130586
 31
0.0
  0
LINE
  5
200
330
22
100
AcDbEntity
  8
_4-4_
  6
Continuous
 62
     2
100
AcDbLine
 10
728.7833759617784
 20
678.3429134102894
 30
0.0
 11
728.7833759617784
 21
178.3429134102894
 31
0.0
  0
LINE
  5
201
330
22
100
AcDbEntity
  8
_4-E_
  6
Continuous
 62
     4
100
AcDbLine
 10
728.7833759617784
 20
522.3663411751671
 30
0.0
 11
879.4969154259852
 21
673.0798806393742
 31
0.0
  0
LINE
  5
202
330
22
100
AcDbEntity
  8
_4-E_
  6
Continuous
 62
     4
100
AcDbLine
 10
728.7833759617784
 20
508.2242055514361
 30
0.0
 11
893.1618606475216
 21
672.6026902371759
 31
0.0
  0
LINE
  5
203
330
22
100
AcDbEntity
  8
_4-E_
  6
Continuous
 62
     4
100
AcDbLine
 10
728.7833759617784
 20
515.2952733633005
 30
0.0
 11
886.3293880367528
 21
672.8412854382749
 31
0.0
  0
LINE
  5
204
330
22
100
AcDbEntity
  8
_4-E_
  6
Continuous
 62
     4
100
AcDbLine
 10
728.7833759617784
 20
322.3663411751672
 30
0.0
 11
822.5333759617784
 21
416.1163411751672
 31
0.0
  0
LINE
  5
205
330
22
100
AcDbEntity
  8
_4-E_
  6
Continuous
 62
     4
100
AcDbLine
 10
728.7833759617784
 20
308.2242055514362
 30
0.0
 11
822.5333759617784
 21
401.974205551434
 31
0.0
  0
LINE
  5
206
330
22
100
AcDbEntity
  8
_4-E_
  6
Continuous
 62
     4
100
AcDbLine
 10
728.7833759617784
 20
315.2952733633006
 30
0.0
 11
822.5333759617784
 21
409.0452733633005
 31
0.0
  0
LINE
  5
207
330
22
100
AcDbEntity
  8
_4-E_
  6
Continuous
 62
     4
100
AcDbLine
 10
784.7599481969017
 20
178.3429134102894
 30
0.0
 11
934.4623039171981
 21
328.045269130586
 31
0.0
  0
LINE
  5
208
330
22
100
AcDbEntity
  8
_4-E_
  6
Continuous
 62
     4
100
AcDbLine
 10
798.9020838206294
 20
178.3429134102894
 30
0.0
 11
948.604439540928
 21
328.045269130586
 31
0.0
  0
LINE
  5
209
330
22
100
AcDbEntity
  8
_4-E_
  6
Continuous
 62
     4
100
AcDbLine
 10
791.8310160087673
 20
178.3429134102894
 30
0.0
 11
941.5333717290639
 21
328.045269130586
 31
0.0
  0
LINE
  5
20A
330
22
100
AcDbEntity
  8
_4-E_
  6
Continuous
 62
     4
100
AcDbLine
 10
1040.712303917198
 20
234.295269130586
 30
0.0
 11
1134.462303917198
 21
328.045269130586
 31
0.0
  0
LINE
  5
20B
330
22
100
AcDbEntity
  8
_4-E_
  6
Continuous
 62
     4
100
AcDbLine
 10
1254.854439540927
 20
234.295269130586
 30
0.0
 11
1348.604439540928
 21
328.045269130586
 31
0.0
  0
LINE
  5
20C
330
22
100
AcDbEntity
  8
_4-E_
  6
Continuous
 62
     4
100
AcDbLine
 10
1054.854439540926
 20
234.295269130586
 30
0.0
 11
1148.604439540928
 21
328.045269130586
 31
0.0
  0
LINE
  5
20D
330
22
100
AcDbEntity
  8
_4-E_
  6
Continuous
 62
     4
100
AcDbLine
 10
1047.783371729063
 20
234.295269130586
 30
0.0
 11
1141.533371729063
 21
328.045269130586
 31
0.0
  0
LINE
  5
20E
330
22
100
AcDbEntity
  8
_4-E_
  6
Continuous
 62
     4
100
AcDbLine
 10
1240.712303917198
 20
234.295269130586
 30
0.0
 11
1334.462303917199
 21
328.045269130586
 31
0.0
  0
LINE
  5
20F
330
22
100
AcDbEntity
  8
_4-E_
  6
Continuous
 62
     4
100
AcDbLine
 10
1247.783371729063
 20
234.295269130586
 30
0.0
 11
1341.533371729066
 21
328.045269130586
 31
0.0
  0
TEXT
  5
210
330
22
100
AcDbEntity
  8
_4-A_
 62
     7
100
AcDbText
 10
946.6634018696193
 20
391.4489082982337
 30
0.0
 40
15.0
  1
プルーフシーラー
100
AcDbText
  0
TEXT
  5
211
330
22
100
AcDbEntity
  8
_4-A_
 62
     7
100
AcDbText
 10
946.6634018696193
 20
366.4489082982337
 30
0.0
 40
15.0
  1
塩ビシート 接着工法
100
AcDbText
  0
LINE
  5
212
330
22
100
AcDbEntity
  8
_4-A_
  6
Continuous
 62
     7
100
AcDbLine
 10
936.6634018696194
 20
373.9489082982337
 30
0.0
 11
912.7405870364816
 21
373.9489082982337
 31
0.0
  0
LINE
  5
213
330
22
100
AcDbEntity
  8
_4-A_
  6
Continuous
 62
     7
100
AcDbLine
 10
936.6634018696194
 20
398.9489082982337
 30
0.0
 11
896.3670499040777
 21
398.9489082982337
 31
0.0
  0
LINE
  5
214
330
22
100
AcDbEntity
  8
_4-A_
  6
Continuous
 62
     7
100
AcDbLine
 10
860.017733772937
 20
335.9900459387146
 30
0.0
 11
896.3670499040777
 21
398.9489082982337
 31
0.0
  0
TEXT
  5
215
330
22
100
AcDbEntity
  8
_4-A_
 62
     7
100
AcDbText
 10
897.1438725987001
 20
541.4489082982336
 30
0.0
 40
15.0
  1
ロンシーラントＳ
100
AcDbText
  0
LINE
  5
216
330
22
100
AcDbEntity
  8
_4-A_
  6
Continuous
 62
     7
100
AcDbLine
 10
888.0423281974755
 20
331.170269130586
 30
0.0
 11
912.7405870364816
 21
373.9489082982337
 31
0.0
  0
POINT
  5
217
330
22
100
AcDbEntity
  8
_4-B_
 62
     1
100
AcDbPoint
 10
1306.049397609449
 20
578.0452691305859
 30
0.0
  0
LINE
  5
218
330
22
100
AcDbEntity
  8
_4-B_
  6
Continuous
 62
     7
100
AcDbLine
 10
1306.049397609449
 20
578.0452691305859
 30
0.0
 11
1306.049397609449
 21
331.170269130586
 31
0.0
  0
POINT
  5
219
330
22
100
AcDbEntity
  8
_4-B_
 62
     1
100
AcDbPoint
 10
1306.049397609449
 20
331.170269130586
 30
0.0
  0
LINE
  5
21A
330
22
100
AcDbEntity
  8
_4-B_
  6
Continuous
 62
     7
100
AcDbLine
 10
1306.049397609449
 20
578.0452691305859
 30
0.0
 11
955.5496748940946
 21
578.0452691305859
 31
0.0
  0
TEXT
  5
21B
330
22
100
AcDbEntity
  8
_4-B_
 62
     7
100
AcDbText
 10
1303.549397609449
 20
426.7952691305859
 30
0.0
 40
15.0
  1
400以上
 50
90.0
100
AcDbText
  0
LINE
  5
21C
330
22
100
AcDbEntity
  8
_4-3_
  6
Continuous
 62
     3
100
AcDbLine
 10
916.2833759617784
 20
234.295269130586
 30
0.0
 11
1378.783375961778
 21
234.295269130586
 31
0.0
  0
LINE
  5
21D
330
22
100
AcDbEntity
  8
_4-3_
  6
Continuous
 62
     3
100
AcDbLine
 10
916.2833759617784
 20
234.295269130586
 30
0.0
 11
916.2833759617784
 21
178.3429134102894
 31
0.0
  0
LINE
  5
21E
330
22
100
AcDbEntity
  8
_4-4_
  6
Continuous
 62
     2
100
AcDbLine
 10
825.6583759617784
 20
336.1702691305883
 30
0.0
 11
825.6583759617784
 21
537.5677552766833
 31
0.0
  0
LINE
  5
21F
330
22
100
AcDbEntity
  8
_4-2_
  6
Continuous
 62
     7
100
AcDbLine
 10
826.9083759617783
 20
571.7952691305859
 30
0.0
 11
822.5333759617784
 21
571.7952691305859
 31
0.0
  0
LINE
  5
220
330
22
100
AcDbEntity
  8
_4-2_
  6
Continuous
 62
     7
100
AcDbLine
 10
823.7833759617783
 20
540.5452691305858
 30
0.0
 11
822.5333759617784
 21
538.3802056211257
 31
0.0
  0
LINE
  5
221
330
22
100
AcDbEntity
  8
_4-2_
  6
Continuous
 62
     7
100
AcDbLine
 10
823.7833759617783
 20
540.5452691305858
 30
0.0
 11
822.5333759617784
 21
540.5452691305858
 31
0.0
  0
LINE
  5
222
330
22
100
AcDbEntity
  8
_4-4_
  6
Continuous
 62
     2
100
AcDbLine
 10
826.9083759617783
 20
539.7079279042386
 30
0.0
 11
825.6583759617784
 21
537.5428643947784
 31
0.0
  0
LINE
  5
223
330
22
100
AcDbEntity
  8
_4-D_
  6
Continuous
 62
     4
100
AcDbLine
 10
822.5333759617784
 20
540.8073715362743
 30
0.0
 11
823.7833759617783
 21
542.0573715362766
 31
0.0
  0
LINE
  5
224
330
22
100
AcDbEntity
  8
_4-D_
  6
Continuous
 62
     4
100
AcDbLine
 10
822.5333759617772
 20
544.3429054422076
 30
0.0
 11
823.7833759617783
 21
545.5929054422099
 31
0.0
  0
LINE
  5
225
330
22
100
AcDbEntity
  8
_4-D_
  6
Continuous
 62
     4
100
AcDbLine
 10
822.5333759617765
 20
547.878439348141
 30
0.0
 11
823.7833759617783
 21
549.128439348141
 31
0.0
  0
LINE
  5
226
330
22
100
AcDbEntity
  8
_4-D_
  6
Continuous
 62
     4
100
AcDbLine
 10
822.5333759617765
 20
551.4139732540744
 30
0.0
 11
823.7833759617771
 21
552.6639732540744
 31
0.0
  0
LINE
  5
227
330
22
100
AcDbEntity
  8
_4-D_
  6
Continuous
 62
     4
100
AcDbLine
 10
822.533375961775
 20
558.4850410659296
 30
0.0
 11
823.7833759617764
 21
559.7350410659319
 31
0.0
  0
LINE
  5
228
330
22
100
AcDbEntity
  8
_4-D_
  6
Continuous
 62
     4
100
AcDbLine
 10
822.5333759617765
 20
565.5561088777984
 30
0.0
 11
823.783375961775
 21
566.8061088777964
 31
0.0
  0
LINE
  5
229
330
22
100
AcDbEntity
  8
_4-D_
  6
Continuous
 62
     4
100
AcDbLine
 10
822.5333759617765
 20
569.0916427837318
 30
0.0
 11
823.783375961775
 21
570.3416427837296
 31
0.0
  0
LINE
  5
22A
330
22
100
AcDbEntity
  8
_4-D_
  6
Continuous
 62
     4
100
AcDbLine
 10
822.5333759617795
 20
574.1893904125904
 30
0.0
 11
824.9274972437829
 21
571.7952691305881
 31
0.0
  0
LINE
  5
22B
330
22
100
AcDbEntity
  8
_4-D_
  6
Continuous
 62
     4
100
AcDbLine
 10
822.5333759617784
 20
577.7249243185236
 30
0.0
 11
828.4630311497164
 21
571.7952691305881
 31
0.0
  0
ARC
  5
22C
330
22
100
AcDbEntity
  8
_4-6_
  6
Continuous
 62
     2
100
AcDbCircle
 10
829.9083759617778
 20
569.4202691305863
 30
0.0
 40
0.125
100
AcDbArc
 50
270.0
 51
0.0
  0
LINE
  5
22D
330
22
100
AcDbEntity
  8
_4-6_
  6
Continuous
 62
     2
100
AcDbLine
 10
829.9083759617778
 20
569.2952691305858
 30
0.0
 11
828.7899824859422
 21
569.2952691305858
 31
0.0
  0
ARC
  5
22E
330
22
100
AcDbEntity
  8
_4-6_
  6
Continuous
 62
     2
100
AcDbCircle
 10
828.7899824859422
 20
569.1702691305875
 30
0.0
 40
0.125
100
AcDbArc
 50
90.0
 51
157.9756871629566
  0
LINE
  5
22F
330
22
100
AcDbEntity
  8
_4-6_
  6
Continuous
 62
     2
100
AcDbLine
 10
827.9083759617787
 20
561.4827691305857
 30
0.0
 11
827.5958759617775
 21
561.1702691305858
 31
0.0
  0
LINE
  5
230
330
22
100
AcDbEntity
  8
_4-6_
  6
Continuous
 62
     2
100
AcDbLine
 10
827.9083759617787
 20
560.8577691305858
 30
0.0
 11
827.5958759617775
 21
561.1702691305858
 31
0.0
  0
LINE
  5
231
330
22
100
AcDbEntity
  8
_4-6_
  6
Continuous
 62
     2
100
AcDbLine
 10
826.2833759617784
 20
571.1702691305858
 30
0.0
 11
826.9083759617783
 21
570.5452691305858
 31
0.0
  0
LINE
  5
232
330
22
100
AcDbEntity
  8
_4-6_
  6
Continuous
 62
     2
100
AcDbLine
 10
826.9083759617783
 20
570.5452691305858
 30
0.0
 11
826.2833759617784
 21
569.9202691305881
 31
0.0
  0
LINE
  5
233
330
22
100
AcDbEntity
  8
_4-6_
  6
Continuous
 62
     2
100
AcDbLine
 10
826.2833759617784
 20
569.9202691305881
 30
0.0
 11
826.9083759617783
 21
569.2952691305858
 31
0.0
  0
LINE
  5
234
330
22
100
AcDbEntity
  8
_4-6_
  6
Continuous
 62
     2
100
AcDbLine
 10
826.9083759617783
 20
569.2952691305858
 30
0.0
 11
826.2833759617784
 21
568.6702691305859
 31
0.0
  0
LINE
  5
235
330
22
100
AcDbEntity
  8
_4-6_
  6
Continuous
 62
     2
100
AcDbLine
 10
826.2833759617784
 20
569.9202691305881
 30
0.0
 11
826.9083759617783
 21
569.2952691305858
 31
0.0
  0
LINE
  5
236
330
22
100
AcDbEntity
  8
_4-6_
  6
Continuous
 62
     2
100
AcDbLine
 10
826.9083759617783
 20
569.2952691305858
 30
0.0
 11
826.2833759617784
 21
568.6702691305859
 31
0.0
  0
LINE
  5
237
330
22
100
AcDbEntity
  8
_4-6_
  6
Continuous
 62
     2
100
AcDbLine
 10
826.2833759617784
 20
569.9202691305881
 30
0.0
 11
826.9083759617783
 21
569.2952691305858
 31
0.0
  0
LINE
  5
238
330
22
100
AcDbEntity
  8
_4-6_
  6
Continuous
 62
     2
100
AcDbLine
 10
826.9083759617783
 20
569.2952691305858
 30
0.0
 11
826.2833759617784
 21
568.6702691305859
 31
0.0
  0
LINE
  5
239
330
22
100
AcDbEntity
  8
_4-6_
  6
Continuous
 62
     2
100
AcDbLine
 10
826.2833759617784
 20
568.6702691305859
 30
0.0
 11
826.9083759617783
 21
568.0452691305858
 31
0.0
  0
LINE
  5
23A
330
22
100
AcDbEntity
  8
_4-6_
  6
Continuous
 62
     2
100
AcDbLine
 10
826.9083759617783
 20
571.7952691305859
 30
0.0
 11
826.2833759617784
 21
571.1702691305858
 31
0.0
  0
LINE
  5
23B
330
22
100
AcDbEntity
  8
_4-6_
  6
Continuous
 62
     2
100
AcDbLine
 10
826.9083759617783
 20
568.0452691305858
 30
0.0
 11
826.2833759617784
 21
567.4202691305858
 31
0.0
  0
LINE
  5
23C
330
22
100
AcDbEntity
  8
_4-6_
  6
Continuous
 62
     2
100
AcDbLine
 10
830.3458759617784
 20
571.7952691305859
 30
0.0
 11
826.9083759617783
 21
571.7952691305859
 31
0.0
  0
ARC
  5
23D
330
22
100
AcDbEntity
  8
_4-6_
  6
Continuous
 62
     2
100
AcDbCircle
 10
830.3458759617784
 20
571.1702691305858
 30
0.0
 40
0.625
100
AcDbArc
 50
0.0
 51
90.00000000000003
  0
LINE
  5
23E
330
22
100
AcDbEntity
  8
_4-6_
  6
Continuous
 62
     2
100
AcDbLine
 10
830.9708759617784
 20
568.9827691305858
 30
0.0
 11
830.9708759617784
 21
571.1702691305858
 31
0.0
  0
ARC
  5
23F
330
22
100
AcDbEntity
  8
_4-6_
  6
Continuous
 62
     2
100
AcDbCircle
 10
830.3458759617784
 20
568.9827691305858
 30
0.0
 40
0.625
100
AcDbArc
 50
270.0
 51
0.0
  0
LINE
  5
240
330
22
100
AcDbEntity
  8
_4-6_
  6
Continuous
 62
     2
100
AcDbLine
 10
829.2534948913861
 20
568.3577691305859
 30
0.0
 11
830.3458759617784
 21
568.3577691305859
 31
0.0
  0
LINE
  5
241
330
22
100
AcDbEntity
  8
_4-6_
  6
Continuous
 62
     2
100
AcDbLine
 10
826.2833759617784
 20
567.4202691305858
 30
0.0
 11
826.9083759617783
 21
566.7952691305881
 31
0.0
  0
LINE
  5
242
330
22
100
AcDbEntity
  8
_4-6_
  6
Continuous
 62
     2
100
AcDbLine
 10
826.9083759617783
 20
566.7952691305881
 30
0.0
 11
826.2833759617784
 21
566.1702691305858
 31
0.0
  0
LINE
  5
243
330
22
100
AcDbEntity
  8
_4-6_
  6
Continuous
 62
     2
100
AcDbLine
 10
826.2833759617784
 20
566.1702691305858
 30
0.0
 11
826.9083759617783
 21
565.5452691305859
 31
0.0
  0
LINE
  5
244
330
22
100
AcDbEntity
  8
_4-6_
  6
Continuous
 62
     2
100
AcDbLine
 10
826.9083759617783
 20
565.5452691305859
 30
0.0
 11
826.2833759617784
 21
564.9202691305858
 31
0.0
  0
LINE
  5
245
330
22
100
AcDbEntity
  8
_4-6_
  6
Continuous
 62
     2
100
AcDbLine
 10
826.2833759617784
 20
566.1702691305858
 30
0.0
 11
826.9083759617783
 21
565.5452691305859
 31
0.0
  0
LINE
  5
246
330
22
100
AcDbEntity
  8
_4-6_
  6
Continuous
 62
     2
100
AcDbLine
 10
826.9083759617783
 20
565.5452691305859
 30
0.0
 11
826.2833759617784
 21
564.9202691305858
 31
0.0
  0
LINE
  5
247
330
22
100
AcDbEntity
  8
_4-6_
  6
Continuous
 62
     2
100
AcDbLine
 10
826.2833759617784
 20
566.1702691305858
 30
0.0
 11
826.9083759617783
 21
565.5452691305859
 31
0.0
  0
LINE
  5
248
330
22
100
AcDbEntity
  8
_4-6_
  6
Continuous
 62
     2
100
AcDbLine
 10
826.9083759617783
 20
565.5452691305859
 30
0.0
 11
826.2833759617784
 21
564.9202691305858
 31
0.0
  0
LINE
  5
249
330
22
100
AcDbEntity
  8
_4-6_
  6
Continuous
 62
     2
100
AcDbLine
 10
826.2833759617784
 20
564.9202691305858
 30
0.0
 11
826.9083759617783
 21
564.2952691305858
 31
0.0
  0
LINE
  5
24A
330
22
100
AcDbEntity
  8
_4-6_
  6
Continuous
 62
     2
100
AcDbLine
 10
826.9083759617783
 20
553.0452691305858
 30
0.0
 11
826.2833759617784
 21
553.6702691305857
 31
0.0
  0
LINE
  5
24B
330
22
100
AcDbEntity
  8
_4-6_
  6
Continuous
 62
     2
100
AcDbLine
 10
826.9083759617783
 20
553.0452691305858
 30
0.0
 11
826.2833759617784
 21
553.6702691305857
 31
0.0
  0
LINE
  5
24C
330
22
100
AcDbEntity
  8
_4-6_
  6
Continuous
 62
     2
100
AcDbLine
 10
826.9083759617783
 20
553.0452691305858
 30
0.0
 11
826.2833759617784
 21
553.6702691305857
 31
0.0
  0
LINE
  5
24D
330
22
100
AcDbEntity
  8
_4-6_
  6
Continuous
 62
     2
100
AcDbLine
 10
826.2833759617784
 20
553.6702691305857
 30
0.0
 11
826.9083759617783
 21
554.2952691305857
 31
0.0
  0
LINE
  5
24E
330
22
100
AcDbEntity
  8
_4-6_
  6
Continuous
 62
     2
100
AcDbLine
 10
826.9083759617783
 20
554.2952691305857
 30
0.0
 11
826.2833759617784
 21
554.9202691305858
 31
0.0
  0
LINE
  5
24F
330
22
100
AcDbEntity
  8
_4-6_
  6
Continuous
 62
     2
100
AcDbLine
 10
826.2833759617784
 20
554.9202691305858
 30
0.0
 11
826.9083759617783
 21
555.5452691305857
 31
0.0
  0
LINE
  5
250
330
22
100
AcDbEntity
  8
_4-6_
  6
Continuous
 62
     2
100
AcDbLine
 10
826.9083759617783
 20
555.5452691305857
 30
0.0
 11
826.2833759617784
 21
556.1702691305858
 31
0.0
  0
LINE
  5
251
330
22
100
AcDbEntity
  8
_4-6_
  6
Continuous
 62
     2
100
AcDbLine
 10
826.2833759617784
 20
556.1702691305858
 30
0.0
 11
826.9083759617783
 21
556.7952691305857
 31
0.0
  0
LINE
  5
252
330
22
100
AcDbEntity
  8
_4-6_
  6
Continuous
 62
     2
100
AcDbLine
 10
826.9083759617783
 20
556.7952691305857
 30
0.0
 11
826.2833759617784
 21
557.4202691305857
 31
0.0
  0
LINE
  5
253
330
22
100
AcDbEntity
  8
_4-6_
  6
Continuous
 62
     2
100
AcDbLine
 10
826.2833759617784
 20
556.1702691305858
 30
0.0
 11
826.9083759617783
 21
556.7952691305857
 31
0.0
  0
LINE
  5
254
330
22
100
AcDbEntity
  8
_4-6_
  6
Continuous
 62
     2
100
AcDbLine
 10
826.9083759617783
 20
556.7952691305857
 30
0.0
 11
826.2833759617784
 21
557.4202691305857
 31
0.0
  0
LINE
  5
255
330
22
100
AcDbEntity
  8
_4-6_
  6
Continuous
 62
     2
100
AcDbLine
 10
826.2833759617784
 20
556.1702691305858
 30
0.0
 11
826.9083759617783
 21
556.7952691305857
 31
0.0
  0
LINE
  5
256
330
22
100
AcDbEntity
  8
_4-6_
  6
Continuous
 62
     2
100
AcDbLine
 10
826.9083759617783
 20
556.7952691305857
 30
0.0
 11
826.2833759617784
 21
557.4202691305857
 31
0.0
  0
LINE
  5
257
330
22
100
AcDbEntity
  8
_4-6_
  6
Continuous
 62
     2
100
AcDbLine
 10
826.2833759617784
 20
557.4202691305857
 30
0.0
 11
826.9083759617783
 21
558.0452691305858
 31
0.0
  0
LINE
  5
258
330
22
100
AcDbEntity
  8
_4-6_
  6
Continuous
 62
     2
100
AcDbLine
 10
826.9083759617783
 20
551.9202691305863
 30
0.0
 11
826.9083759617783
 21
553.0452691305858
 31
0.0
  0
ARC
  5
259
330
22
100
AcDbEntity
  8
_4-6_
  6
Continuous
 62
     2
100
AcDbCircle
 10
827.0333759617777
 20
551.9202691305863
 30
0.0
 40
0.125
100
AcDbArc
 50
180.0
 51
270.0
  0
LINE
  5
25A
330
22
100
AcDbEntity
  8
_4-6_
  6
Continuous
 62
     2
100
AcDbLine
 10
827.7833759617783
 20
551.7952691305858
 30
0.0
 11
827.0333759617777
 21
551.7952691305858
 31
0.0
  0
LINE
  5
25B
330
22
100
AcDbEntity
  8
_4-6_
  6
Continuous
 62
     2
100
AcDbLine
 10
827.9083759617787
 20
551.9202691305863
 30
0.0
 11
827.9083759617787
 21
560.8577691305858
 31
0.0
  0
ARC
  5
25C
330
22
100
AcDbEntity
  8
_4-6_
  6
Continuous
 62
     2
100
AcDbCircle
 10
827.7833759617783
 20
551.9202691305863
 30
0.0
 40
0.125
100
AcDbArc
 50
270.0
 51
0.0
  0
ARC
  5
25D
330
22
100
AcDbEntity
  8
_4-6_
  6
Continuous
 62
     2
100
AcDbCircle
 10
829.9083759617778
 20
570.7327691305875
 30
0.0
 40
0.125
100
AcDbArc
 50
0.0
 51
90.00000000000003
  0
LINE
  5
25E
330
22
100
AcDbEntity
  8
_4-6_
  6
Continuous
 62
     2
100
AcDbLine
 10
828.0333759617777
 20
570.8577691305858
 30
0.0
 11
829.9083759617778
 21
570.8577691305858
 31
0.0
  0
LINE
  5
25F
330
22
100
AcDbEntity
  8
_4-6_
  6
Continuous
 62
     2
100
AcDbLine
 10
827.9083759617787
 20
570.7327691305875
 30
0.0
 11
827.9083759617787
 21
561.4827691305857
 31
0.0
  0
ARC
  5
260
330
22
100
AcDbEntity
  8
_4-6_
  6
Continuous
 62
     2
100
AcDbCircle
 10
828.0333759617777
 20
570.7327691305875
 30
0.0
 40
0.125
100
AcDbArc
 50
90.0
 51
180.0
  0
LINE
  5
261
330
22
100
AcDbEntity
  8
_4-6_
  6
Continuous
 62
     2
100
AcDbLine
 10
830.0333759617783
 20
569.4202691305863
 30
0.0
 11
830.0333759617783
 21
570.7327691305875
 31
0.0
  0
ARC
  5
262
330
22
100
AcDbEntity
  8
_4-6_
  6
Continuous
 62
     2
100
AcDbCircle
 10
829.2534948913861
 20
568.9827691305858
 30
0.0
 40
0.625
100
AcDbArc
 50
157.9756871629589
 51
270.0
  0
LINE
  5
263
330
22
100
AcDbEntity
  8
_4-6_
  6
Continuous
 62
     2
100
AcDbLine
 10
826.9083759617783
 20
564.2952691305858
 30
0.0
 11
826.9083759617783
 21
558.0452691305858
 31
0.0
  0
ARC
  5
264
330
22
100
AcDbEntity
  8
_4-7_
  6
Continuous
 62
     7
100
AcDbCircle
 10
827.9083759617787
 20
561.1702691305858
 30
0.0
 40
2.069499895611049
100
AcDbArc
 50
270.0
 51
90.0
  0
LINE
  5
265
330
22
100
AcDbEntity
  8
_4-7_
  6
Continuous
 62
     7
100
AcDbLine
 10
827.9083759617787
 20
559.1007692349753
 30
0.0
 11
827.9083759617787
 21
563.2397690261987
 31
0.0
  0
LINE
  5
266
330
22
100
AcDbEntity
  8
_4-7_
  6
Continuous
 62
     7
100
AcDbLine
 10
827.9083759617787
 20
559.9202691305881
 30
0.0
 11
822.5333759617784
 21
559.9202691305881
 31
0.0
  0
LINE
  5
267
330
22
100
AcDbEntity
  8
_4-7_
  6
Continuous
 62
     7
100
AcDbLine
 10
827.9083759617787
 20
562.4202691305881
 30
0.0
 11
822.5333759617784
 21
562.4202691305881
 31
0.0
  0
LINE
  5
268
330
22
100
AcDbEntity
  8
_4-D_
  6
Continuous
 62
     4
100
AcDbLine
 10
822.933070120499
 20
562.4202691305881
 30
0.0
 11
823.7833759617764
 21
563.2705749718629
 31
0.0
  0
LINE
  5
269
330
22
100
AcDbEntity
  8
_4-D_
  6
Continuous
 62
     4
100
AcDbLine
 10
822.5333759617765
 20
554.9495071600099
 30
0.0
 11
823.7833759617771
 21
556.1995071600099
 31
0.0
  0
LINE
  5
26A
330
22
100
AcDbEntity
  8
_4-4_
  6
Continuous
 62
     2
100
AcDbLine
 10
826.9083759617783
 20
551.9202691305863
 30
0.0
 11
826.9083759617783
 21
539.7079279042386
 31
0.0
  0
ARC
  5
26B
330
22
100
AcDbEntity
  8
_4-4_
  6
Continuous
 62
     2
100
AcDbCircle
 10
841.3063597586903
 20
572.2077812539387
 30
0.0
 40
10.9682437661763
100
AcDbArc
 50
147.8446158134887
 51
182.1553841865114
  0
LINE
  5
26C
330
22
100
AcDbEntity
  8
_4-D_
  6
Continuous
 62
     4
100
AcDbLine
 10
829.2840989615841
 20
578.0452691305859
 30
0.0
 11
831.1014258196927
 21
576.2279422724772
 31
0.0
  0
LINE
  5
26D
330
22
100
AcDbEntity
  8
_4-D_
  6
Continuous
 62
     4
100
AcDbLine
 10
825.7485650556496
 20
578.0452691305859
 30
0.0
 11
830.4021932368605
 21
573.3916409493772
 31
0.0
  0
LINE
  5
26E
330
22
100
AcDbEntity
  8
_4-2_
  6
Continuous
 62
     7
100
AcDbLine
 10
822.5333759617784
 20
578.0452691305859
 30
0.0
 11
832.0205584144728
 21
578.0452691305859
 31
0.0
  0
LINE
  5
26F
330
22
100
AcDbEntity
  8
_4-4_
  6
Continuous
 62
     2
100
AcDbLine
 10
832.0205584144728
 20
578.0452691305859
 30
0.0
 11
872.5333759617784
 21
578.0452691305859
 31
0.0
  0
LINE
  5
270
330
22
100
AcDbEntity
  8
_4-A_
  6
Continuous
 62
     7
100
AcDbLine
 10
887.1438725987001
 20
548.9489082982336
 30
0.0
 11
845.8312897223697
 21
548.9489082982336
 31
0.0
  0
LINE
  5
271
330
22
100
AcDbEntity
  8
_4-A_
  6
Continuous
 62
     7
100
AcDbLine
 10
830.4987349110284
 20
575.5056722413123
 30
0.0
 11
845.8312897223697
 21
548.9489082982336
 31
0.0
  0
LINE
  5
272
330
22
100
AcDbEntity
  8
_4-A_
  6
Continuous
 62
     7
100
AcDbLine
 10
887.1438725987001
 20
523.9489082982336
 30
0.0
 11
846.4697152384598
 21
523.9489082982336
 31
0.0
  0
LINE
  5
273
330
22
100
AcDbEntity
  8
_4-A_
  6
Continuous
 62
     7
100
AcDbLine
 10
827.5305395649217
 20
556.752522818273
 30
0.0
 11
846.4697152384598
 21
523.9489082982336
 31
0.0
  0
LINE
  5
274
330
22
100
AcDbEntity
  8
_4-A_
  6
Continuous
 62
     7
100
AcDbLine
 10
823.141759832996
 20
544.0535073902437
 30
0.0
 11
849.1829122604586
 21
498.9489082982337
 31
0.0
  0
LINE
  5
275
330
22
100
AcDbEntity
  8
_4-A_
  6
Continuous
 62
     7
100
AcDbLine
 10
887.1438725987001
 20
498.9489082982337
 30
0.0
 11
849.1829122604586
 21
498.9489082982337
 31
0.0
  0
TEXT
  5
276
330
22
100
AcDbEntity
  8
_4-A_
 62
     7
100
AcDbText
 10
897.1438725987001
 20
516.4489082982336
 30
0.0
 40
15.0
  1
Ｋ－１２
100
AcDbText
  0
TEXT
  5
277
330
22
100
AcDbEntity
  8
_4-A_
 62
     7
100
AcDbText
 10
897.1438725987001
 20
491.4489082982337
 30
0.0
 40
15.0
  1
ロンシーラントＴＢ
100
AcDbText
  0
TEXT
  5
278
330
22
100
AcDbEntity
  8
_4-A_
 62
     7
100
AcDbText
 10
897.1438725987001
 20
441.4489082982337
 30
0.0
 40
15.0
  1
塩ビシート 接着工法
100
AcDbText
  0
LINE
  5
279
330
22
100
AcDbEntity
  8
_4-A_
  6
Continuous
 62
     7
100
AcDbLine
 10
887.1438725987001
 20
448.9489082982337
 30
0.0
 11
840.1984778792563
 21
448.9489082982337
 31
0.0
  0
LINE
  5
27A
330
22
100
AcDbEntity
  8
_4-A_
  6
Continuous
 62
     7
100
AcDbLine
 10
825.6583759617784
 20
423.764713029931
 30
0.0
 11
840.1984778792563
 21
448.9489082982337
 31
0.0
  0
POINT
  5
27B
330
22
100
AcDbEntity
  8
_4-B_
 62
     1
100
AcDbPoint
 10
858.7833759617785
 20
394.5319042605857
 30
0.0
  0
LINE
  5
27C
330
22
100
AcDbEntity
  8
_4-B_
  6
Continuous
 62
     7
100
AcDbLine
 10
858.7833759617785
 20
394.5319042605857
 30
0.0
 11
858.7833759617785
 21
354.7065494901258
 31
0.0
  0
POINT
  5
27D
330
22
100
AcDbEntity
  8
_4-B_
 62
     1
100
AcDbPoint
 10
825.6583759617784
 20
394.5319042605857
 30
0.0
  0
LINE
  5
27E
330
22
100
AcDbEntity
  8
_4-B_
  6
Continuous
 62
     7
100
AcDbLine
 10
825.6583759617784
 20
394.5319042605857
 30
0.0
 11
858.7833759617785
 21
394.5319042605857
 31
0.0
  0
LINE
  5
27F
330
22
100
AcDbEntity
  8
_4-2_
  6
Continuous
 62
     7
100
AcDbLine
 10
823.7833759617783
 20
571.7952691305859
 30
0.0
 11
823.7833759617783
 21
562.4202691305881
 31
0.0
  0
LINE
  5
280
330
22
100
AcDbEntity
  8
_4-2_
  6
Continuous
 62
     7
100
AcDbLine
 10
823.7833759617783
 20
559.9202691305881
 30
0.0
 11
823.7833759617783
 21
540.5452691305858
 31
0.0
  0
TEXT
  5
281
330
22
100
AcDbEntity
  8
_4-B_
 62
     7
100
AcDbText
 10
828.5176490253592
 20
1047.244511631276
 30
0.0
 40
15.0
  1
40以上
100
AcDbText
  0
TEXT
  5
282
330
22
100
AcDbEntity
  8
_4-A_
 62
     7
100
AcDbText
 10
946.6634018696193
 20
1031.448908298233
 30
0.0
 40
15.0
  1
プルーフシーラー
100
AcDbText
  0
TEXT
  5
283
330
22
100
AcDbEntity
  8
_4-B_
 62
     7
100
AcDbText
 10
828.5176490253592
 20
397.0319042605857
 30
0.0
 40
15.0
  1
40以上
100
AcDbText
  0
LINE
  5
284
330
22
100
AcDbEntity
  8
_4-7_
  6
Continuous
 62
     7
100
AcDbLine
 10
819.973697728709
 20
1197.830778199397
 30
0.0
 11
822.5333759617784
 21
1197.830778199397
 31
0.0
  0
LINE
  5
285
330
22
100
AcDbEntity
  8
_4-7_
  6
Continuous
 62
     7
100
AcDbLine
 10
822.5333759617784
 20
1197.830778199397
 30
0.0
 11
822.5333759617784
 21
1199.705778199397
 31
0.0
  0
LINE
  5
286
330
22
100
AcDbEntity
  8
_4-7_
  6
Continuous
 62
     7
100
AcDbLine
 10
819.973697728709
 20
1197.830778199397
 30
0.0
 11
819.4583471535818
 21
1197.362028199397
 31
0.0
  0
LINE
  5
287
330
22
100
AcDbEntity
  8
_4-7_
  6
Continuous
 62
     7
100
AcDbLine
 10
819.4583471535818
 20
1197.362028199397
 30
0.0
 11
818.1467185741347
 21
1197.362028199397
 31
0.0
  0
LINE
  5
288
330
22
100
AcDbEntity
  8
_4-7_
  6
Continuous
 62
     7
100
AcDbLine
 10
818.1467185741347
 20
1197.362028199397
 30
0.0
 11
815.5732227533542
 21
1197.704665230647
 31
0.0
  0
LINE
  5
289
330
22
100
AcDbEntity
  8
_4-7_
  6
Continuous
 62
     7
100
AcDbLine
 10
815.5732227533542
 20
1197.704665230647
 30
0.0
 11
815.3184636855279
 21
1197.855867574397
 31
0.0
  0
LINE
  5
28A
330
22
100
AcDbEntity
  8
_4-7_
  6
Continuous
 62
     7
100
AcDbLine
 10
815.3184636855279
 20
1197.855867574397
 30
0.0
 11
815.3184636855279
 21
1197.830778199397
 31
0.0
  0
LINE
  5
28B
330
22
100
AcDbEntity
  8
_4-7_
  6
Continuous
 62
     7
100
AcDbLine
 10
815.3184636855279
 20
1197.830778199397
 30
0.0
 11
814.1846917564041
 21
1197.830778199397
 31
0.0
  0
LINE
  5
28C
330
22
100
AcDbEntity
  8
_4-7_
  6
Continuous
 62
     7
100
AcDbLine
 10
814.1846917564041
 20
1197.830778199397
 30
0.0
 11
813.6693408795292
 21
1198.101411049752
 31
0.0
  0
LINE
  5
28D
330
22
100
AcDbEntity
  8
_4-7_
  6
Continuous
 62
     7
100
AcDbLine
 10
813.5147356164656
 20
1198.020221168147
 30
0.0
 11
813.5147356164656
 21
1197.408903199397
 31
0.0
  0
LINE
  5
28E
330
22
100
AcDbEntity
  8
_4-7_
  6
Continuous
 62
     7
100
AcDbLine
 10
813.5147356164656
 20
1197.408903199397
 30
0.0
 11
810.8688664952907
 21
1197.408903199397
 31
0.0
  0
LINE
  5
28F
330
22
100
AcDbEntity
  8
_4-7_
  6
Continuous
 62
     7
100
AcDbLine
 10
810.8688664952907
 20
1197.408903199397
 30
0.0
 11
810.2680250921535
 21
1197.722321636896
 31
0.0
  0
LINE
  5
290
330
22
100
AcDbEntity
  8
_4-7_
  6
Continuous
 62
     7
100
AcDbLine
 10
810.2680250921535
 20
1197.722321636896
 30
0.0
 11
810.2680250921535
 21
1197.725309449397
 31
0.0
  0
LINE
  5
291
330
22
100
AcDbEntity
  8
_4-7_
  6
Continuous
 62
     7
100
AcDbLine
 10
810.2680253132676
 20
1197.725312057699
 30
0.0
 11
810.2680250921535
 21
1197.725309449397
 31
0.0
  0
LINE
  5
292
330
22
100
AcDbEntity
  8
_4-7_
  6
Continuous
 62
     7
100
AcDbLine
 10
810.2680253132676
 20
1197.725312057699
 30
0.0
 11
810.2680250921535
 21
1197.725309449397
 31
0.0
  0
LINE
  5
293
330
22
100
AcDbEntity
  8
_4-7_
  6
Continuous
 62
     7
100
AcDbLine
 10
809.5980689522161
 20
1197.745678980647
 30
0.0
 11
809.5980689522161
 21
1197.408903199397
 31
0.0
  0
LINE
  5
294
330
22
100
AcDbEntity
  8
_4-7_
  6
Continuous
 62
     7
100
AcDbLine
 10
809.5980689522161
 20
1197.408903199397
 30
0.0
 11
805.9747982417331
 21
1197.408903199397
 31
0.0
  0
LINE
  5
295
330
22
100
AcDbEntity
  8
_4-7_
  6
Continuous
 62
     7
100
AcDbLine
 10
805.9747982417331
 20
1197.408903199397
 30
0.0
 11
805.372203635629
 21
1197.72530769131
 31
0.0
  0
LINE
  5
296
330
22
100
AcDbEntity
  8
_4-7_
  6
Continuous
 62
     7
100
AcDbLine
 10
805.3721917618405
 20
1197.725309449397
 30
0.0
 11
805.6705988851158
 21
1197.72755421837
 31
0.0
  0
LINE
  5
297
330
22
100
AcDbEntity
  8
_4-7_
  6
Continuous
 62
     7
100
AcDbLine
 10
805.6705988851158
 20
1197.72755421837
 30
0.0
 11
805.6814022879663
 21
1197.927979223134
 31
0.0
  0
LINE
  5
298
330
22
100
AcDbEntity
  8
_4-7_
  6
Continuous
 62
     7
100
AcDbLine
 10
805.8360075510289
 20
1198.027142998239
 30
0.0
 11
806.3513584279029
 21
1197.745678980647
 31
0.0
  0
LINE
  5
299
330
22
100
AcDbEntity
  8
_4-7_
  6
Continuous
 62
     7
100
AcDbLine
 10
806.3513584279029
 20
1197.745678980647
 30
0.0
 11
806.6497655960255
 21
1197.745678885569
 31
0.0
  0
LINE
  5
29A
330
22
100
AcDbEntity
  8
_4-7_
  6
Continuous
 62
     7
100
AcDbLine
 10
806.6497655960255
 20
1197.745678885569
 30
0.0
 11
806.6605689540288
 21
1197.963199136896
 31
0.0
  0
LINE
  5
29B
330
22
100
AcDbEntity
  8
_4-7_
  6
Continuous
 62
     7
100
AcDbLine
 10
806.8151742170913
 20
1198.062942730472
 30
0.0
 11
807.3305250939663
 21
1197.745678980647
 31
0.0
  0
LINE
  5
29C
330
22
100
AcDbEntity
  8
_4-7_
  6
Continuous
 62
     7
100
AcDbLine
 10
807.3305250939663
 20
1197.745678980647
 30
0.0
 11
807.6289323196588
 21
1197.745678980647
 31
0.0
  0
LINE
  5
29D
330
22
100
AcDbEntity
  8
_4-7_
  6
Continuous
 62
     7
100
AcDbLine
 10
807.6289323196588
 20
1197.745678980647
 30
0.0
 11
807.6397356200912
 21
1197.963199136896
 31
0.0
  0
LINE
  5
29E
330
22
100
AcDbEntity
  8
_4-7_
  6
Continuous
 62
     7
100
AcDbLine
 10
807.7943408831536
 20
1198.062942730472
 30
0.0
 11
808.3096917600286
 21
1197.745678980647
 31
0.0
  0
LINE
  5
29F
330
22
100
AcDbEntity
  8
_4-7_
  6
Continuous
 62
     7
100
AcDbLine
 10
808.3096917600286
 20
1197.745678980647
 30
0.0
 11
808.6080989857213
 21
1197.745678980647
 31
0.0
  0
LINE
  5
2A0
330
22
100
AcDbEntity
  8
_4-7_
  6
Continuous
 62
     7
100
AcDbLine
 10
808.6080989857213
 20
1197.745678980647
 30
0.0
 11
808.6189022861535
 21
1197.963199136896
 31
0.0
  0
LINE
  5
2A1
330
22
100
AcDbEntity
  8
_4-7_
  6
Continuous
 62
     7
100
AcDbLine
 10
808.773507549216
 20
1198.062942730472
 30
0.0
 11
809.2888584260913
 21
1197.745678885569
 31
0.0
  0
LINE
  5
2A2
330
22
100
AcDbEntity
  8
_4-7_
  6
Continuous
 62
     7
100
AcDbLine
 10
809.2888584260913
 20
1197.745678885569
 30
0.0
 11
809.5980689522161
 21
1197.745678980647
 31
0.0
  0
LINE
  5
2A3
330
22
100
AcDbEntity
  8
_4-7_
  6
Continuous
 62
     7
100
AcDbLine
 10
810.2680253132676
 20
1197.725312057699
 30
0.0
 11
810.5664324813892
 21
1197.727615308478
 31
0.0
  0
LINE
  5
2A4
330
22
100
AcDbEntity
  8
_4-7_
  6
Continuous
 62
     7
100
AcDbLine
 10
810.5664324813892
 20
1197.727615308478
 30
0.0
 11
810.5772356182782
 21
1197.926018355647
 31
0.0
  0
LINE
  5
2A5
330
22
100
AcDbEntity
  8
_4-7_
  6
Continuous
 62
     7
100
AcDbLine
 10
810.7318408813407
 20
1198.027325943347
 30
0.0
 11
811.247191758216
 21
1197.745678885569
 31
0.0
  0
LINE
  5
2A6
330
22
100
AcDbEntity
  8
_4-7_
  6
Continuous
 62
     7
100
AcDbLine
 10
811.247191758216
 20
1197.745678885569
 30
0.0
 11
811.5455989263374
 21
1197.745678885569
 31
0.0
  0
LINE
  5
2A7
330
22
100
AcDbEntity
  8
_4-7_
  6
Continuous
 62
     7
100
AcDbLine
 10
811.5455989263374
 20
1197.745678885569
 30
0.0
 11
811.5564022843408
 21
1197.963199136896
 31
0.0
  0
LINE
  5
2A8
330
22
100
AcDbEntity
  8
_4-7_
  6
Continuous
 62
     7
100
AcDbLine
 10
811.7110075474032
 20
1198.062942730472
 30
0.0
 11
812.2263584242782
 21
1197.745678980647
 31
0.0
  0
LINE
  5
2A9
330
22
100
AcDbEntity
  8
_4-7_
  6
Continuous
 62
     7
100
AcDbLine
 10
812.2263584242782
 20
1197.745678980647
 30
0.0
 11
812.5247655923999
 21
1197.745678885569
 31
0.0
  0
LINE
  5
2AA
330
22
100
AcDbEntity
  8
_4-7_
  6
Continuous
 62
     7
100
AcDbLine
 10
812.5247655923999
 20
1197.745678885569
 30
0.0
 11
812.5357136886281
 21
1197.963752944702
 31
0.0
  0
LINE
  5
2AB
330
22
100
AcDbEntity
  8
_4-7_
  6
Continuous
 62
     7
100
AcDbLine
 10
812.690174213467
 20
1198.062942730472
 30
0.0
 11
813.2055250903405
 21
1197.745678885569
 31
0.0
  0
LINE
  5
2AC
330
22
100
AcDbEntity
  8
_4-7_
  6
Continuous
 62
     7
100
AcDbLine
 10
813.2055250903405
 20
1197.745678885569
 30
0.0
 11
813.5147356164656
 21
1197.745678984088
 31
0.0
  0
LINE
  5
2AD
330
22
100
AcDbEntity
  8
_4-7_
  6
Continuous
 62
     7
100
AcDbLine
 10
804.7022356219041
 20
1197.745678980647
 30
0.0
 11
804.7022356219041
 21
1197.408903199397
 31
0.0
  0
LINE
  5
2AE
330
22
100
AcDbEntity
  8
_4-7_
  6
Continuous
 62
     7
100
AcDbLine
 10
804.7022356219041
 20
1197.408903199397
 30
0.0
 11
802.6720845376303
 21
1197.408903199397
 31
0.0
  0
LINE
  5
2AF
330
22
100
AcDbEntity
  8
_4-7_
  6
Continuous
 62
     7
100
AcDbLine
 10
802.6720845376303
 20
1197.408903199397
 30
0.0
 11
800.4763584315286
 21
1197.725019293146
 31
0.0
  0
LINE
  5
2B0
330
22
100
AcDbEntity
  8
_4-7_
  6
Continuous
 62
     7
100
AcDbLine
 10
800.4763584315286
 20
1197.725019293146
 30
0.0
 11
800.7747653591172
 21
1197.725478366686
 31
0.0
  0
LINE
  5
2B1
330
22
100
AcDbEntity
  8
_4-7_
  6
Continuous
 62
     7
100
AcDbLine
 10
800.7747653591172
 20
1197.725478366686
 30
0.0
 11
800.7855689576535
 21
1197.918408668147
 31
0.0
  0
LINE
  5
2B2
330
22
100
AcDbEntity
  8
_4-7_
  6
Continuous
 62
     7
100
AcDbLine
 10
800.4763584315286
 20
1197.725019293146
 30
0.0
 11
799.9610075546535
 21
1197.995942299751
 31
0.0
  0
LINE
  5
2B3
330
22
100
AcDbEntity
  8
_4-7_
  6
Continuous
 62
     7
100
AcDbLine
 10
800.9401742207158
 20
1198.00875652114
 30
0.0
 11
801.4555250975909
 21
1197.727130062726
 31
0.0
  0
LINE
  5
2B4
330
22
100
AcDbEntity
  8
_4-7_
  6
Continuous
 62
     7
100
AcDbLine
 10
801.4555250975909
 20
1197.727130062726
 30
0.0
 11
801.7539320251783
 21
1197.728433127891
 31
0.0
  0
LINE
  5
2B5
330
22
100
AcDbEntity
  8
_4-7_
  6
Continuous
 62
     7
100
AcDbLine
 10
801.7539320251783
 20
1197.728433127891
 30
0.0
 11
801.7647356237159
 21
1197.929887418147
 31
0.0
  0
LINE
  5
2B6
330
22
100
AcDbEntity
  8
_4-7_
  6
Continuous
 62
     7
100
AcDbLine
 10
801.9193408867783
 20
1198.022703353033
 30
0.0
 11
802.4346915231193
 21
1197.732785940956
 31
0.0
  0
LINE
  5
2B7
330
22
100
AcDbEntity
  8
_4-7_
  6
Continuous
 62
     7
100
AcDbLine
 10
802.4346915231193
 20
1197.732785940956
 30
0.0
 11
802.7330986912419
 21
1197.73532521639
 31
0.0
  0
LINE
  5
2B8
330
22
100
AcDbEntity
  8
_4-7_
  6
Continuous
 62
     7
100
AcDbLine
 10
802.7330986912419
 20
1197.73532521639
 30
0.0
 11
802.7439022897782
 21
1197.944483563433
 31
0.0
  0
LINE
  5
2B9
330
22
100
AcDbEntity
  8
_4-7_
  6
Continuous
 62
     7
100
AcDbLine
 10
802.8985075528405
 20
1198.042767698538
 30
0.0
 11
803.4138581891827
 21
1197.74264105841
 31
0.0
  0
LINE
  5
2BA
330
22
100
AcDbEntity
  8
_4-7_
  6
Continuous
 62
     7
100
AcDbLine
 10
803.4138581891827
 20
1197.74264105841
 30
0.0
 11
803.7122656554082
 21
1197.745678980647
 31
0.0
  0
LINE
  5
2BB
330
22
100
AcDbEntity
  8
_4-7_
  6
Continuous
 62
     7
100
AcDbLine
 10
803.7122656554082
 20
1197.745678980647
 30
0.0
 11
803.7230689558416
 21
1197.963199136896
 31
0.0
  0
LINE
  5
2BC
330
22
100
AcDbEntity
  8
_4-7_
  6
Continuous
 62
     7
100
AcDbLine
 10
803.877674218903
 20
1198.062942730472
 30
0.0
 11
804.3930250957782
 21
1197.745678885569
 31
0.0
  0
LINE
  5
2BD
330
22
100
AcDbEntity
  8
_4-7_
  6
Continuous
 62
     7
100
AcDbLine
 10
804.3930250957782
 20
1197.745678885569
 30
0.0
 11
804.7022356219041
 21
1197.745678980647
 31
0.0
  0
LINE
  5
2BE
330
22
100
AcDbEntity
  8
_4-7_
  6
Continuous
 62
     7
100
AcDbLine
 10
799.8064022915912
 20
1197.914752418146
 30
0.0
 11
799.8064022915912
 21
1197.830778199397
 31
0.0
  0
LINE
  5
2BF
330
22
100
AcDbEntity
  8
_4-7_
  6
Continuous
 62
     7
100
AcDbLine
 10
799.8064022915912
 20
1197.830778199397
 30
0.0
 11
799.3168189585595
 21
1197.830778199397
 31
0.0
  0
LINE
  5
2C0
330
22
100
AcDbEntity
  8
_4-7_
  6
Continuous
 62
     7
100
AcDbLine
 10
799.3168189585595
 20
1197.830778199397
 30
0.0
 11
799.3168189585595
 21
1197.924528199396
 31
0.0
  0
LINE
  5
2C1
330
22
100
AcDbEntity
  8
_4-7_
  6
Continuous
 62
     7
100
AcDbLine
 10
799.3168189585595
 20
1197.924528199396
 30
0.0
 11
798.3118847486536
 21
1197.924528199396
 31
0.0
  0
LINE
  5
2C2
330
22
100
AcDbEntity
  8
_4-7_
  6
Continuous
 62
     7
100
AcDbLine
 10
798.3118847486536
 20
1197.924528199396
 30
0.0
 11
798.3118847486536
 21
1197.928569956148
 31
0.0
  0
LINE
  5
2C3
330
22
100
AcDbEntity
  8
_4-7_
  6
Continuous
 62
     7
100
AcDbLine
 10
798.1057443979034
 20
1197.959991949397
 30
0.0
 11
794.3867184023917
 21
1197.959992040983
 31
0.0
  0
LINE
  5
2C4
330
22
100
AcDbEntity
  8
_4-7_
  6
Continuous
 62
     7
100
AcDbLine
 10
794.3867184023917
 20
1197.959992040983
 30
0.0
 11
793.9795803872914
 21
1198.235265386896
 31
0.0
  0
LINE
  5
2C5
330
22
100
AcDbEntity
  8
_4-7_
  6
Continuous
 62
     7
100
AcDbLine
 10
793.9795803872914
 20
1198.235265386896
 30
0.0
 11
793.1583759799035
 21
1198.862028199396
 31
0.0
  0
LINE
  5
2C6
330
22
100
AcDbEntity
  8
_4-7_
  6
Continuous
 62
     7
100
AcDbLine
 10
793.1583759799035
 20
1198.862028199396
 30
0.0
 11
793.1583759799035
 21
1198.95538974908
 31
0.0
  0
LINE
  5
2C7
330
22
100
AcDbEntity
  8
_4-7_
  6
Continuous
 62
     7
100
AcDbLine
 10
793.1583759799035
 20
1198.95538974908
 30
0.0
 11
794.3867184023917
 21
1198.277205930759
 31
0.0
  0
LINE
  5
2C8
330
22
100
AcDbEntity
  8
_4-7_
  6
Continuous
 62
     7
100
AcDbLine
 10
794.3867184023917
 20
1198.277205930759
 30
0.0
 11
796.8689022934039
 21
1198.277205855647
 31
0.0
  0
LINE
  5
2C9
330
22
100
AcDbEntity
  8
_4-7_
  6
Continuous
 62
     7
100
AcDbLine
 10
796.8689022934039
 20
1198.641808043146
 30
0.0
 11
794.3867184978285
 21
1198.641807872252
 31
0.0
  0
LINE
  5
2CA
330
22
100
AcDbEntity
  8
_4-7_
  6
Continuous
 62
     7
100
AcDbLine
 10
794.3867184978285
 20
1198.641807872252
 30
0.0
 11
793.1583759799035
 21
1199.319991850522
 31
0.0
  0
LINE
  5
2CB
330
22
100
AcDbEntity
  8
_4-7_
  6
Continuous
 62
     7
100
AcDbLine
 10
793.1583759799035
 20
1199.319991850522
 30
0.0
 11
793.1583759799035
 21
1199.705778199397
 31
0.0
  0
LINE
  5
2CC
330
22
100
AcDbEntity
  8
_4-7_
  6
Continuous
 62
     7
100
AcDbLine
 10
813.6820905124444
 20
1198.09471563372
 30
0.0
 11
813.6820905124444
 21
1198.09471563372
 31
0.0
  0
LINE
  5
2CD
330
22
100
AcDbEntity
  8
_4-7_
  6
Continuous
 62
     7
100
AcDbLine
 10
813.6820905124444
 20
1198.09471563372
 30
0.0
 11
813.6656784153343
 21
1198.102964462067
 31
0.0
  0
LINE
  5
2CE
330
22
100
AcDbEntity
  8
_4-7_
  6
Continuous
 62
     7
100
AcDbLine
 10
813.6656784153343
 20
1198.102964462067
 30
0.0
 11
813.6479408591037
 21
1198.108495747924
 31
0.0
  0
LINE
  5
2CF
330
22
100
AcDbEntity
  8
_4-7_
  6
Continuous
 62
     7
100
AcDbLine
 10
813.6479408591037
 20
1198.108495747924
 30
0.0
 11
813.6294167904233
 21
1198.111141425969
 31
0.0
  0
LINE
  5
2D0
330
22
100
AcDbEntity
  8
_4-7_
  6
Continuous
 62
     7
100
AcDbLine
 10
813.6294167904233
 20
1198.111141425969
 30
0.0
 11
813.6106690537465
 21
1198.110821108615
 31
0.0
  0
LINE
  5
2D1
330
22
100
AcDbEntity
  8
_4-7_
  6
Continuous
 62
     7
100
AcDbLine
 10
813.6106690537465
 20
1198.110821108615
 30
0.0
 11
813.5922672895652
 21
1198.107544528541
 31
0.0
  0
LINE
  5
2D2
330
22
100
AcDbEntity
  8
_4-7_
  6
Continuous
 62
     7
100
AcDbLine
 10
813.5922672895652
 20
1198.107544528541
 30
0.0
 11
813.5747706261726
 21
1198.101411242975
 31
0.0
  0
LINE
  5
2D3
330
22
100
AcDbEntity
  8
_4-7_
  6
Continuous
 62
     7
100
AcDbLine
 10
813.5747706261726
 20
1198.101411242975
 30
0.0
 11
813.5587106908319
 21
1198.092607608696
 31
0.0
  0
LINE
  5
2D4
330
22
100
AcDbEntity
  8
_4-7_
  6
Continuous
 62
     7
100
AcDbLine
 10
813.5587106908319
 20
1198.092607608696
 30
0.0
 11
813.5445754565516
 21
1198.081401119676
 31
0.0
  0
LINE
  5
2D5
330
22
100
AcDbEntity
  8
_4-7_
  6
Continuous
 62
     7
100
AcDbLine
 10
813.5445754565516
 20
1198.081401119676
 30
0.0
 11
813.5327944152725
 21
1198.068132279413
 31
0.0
  0
LINE
  5
2D6
330
22
100
AcDbEntity
  8
_4-7_
  6
Continuous
 62
     7
100
AcDbLine
 10
813.5327944152725
 20
1198.068132279413
 30
0.0
 11
813.5237255279731
 21
1198.053204254904
 31
0.0
  0
LINE
  5
2D7
330
22
100
AcDbEntity
  8
_4-7_
  6
Continuous
 62
     7
100
AcDbLine
 10
813.5237255279731
 20
1198.053204254904
 30
0.0
 11
813.5176443482041
 21
1198.037070626621
 31
0.0
  0
LINE
  5
2D8
330
22
100
AcDbEntity
  8
_4-7_
  6
Continuous
 62
     7
100
AcDbLine
 10
813.5176443482041
 20
1198.037070626621
 30
0.0
 11
813.5147356495359
 21
1198.020221606694
 31
0.0
  0
LINE
  5
2D9
330
22
100
AcDbEntity
  8
_4-7_
  6
Continuous
 62
     7
100
AcDbLine
 10
813.5147356495359
 20
1198.020221606694
 30
0.0
 11
813.5147356164656
 21
1198.020221168147
 31
0.0
  0
LINE
  5
2DA
330
22
100
AcDbEntity
  8
_4-7_
  6
Continuous
 62
     7
100
AcDbLine
 10
812.6901742134663
 20
1198.062942730472
 30
0.0
 11
812.6901742134663
 21
1198.062942730472
 31
0.0
  0
LINE
  5
2DB
330
22
100
AcDbEntity
  8
_4-7_
  6
Continuous
 62
     7
100
AcDbLine
 10
812.6901742134663
 20
1198.062942730472
 30
0.0
 11
812.6652003672235
 21
1198.063362171464
 31
0.0
  0
LINE
  5
2DC
330
22
100
AcDbEntity
  8
_4-7_
  6
Continuous
 62
     7
100
AcDbLine
 10
812.6652003672235
 20
1198.063362171464
 30
0.0
 11
812.6405258537348
 21
1198.059830722361
 31
0.0
  0
LINE
  5
2DD
330
22
100
AcDbEntity
  8
_4-7_
  6
Continuous
 62
     7
100
AcDbLine
 10
812.6405258537348
 20
1198.059830722361
 30
0.0
 11
812.6169003956061
 21
1198.052455684458
 31
0.0
  0
LINE
  5
2DE
330
22
100
AcDbEntity
  8
_4-7_
  6
Continuous
 62
     7
100
AcDbLine
 10
812.6169003956061
 20
1198.052455684458
 30
0.0
 11
812.5950418404277
 21
1198.04146114455
 31
0.0
  0
LINE
  5
2DF
330
22
100
AcDbEntity
  8
_4-7_
  6
Continuous
 62
     7
100
AcDbLine
 10
812.5950418404277
 20
1198.04146114455
 30
0.0
 11
812.5756143493383
 21
1198.027181166167
 31
0.0
  0
LINE
  5
2E0
330
22
100
AcDbEntity
  8
_4-7_
  6
Continuous
 62
     7
100
AcDbLine
 10
812.5756143493383
 20
1198.027181166167
 30
0.0
 11
812.5592082168234
 21
1198.010049639227
 31
0.0
  0
LINE
  5
2E1
330
22
100
AcDbEntity
  8
_4-7_
  6
Continuous
 62
     7
100
AcDbLine
 10
812.5592082168234
 20
1198.010049639227
 30
0.0
 11
812.5463219349169
 21
1197.990587096507
 31
0.0
  0
LINE
  5
2E2
330
22
100
AcDbEntity
  8
_4-7_
  6
Continuous
 62
     7
100
AcDbLine
 10
812.5463219349169
 20
1197.990587096507
 30
0.0
 11
812.5373470467749
 21
1197.96938489752
 31
0.0
  0
LINE
  5
2E3
330
22
100
AcDbEntity
  8
_4-7_
  6
Continuous
 62
     7
100
AcDbLine
 10
812.5373470467749
 20
1197.96938489752
 30
0.0
 11
812.5355689504038
 21
1197.963199136896
 31
0.0
  0
LINE
  5
2E4
330
22
100
AcDbEntity
  8
_4-7_
  6
Continuous
 62
     7
100
AcDbLine
 10
811.7110075474027
 20
1198.062942730472
 30
0.0
 11
811.7110075474027
 21
1198.062942730472
 31
0.0
  0
LINE
  5
2E5
330
22
100
AcDbEntity
  8
_4-7_
  6
Continuous
 62
     7
100
AcDbLine
 10
811.7110075474027
 20
1198.062942730472
 30
0.0
 11
811.6860337011601
 21
1198.063362171464
 31
0.0
  0
LINE
  5
2E6
330
22
100
AcDbEntity
  8
_4-7_
  6
Continuous
 62
     7
100
AcDbLine
 10
811.6860337011601
 20
1198.063362171464
 30
0.0
 11
811.6613591876713
 21
1198.059830722361
 31
0.0
  0
LINE
  5
2E7
330
22
100
AcDbEntity
  8
_4-7_
  6
Continuous
 62
     7
100
AcDbLine
 10
811.6613591876713
 20
1198.059830722361
 30
0.0
 11
811.6377337295425
 21
1198.052455684458
 31
0.0
  0
LINE
  5
2E8
330
22
100
AcDbEntity
  8
_4-7_
  6
Continuous
 62
     7
100
AcDbLine
 10
811.6377337295425
 20
1198.052455684458
 30
0.0
 11
811.6158751743643
 21
1198.04146114455
 31
0.0
  0
LINE
  5
2E9
330
22
100
AcDbEntity
  8
_4-7_
  6
Continuous
 62
     7
100
AcDbLine
 10
811.6158751743643
 20
1198.04146114455
 30
0.0
 11
811.5964476832747
 21
1198.027181166167
 31
0.0
  0
LINE
  5
2EA
330
22
100
AcDbEntity
  8
_4-7_
  6
Continuous
 62
     7
100
AcDbLine
 10
811.5964476832747
 20
1198.027181166167
 30
0.0
 11
811.5800415507594
 21
1198.010049639227
 31
0.0
  0
LINE
  5
2EB
330
22
100
AcDbEntity
  8
_4-7_
  6
Continuous
 62
     7
100
AcDbLine
 10
811.5800415507594
 20
1198.010049639227
 30
0.0
 11
811.5671552688533
 21
1197.990587096507
 31
0.0
  0
LINE
  5
2EC
330
22
100
AcDbEntity
  8
_4-7_
  6
Continuous
 62
     7
100
AcDbLine
 10
811.5671552688533
 20
1197.990587096507
 30
0.0
 11
811.5581803807113
 21
1197.96938489752
 31
0.0
  0
LINE
  5
2ED
330
22
100
AcDbEntity
  8
_4-7_
  6
Continuous
 62
     7
100
AcDbLine
 10
811.5581803807113
 20
1197.96938489752
 30
0.0
 11
811.5564022843404
 21
1197.963199136896
 31
0.0
  0
LINE
  5
2EE
330
22
100
AcDbEntity
  8
_4-7_
  6
Continuous
 62
     7
100
AcDbLine
 10
810.7318408813405
 20
1198.027325943346
 30
0.0
 11
810.7318408813405
 21
1198.027325943346
 31
0.0
  0
LINE
  5
2EF
330
22
100
AcDbEntity
  8
_4-7_
  6
Continuous
 62
     7
100
AcDbLine
 10
810.7318408813405
 20
1198.027325943346
 30
0.0
 11
810.7068670350978
 21
1198.027745384338
 31
0.0
  0
LINE
  5
2F0
330
22
100
AcDbEntity
  8
_4-7_
  6
Continuous
 62
     7
100
AcDbLine
 10
810.7068670350978
 20
1198.027745384338
 30
0.0
 11
810.682192521609
 21
1198.024213935236
 31
0.0
  0
LINE
  5
2F1
330
22
100
AcDbEntity
  8
_4-7_
  6
Continuous
 62
     7
100
AcDbLine
 10
810.682192521609
 20
1198.024213935236
 30
0.0
 11
810.6585670634803
 21
1198.016838897333
 31
0.0
  0
LINE
  5
2F2
330
22
100
AcDbEntity
  8
_4-7_
  6
Continuous
 62
     7
100
AcDbLine
 10
810.6585670634803
 20
1198.016838897333
 30
0.0
 11
810.6367085083022
 21
1198.005844357424
 31
0.0
  0
LINE
  5
2F3
330
22
100
AcDbEntity
  8
_4-7_
  6
Continuous
 62
     7
100
AcDbLine
 10
810.6367085083022
 20
1198.005844357424
 30
0.0
 11
810.6172810172123
 21
1197.991564379041
 31
0.0
  0
LINE
  5
2F4
330
22
100
AcDbEntity
  8
_4-7_
  6
Continuous
 62
     7
100
AcDbLine
 10
810.6172810172123
 20
1197.991564379041
 30
0.0
 11
810.6008748846972
 21
1197.974432852101
 31
0.0
  0
LINE
  5
2F5
330
22
100
AcDbEntity
  8
_4-7_
  6
Continuous
 62
     7
100
AcDbLine
 10
810.6008748846972
 20
1197.974432852101
 30
0.0
 11
810.587988602791
 21
1197.954970309382
 31
0.0
  0
LINE
  5
2F6
330
22
100
AcDbEntity
  8
_4-7_
  6
Continuous
 62
     7
100
AcDbLine
 10
810.587988602791
 20
1197.954970309382
 30
0.0
 11
810.579013714649
 21
1197.933768110394
 31
0.0
  0
LINE
  5
2F7
330
22
100
AcDbEntity
  8
_4-7_
  6
Continuous
 62
     7
100
AcDbLine
 10
810.579013714649
 20
1197.933768110394
 30
0.0
 11
810.5772356182779
 21
1197.927582349771
 31
0.0
  0
LINE
  5
2F8
330
22
100
AcDbEntity
  8
_4-7_
  6
Continuous
 62
     7
100
AcDbLine
 10
808.7735075492156
 20
1198.062942730472
 30
0.0
 11
808.7735075492156
 21
1198.062942730472
 31
0.0
  0
LINE
  5
2F9
330
22
100
AcDbEntity
  8
_4-7_
  6
Continuous
 62
     7
100
AcDbLine
 10
808.7735075492156
 20
1198.062942730472
 30
0.0
 11
808.7485337029731
 21
1198.063362171464
 31
0.0
  0
LINE
  5
2FA
330
22
100
AcDbEntity
  8
_4-7_
  6
Continuous
 62
     7
100
AcDbLine
 10
808.7485337029731
 20
1198.063362171464
 30
0.0
 11
808.7238591894843
 21
1198.059830722361
 31
0.0
  0
LINE
  5
2FB
330
22
100
AcDbEntity
  8
_4-7_
  6
Continuous
 62
     7
100
AcDbLine
 10
808.7238591894843
 20
1198.059830722361
 30
0.0
 11
808.7002337313554
 21
1198.052455684458
 31
0.0
  0
LINE
  5
2FC
330
22
100
AcDbEntity
  8
_4-7_
  6
Continuous
 62
     7
100
AcDbLine
 10
808.7002337313554
 20
1198.052455684458
 30
0.0
 11
808.6783751761773
 21
1198.04146114455
 31
0.0
  0
LINE
  5
2FD
330
22
100
AcDbEntity
  8
_4-7_
  6
Continuous
 62
     7
100
AcDbLine
 10
808.6783751761773
 20
1198.04146114455
 30
0.0
 11
808.6589476850875
 21
1198.027181166167
 31
0.0
  0
LINE
  5
2FE
330
22
100
AcDbEntity
  8
_4-7_
  6
Continuous
 62
     7
100
AcDbLine
 10
808.6589476850875
 20
1198.027181166167
 30
0.0
 11
808.6425415525724
 21
1198.010049639227
 31
0.0
  0
LINE
  5
2FF
330
22
100
AcDbEntity
  8
_4-7_
  6
Continuous
 62
     7
100
AcDbLine
 10
808.6425415525724
 20
1198.010049639227
 30
0.0
 11
808.6296552706661
 21
1197.990587096507
 31
0.0
  0
LINE
  5
300
330
22
100
AcDbEntity
  8
_4-7_
  6
Continuous
 62
     7
100
AcDbLine
 10
808.6296552706661
 20
1197.990587096507
 30
0.0
 11
808.6206803825241
 21
1197.96938489752
 31
0.0
  0
LINE
  5
301
330
22
100
AcDbEntity
  8
_4-7_
  6
Continuous
 62
     7
100
AcDbLine
 10
808.6206803825241
 20
1197.96938489752
 30
0.0
 11
808.6189022861532
 21
1197.963199136896
 31
0.0
  0
LINE
  5
302
330
22
100
AcDbEntity
  8
_4-7_
  6
Continuous
 62
     7
100
AcDbLine
 10
807.7943408831533
 20
1198.062942730472
 30
0.0
 11
807.7943408831533
 21
1198.062942730472
 31
0.0
  0
LINE
  5
303
330
22
100
AcDbEntity
  8
_4-7_
  6
Continuous
 62
     7
100
AcDbLine
 10
807.7943408831533
 20
1198.062942730472
 30
0.0
 11
807.7693670369107
 21
1198.063362171464
 31
0.0
  0
LINE
  5
304
330
22
100
AcDbEntity
  8
_4-7_
  6
Continuous
 62
     7
100
AcDbLine
 10
807.7693670369107
 20
1198.063362171464
 30
0.0
 11
807.7446925234218
 21
1198.059830722361
 31
0.0
  0
LINE
  5
305
330
22
100
AcDbEntity
  8
_4-7_
  6
Continuous
 62
     7
100
AcDbLine
 10
807.7446925234218
 20
1198.059830722361
 30
0.0
 11
807.7210670652931
 21
1198.052455684458
 31
0.0
  0
LINE
  5
306
330
22
100
AcDbEntity
  8
_4-7_
  6
Continuous
 62
     7
100
AcDbLine
 10
807.7210670652931
 20
1198.052455684458
 30
0.0
 11
807.6992085101149
 21
1198.04146114455
 31
0.0
  0
LINE
  5
307
330
22
100
AcDbEntity
  8
_4-7_
  6
Continuous
 62
     7
100
AcDbLine
 10
807.6992085101149
 20
1198.04146114455
 30
0.0
 11
807.6797810190253
 21
1198.027181166167
 31
0.0
  0
LINE
  5
308
330
22
100
AcDbEntity
  8
_4-7_
  6
Continuous
 62
     7
100
AcDbLine
 10
807.6797810190253
 20
1198.027181166167
 30
0.0
 11
807.6633748865102
 21
1198.010049639227
 31
0.0
  0
LINE
  5
309
330
22
100
AcDbEntity
  8
_4-7_
  6
Continuous
 62
     7
100
AcDbLine
 10
807.6633748865102
 20
1198.010049639227
 30
0.0
 11
807.6504886046038
 21
1197.990587096507
 31
0.0
  0
LINE
  5
30A
330
22
100
AcDbEntity
  8
_4-7_
  6
Continuous
 62
     7
100
AcDbLine
 10
807.6504886046038
 20
1197.990587096507
 30
0.0
 11
807.6415137164618
 21
1197.96938489752
 31
0.0
  0
LINE
  5
30B
330
22
100
AcDbEntity
  8
_4-7_
  6
Continuous
 62
     7
100
AcDbLine
 10
807.6415137164618
 20
1197.96938489752
 30
0.0
 11
807.639735620091
 21
1197.963199136896
 31
0.0
  0
LINE
  5
30C
330
22
100
AcDbEntity
  8
_4-7_
  6
Continuous
 62
     7
100
AcDbLine
 10
806.8151742170911
 20
1198.062942730472
 30
0.0
 11
806.8151742170911
 21
1198.062942730472
 31
0.0
  0
LINE
  5
30D
330
22
100
AcDbEntity
  8
_4-7_
  6
Continuous
 62
     7
100
AcDbLine
 10
806.8151742170911
 20
1198.062942730472
 30
0.0
 11
806.7902003708484
 21
1198.063362171464
 31
0.0
  0
LINE
  5
30E
330
22
100
AcDbEntity
  8
_4-7_
  6
Continuous
 62
     7
100
AcDbLine
 10
806.7902003708484
 20
1198.063362171464
 30
0.0
 11
806.7655258573593
 21
1198.059830722361
 31
0.0
  0
LINE
  5
30F
330
22
100
AcDbEntity
  8
_4-7_
  6
Continuous
 62
     7
100
AcDbLine
 10
806.7655258573593
 20
1198.059830722361
 30
0.0
 11
806.7419003992307
 21
1198.052455684458
 31
0.0
  0
LINE
  5
310
330
22
100
AcDbEntity
  8
_4-7_
  6
Continuous
 62
     7
100
AcDbLine
 10
806.7419003992307
 20
1198.052455684458
 30
0.0
 11
806.7200418440524
 21
1198.04146114455
 31
0.0
  0
LINE
  5
311
330
22
100
AcDbEntity
  8
_4-7_
  6
Continuous
 62
     7
100
AcDbLine
 10
806.7200418440524
 20
1198.04146114455
 30
0.0
 11
806.7006143529628
 21
1198.027181166167
 31
0.0
  0
LINE
  5
312
330
22
100
AcDbEntity
  8
_4-7_
  6
Continuous
 62
     7
100
AcDbLine
 10
806.7006143529628
 20
1198.027181166167
 30
0.0
 11
806.6842082204477
 21
1198.010049639227
 31
0.0
  0
LINE
  5
313
330
22
100
AcDbEntity
  8
_4-7_
  6
Continuous
 62
     7
100
AcDbLine
 10
806.6842082204477
 20
1198.010049639227
 30
0.0
 11
806.6713219385416
 21
1197.990587096507
 31
0.0
  0
LINE
  5
314
330
22
100
AcDbEntity
  8
_4-7_
  6
Continuous
 62
     7
100
AcDbLine
 10
806.6713219385416
 20
1197.990587096507
 30
0.0
 11
806.6623470503994
 21
1197.96938489752
 31
0.0
  0
LINE
  5
315
330
22
100
AcDbEntity
  8
_4-7_
  6
Continuous
 62
     7
100
AcDbLine
 10
806.6623470503994
 20
1197.96938489752
 30
0.0
 11
806.6605689540285
 21
1197.963199136896
 31
0.0
  0
LINE
  5
316
330
22
100
AcDbEntity
  8
_4-7_
  6
Continuous
 62
     7
100
AcDbLine
 10
805.8360075510286
 20
1198.027142998239
 30
0.0
 11
805.8360075510286
 21
1198.027142998239
 31
0.0
  0
LINE
  5
317
330
22
100
AcDbEntity
  8
_4-7_
  6
Continuous
 62
     7
100
AcDbLine
 10
805.8360075510286
 20
1198.027142998239
 30
0.0
 11
805.8110337047859
 21
1198.027562439231
 31
0.0
  0
LINE
  5
318
330
22
100
AcDbEntity
  8
_4-7_
  6
Continuous
 62
     7
100
AcDbLine
 10
805.8110337047859
 20
1198.027562439231
 30
0.0
 11
805.7863591912971
 21
1198.024030990128
 31
0.0
  0
LINE
  5
319
330
22
100
AcDbEntity
  8
_4-7_
  6
Continuous
 62
     7
100
AcDbLine
 10
805.7863591912971
 20
1198.024030990128
 30
0.0
 11
805.7627337331684
 21
1198.016655952226
 31
0.0
  0
LINE
  5
31A
330
22
100
AcDbEntity
  8
_4-7_
  6
Continuous
 62
     7
100
AcDbLine
 10
805.7627337331684
 20
1198.016655952226
 30
0.0
 11
805.7408751779901
 21
1198.005661412317
 31
0.0
  0
LINE
  5
31B
330
22
100
AcDbEntity
  8
_4-7_
  6
Continuous
 62
     7
100
AcDbLine
 10
805.7408751779901
 20
1198.005661412317
 30
0.0
 11
805.7214476869004
 21
1197.991381433934
 31
0.0
  0
LINE
  5
31C
330
22
100
AcDbEntity
  8
_4-7_
  6
Continuous
 62
     7
100
AcDbLine
 10
805.7214476869004
 20
1197.991381433934
 30
0.0
 11
805.7050415543852
 21
1197.974249906994
 31
0.0
  0
LINE
  5
31D
330
22
100
AcDbEntity
  8
_4-7_
  6
Continuous
 62
     7
100
AcDbLine
 10
805.7050415543852
 20
1197.974249906994
 30
0.0
 11
805.6921552724789
 21
1197.954787364275
 31
0.0
  0
LINE
  5
31E
330
22
100
AcDbEntity
  8
_4-7_
  6
Continuous
 62
     7
100
AcDbLine
 10
805.6921552724789
 20
1197.954787364275
 30
0.0
 11
805.6831803843371
 21
1197.933585165287
 31
0.0
  0
LINE
  5
31F
330
22
100
AcDbEntity
  8
_4-7_
  6
Continuous
 62
     7
100
AcDbLine
 10
805.6831803843371
 20
1197.933585165287
 30
0.0
 11
805.6814022879661
 21
1197.927399404664
 31
0.0
  0
LINE
  5
320
330
22
100
AcDbEntity
  8
_4-7_
  6
Continuous
 62
     7
100
AcDbLine
 10
803.8776742189039
 20
1198.062942730472
 30
0.0
 11
803.8776742189039
 21
1198.062942730472
 31
0.0
  0
LINE
  5
321
330
22
100
AcDbEntity
  8
_4-7_
  6
Continuous
 62
     7
100
AcDbLine
 10
803.8776742189039
 20
1198.062942730472
 30
0.0
 11
803.8527003726612
 21
1198.063362171464
 31
0.0
  0
LINE
  5
322
330
22
100
AcDbEntity
  8
_4-7_
  6
Continuous
 62
     7
100
AcDbLine
 10
803.8527003726612
 20
1198.063362171464
 30
0.0
 11
803.828025859172
 21
1198.059830722361
 31
0.0
  0
LINE
  5
323
330
22
100
AcDbEntity
  8
_4-7_
  6
Continuous
 62
     7
100
AcDbLine
 10
803.828025859172
 20
1198.059830722361
 30
0.0
 11
803.8044004010435
 21
1198.052455684458
 31
0.0
  0
LINE
  5
324
330
22
100
AcDbEntity
  8
_4-7_
  6
Continuous
 62
     7
100
AcDbLine
 10
803.8044004010435
 20
1198.052455684458
 30
0.0
 11
803.7825418458654
 21
1198.04146114455
 31
0.0
  0
LINE
  5
325
330
22
100
AcDbEntity
  8
_4-7_
  6
Continuous
 62
     7
100
AcDbLine
 10
803.7825418458654
 20
1198.04146114455
 30
0.0
 11
803.7631143547756
 21
1198.027181166167
 31
0.0
  0
LINE
  5
326
330
22
100
AcDbEntity
  8
_4-7_
  6
Continuous
 62
     7
100
AcDbLine
 10
803.7631143547756
 20
1198.027181166167
 30
0.0
 11
803.7467082222603
 21
1198.010049639227
 31
0.0
  0
LINE
  5
327
330
22
100
AcDbEntity
  8
_4-7_
  6
Continuous
 62
     7
100
AcDbLine
 10
803.7467082222603
 20
1198.010049639227
 30
0.0
 11
803.7338219403544
 21
1197.990587096507
 31
0.0
  0
LINE
  5
328
330
22
100
AcDbEntity
  8
_4-7_
  6
Continuous
 62
     7
100
AcDbLine
 10
803.7338219403544
 20
1197.990587096507
 30
0.0
 11
803.7248470522124
 21
1197.96938489752
 31
0.0
  0
LINE
  5
329
330
22
100
AcDbEntity
  8
_4-7_
  6
Continuous
 62
     7
100
AcDbLine
 10
803.7248470522124
 20
1197.96938489752
 30
0.0
 11
803.7230689558411
 21
1197.963199136896
 31
0.0
  0
LINE
  5
32A
330
22
100
AcDbEntity
  8
_4-7_
  6
Continuous
 62
     7
100
AcDbLine
 10
802.8985075528405
 20
1198.042767698539
 30
0.0
 11
802.8985075528405
 21
1198.042767698539
 31
0.0
  0
LINE
  5
32B
330
22
100
AcDbEntity
  8
_4-7_
  6
Continuous
 62
     7
100
AcDbLine
 10
802.8985075528405
 20
1198.042767698539
 30
0.0
 11
802.8735337065976
 21
1198.043187139531
 31
0.0
  0
LINE
  5
32C
330
22
100
AcDbEntity
  8
_4-7_
  6
Continuous
 62
     7
100
AcDbLine
 10
802.8735337065976
 20
1198.043187139531
 30
0.0
 11
802.8488591931086
 21
1198.039655690428
 31
0.0
  0
LINE
  5
32D
330
22
100
AcDbEntity
  8
_4-7_
  6
Continuous
 62
     7
100
AcDbLine
 10
802.8488591931086
 20
1198.039655690428
 30
0.0
 11
802.8252337349801
 21
1198.032280652525
 31
0.0
  0
LINE
  5
32E
330
22
100
AcDbEntity
  8
_4-7_
  6
Continuous
 62
     7
100
AcDbLine
 10
802.8252337349801
 20
1198.032280652525
 30
0.0
 11
802.8033751798018
 21
1198.021286112617
 31
0.0
  0
LINE
  5
32F
330
22
100
AcDbEntity
  8
_4-7_
  6
Continuous
 62
     7
100
AcDbLine
 10
802.8033751798018
 20
1198.021286112617
 30
0.0
 11
802.7839476887121
 21
1198.007006134234
 31
0.0
  0
LINE
  5
330
330
22
100
AcDbEntity
  8
_4-7_
  6
Continuous
 62
     7
100
AcDbLine
 10
802.7839476887121
 20
1198.007006134234
 30
0.0
 11
802.767541556197
 21
1197.989874607294
 31
0.0
  0
LINE
  5
331
330
22
100
AcDbEntity
  8
_4-7_
  6
Continuous
 62
     7
100
AcDbLine
 10
802.767541556197
 20
1197.989874607294
 30
0.0
 11
802.754655274291
 21
1197.970412064574
 31
0.0
  0
LINE
  5
332
330
22
100
AcDbEntity
  8
_4-7_
  6
Continuous
 62
     7
100
AcDbLine
 10
802.754655274291
 20
1197.970412064574
 30
0.0
 11
802.7456803861486
 21
1197.949209865587
 31
0.0
  0
LINE
  5
333
330
22
100
AcDbEntity
  8
_4-7_
  6
Continuous
 62
     7
100
AcDbLine
 10
802.7456803861486
 20
1197.949209865587
 30
0.0
 11
802.7439022897777
 21
1197.943024104963
 31
0.0
  0
LINE
  5
334
330
22
100
AcDbEntity
  8
_4-7_
  6
Continuous
 62
     7
100
AcDbLine
 10
801.9193408867778
 20
1198.022703353033
 30
0.0
 11
801.9193408867778
 21
1198.022703353033
 31
0.0
  0
LINE
  5
335
330
22
100
AcDbEntity
  8
_4-7_
  6
Continuous
 62
     7
100
AcDbLine
 10
801.9193408867778
 20
1198.022703353033
 30
0.0
 11
801.8943670405352
 21
1198.023122794025
 31
0.0
  0
LINE
  5
336
330
22
100
AcDbEntity
  8
_4-7_
  6
Continuous
 62
     7
100
AcDbLine
 10
801.8943670405352
 20
1198.023122794025
 30
0.0
 11
801.8696925270463
 21
1198.019591344923
 31
0.0
  0
LINE
  5
337
330
22
100
AcDbEntity
  8
_4-7_
  6
Continuous
 62
     7
100
AcDbLine
 10
801.8696925270463
 20
1198.019591344923
 30
0.0
 11
801.8460670689176
 21
1198.01221630702
 31
0.0
  0
LINE
  5
338
330
22
100
AcDbEntity
  8
_4-7_
  6
Continuous
 62
     7
100
AcDbLine
 10
801.8460670689176
 20
1198.01221630702
 30
0.0
 11
801.8242085137393
 21
1198.001221767111
 31
0.0
  0
LINE
  5
339
330
22
100
AcDbEntity
  8
_4-7_
  6
Continuous
 62
     7
100
AcDbLine
 10
801.8242085137393
 20
1198.001221767111
 30
0.0
 11
801.8047810226496
 21
1197.986941788728
 31
0.0
  0
LINE
  5
33A
330
22
100
AcDbEntity
  8
_4-7_
  6
Continuous
 62
     7
100
AcDbLine
 10
801.8047810226496
 20
1197.986941788728
 30
0.0
 11
801.7883748901343
 21
1197.969810261788
 31
0.0
  0
LINE
  5
33B
330
22
100
AcDbEntity
  8
_4-7_
  6
Continuous
 62
     7
100
AcDbLine
 10
801.7883748901343
 20
1197.969810261788
 30
0.0
 11
801.7754886082284
 21
1197.950347719068
 31
0.0
  0
LINE
  5
33C
330
22
100
AcDbEntity
  8
_4-7_
  6
Continuous
 62
     7
100
AcDbLine
 10
801.7754886082284
 20
1197.950347719068
 30
0.0
 11
801.7665137200863
 21
1197.929145520081
 31
0.0
  0
LINE
  5
33D
330
22
100
AcDbEntity
  8
_4-7_
  6
Continuous
 62
     7
100
AcDbLine
 10
801.7665137200863
 20
1197.929145520081
 30
0.0
 11
801.7647356237153
 21
1197.922959759458
 31
0.0
  0
LINE
  5
33E
330
22
100
AcDbEntity
  8
_4-7_
  6
Continuous
 62
     7
100
AcDbLine
 10
800.9401742207167
 20
1198.008756521139
 30
0.0
 11
800.9401742207167
 21
1198.008756521139
 31
0.0
  0
LINE
  5
33F
330
22
100
AcDbEntity
  8
_4-7_
  6
Continuous
 62
     7
100
AcDbLine
 10
800.9401742207167
 20
1198.008756521139
 30
0.0
 11
800.9152003744739
 21
1198.009175962132
 31
0.0
  0
LINE
  5
340
330
22
100
AcDbEntity
  8
_4-7_
  6
Continuous
 62
     7
100
AcDbLine
 10
800.9152003744739
 20
1198.009175962132
 30
0.0
 11
800.8905258609852
 21
1198.005644513029
 31
0.0
  0
LINE
  5
341
330
22
100
AcDbEntity
  8
_4-7_
  6
Continuous
 62
     7
100
AcDbLine
 10
800.8905258609852
 20
1198.005644513029
 30
0.0
 11
800.8669004028565
 21
1197.998269475126
 31
0.0
  0
LINE
  5
342
330
22
100
AcDbEntity
  8
_4-7_
  6
Continuous
 62
     7
100
AcDbLine
 10
800.8669004028565
 20
1197.998269475126
 30
0.0
 11
800.8450418476781
 21
1197.987274935217
 31
0.0
  0
LINE
  5
343
330
22
100
AcDbEntity
  8
_4-7_
  6
Continuous
 62
     7
100
AcDbLine
 10
800.8450418476781
 20
1197.987274935217
 30
0.0
 11
800.8256143565883
 21
1197.972994956834
 31
0.0
  0
LINE
  5
344
330
22
100
AcDbEntity
  8
_4-7_
  6
Continuous
 62
     7
100
AcDbLine
 10
800.8256143565883
 20
1197.972994956834
 30
0.0
 11
800.8092082240731
 21
1197.955863429895
 31
0.0
  0
LINE
  5
345
330
22
100
AcDbEntity
  8
_4-7_
  6
Continuous
 62
     7
100
AcDbLine
 10
800.8092082240731
 20
1197.955863429895
 30
0.0
 11
800.7963219421672
 21
1197.936400887175
 31
0.0
  0
LINE
  5
346
330
22
100
AcDbEntity
  8
_4-7_
  6
Continuous
 62
     7
100
AcDbLine
 10
800.7963219421672
 20
1197.936400887175
 30
0.0
 11
800.7873470540253
 21
1197.915198688187
 31
0.0
  0
LINE
  5
347
330
22
100
AcDbEntity
  8
_4-7_
  6
Continuous
 62
     7
100
AcDbLine
 10
800.7873470540253
 20
1197.915198688187
 30
0.0
 11
800.785568957654
 21
1197.909012927564
 31
0.0
  0
LINE
  5
348
330
22
100
AcDbEntity
  8
_4-7_
  6
Continuous
 62
     7
100
AcDbLine
 10
799.9764627552596
 20
1197.987817409305
 30
0.0
 11
799.9764627552596
 21
1197.987817409305
 31
0.0
  0
LINE
  5
349
330
22
100
AcDbEntity
  8
_4-7_
  6
Continuous
 62
     7
100
AcDbLine
 10
799.9764627552596
 20
1197.987817409305
 30
0.0
 11
799.9600327540236
 21
1197.996356254148
 31
0.0
  0
LINE
  5
34A
330
22
100
AcDbEntity
  8
_4-7_
  6
Continuous
 62
     7
100
AcDbLine
 10
799.9600327540236
 20
1197.996356254148
 30
0.0
 11
799.9422221982025
 21
1198.002170322616
 31
0.0
  0
LINE
  5
34B
330
22
100
AcDbEntity
  8
_4-7_
  6
Continuous
 62
     7
100
AcDbLine
 10
799.9422221982025
 20
1198.002170322616
 30
0.0
 11
799.9235722525224
 21
1198.00508295718
 31
0.0
  0
LINE
  5
34C
330
22
100
AcDbEntity
  8
_4-7_
  6
Continuous
 62
     7
100
AcDbLine
 10
799.9235722525224
 20
1198.00508295718
 30
0.0
 11
799.9046495861453
 21
1198.005005658912
 31
0.0
  0
LINE
  5
34D
330
22
100
AcDbEntity
  8
_4-7_
  6
Continuous
 62
     7
100
AcDbLine
 10
799.9046495861453
 20
1198.005005658912
 30
0.0
 11
799.8860291547134
 21
1198.00194077648
 31
0.0
  0
LINE
  5
34E
330
22
100
AcDbEntity
  8
_4-7_
  6
Continuous
 62
     7
100
AcDbLine
 10
799.8860291547134
 20
1198.00194077648
 30
0.0
 11
799.8682767306137
 21
1197.995981434788
 31
0.0
  0
LINE
  5
34F
330
22
100
AcDbEntity
  8
_4-7_
  6
Continuous
 62
     7
100
AcDbLine
 10
799.8682767306137
 20
1197.995981434788
 30
0.0
 11
799.8519317122694
 21
1197.987308705416
 31
0.0
  0
LINE
  5
350
330
22
100
AcDbEntity
  8
_4-7_
  6
Continuous
 62
     7
100
AcDbLine
 10
799.8519317122694
 20
1197.987308705416
 30
0.0
 11
799.8374907347916
 21
1197.976186104859
 31
0.0
  0
LINE
  5
351
330
22
100
AcDbEntity
  8
_4-7_
  6
Continuous
 62
     7
100
AcDbLine
 10
799.8374907347916
 20
1197.976186104859
 30
0.0
 11
799.8253925799739
 21
1197.962951587705
 31
0.0
  0
LINE
  5
352
330
22
100
AcDbEntity
  8
_4-7_
  6
Continuous
 62
     7
100
AcDbLine
 10
799.8253925799739
 20
1197.962951587705
 30
0.0
 11
799.816004844128
 21
1197.948007278061
 31
0.0
  0
LINE
  5
353
330
22
100
AcDbEntity
  8
_4-7_
  6
Continuous
 62
     7
100
AcDbLine
 10
799.816004844128
 20
1197.948007278061
 30
0.0
 11
799.8096127688576
 21
1197.931807251213
 31
0.0
  0
LINE
  5
354
330
22
100
AcDbEntity
  8
_4-7_
  6
Continuous
 62
     7
100
AcDbLine
 10
799.8096127688576
 20
1197.931807251213
 30
0.0
 11
799.8064105741347
 21
1197.914843736781
 31
0.0
  0
LINE
  5
355
330
22
100
AcDbEntity
  8
_4-7_
  6
Continuous
 62
     7
100
AcDbLine
 10
799.8064105741347
 20
1197.914843736781
 30
0.0
 11
799.806402291591
 21
1197.914752418146
 31
0.0
  0
LINE
  5
356
330
22
100
AcDbEntity
  8
_4-7_
  6
Continuous
 62
     7
100
AcDbLine
 10
805.372191761841
 20
1197.725309449396
 30
0.0
 11
805.372191761841
 21
1197.725309449396
 31
0.0
  0
LINE
  5
357
330
22
100
AcDbEntity
  8
_4-7_
  6
Continuous
 62
     7
100
AcDbLine
 10
805.372191761841
 20
1197.725309449396
 30
0.0
 11
805.3645292889363
 21
1197.778013093643
 31
0.0
  0
LINE
  5
358
330
22
100
AcDbEntity
  8
_4-7_
  6
Continuous
 62
     7
100
AcDbLine
 10
805.3645292889363
 20
1197.778013093643
 30
0.0
 11
805.3469214972444
 21
1197.828705794554
 31
0.0
  0
LINE
  5
359
330
22
100
AcDbEntity
  8
_4-7_
  6
Continuous
 62
     7
100
AcDbLine
 10
805.3469214972444
 20
1197.828705794554
 30
0.0
 11
805.3199033906057
 21
1197.875847280065
 31
0.0
  0
LINE
  5
35A
330
22
100
AcDbEntity
  8
_4-7_
  6
Continuous
 62
     7
100
AcDbLine
 10
805.3199033906057
 20
1197.875847280065
 30
0.0
 11
805.2842959005193
 21
1197.918005179994
 31
0.0
  0
LINE
  5
35B
330
22
100
AcDbEntity
  8
_4-7_
  6
Continuous
 62
     7
100
AcDbLine
 10
805.2842959005193
 20
1197.918005179994
 30
0.0
 11
805.2411809425526
 21
1197.953898547884
 31
0.0
  0
LINE
  5
35C
330
22
100
AcDbEntity
  8
_4-7_
  6
Continuous
 62
     7
100
AcDbLine
 10
805.2411809425526
 20
1197.953898547884
 30
0.0
 11
805.1918685428864
 21
1197.982436781914
 31
0.0
  0
LINE
  5
35D
330
22
100
AcDbEntity
  8
_4-7_
  6
Continuous
 62
     7
100
AcDbLine
 10
805.1918685428864
 20
1197.982436781914
 30
0.0
 11
805.1378570338313
 21
1198.002752762285
 31
0.0
  0
LINE
  5
35E
330
22
100
AcDbEntity
  8
_4-7_
  6
Continuous
 62
     7
100
AcDbLine
 10
805.1378570338313
 20
1198.002752762285
 30
0.0
 11
805.0807875277588
 21
1198.014229198213
 31
0.0
  0
LINE
  5
35F
330
22
100
AcDbEntity
  8
_4-7_
  6
Continuous
 62
     7
100
AcDbLine
 10
805.0807875277588
 20
1198.014229198213
 30
0.0
 11
805.022394052732
 21
1198.016517384
 31
0.0
  0
LINE
  5
360
330
22
100
AcDbEntity
  8
_4-7_
  6
Continuous
 62
     7
100
AcDbLine
 10
805.022394052732
 20
1198.016517384
 30
0.0
 11
804.9644508649416
 21
1198.00954779428
 31
0.0
  0
LINE
  5
361
330
22
100
AcDbEntity
  8
_4-7_
  6
Continuous
 62
     7
100
AcDbLine
 10
804.9644508649416
 20
1198.00954779428
 30
0.0
 11
804.908718538828
 21
1197.993532196507
 31
0.0
  0
LINE
  5
362
330
22
100
AcDbEntity
  8
_4-7_
  6
Continuous
 62
     7
100
AcDbLine
 10
804.908718538828
 20
1197.993532196507
 30
0.0
 11
804.8568904729178
 21
1197.968957216517
 31
0.0
  0
LINE
  5
363
330
22
100
AcDbEntity
  8
_4-7_
  6
Continuous
 62
     7
100
AcDbLine
 10
804.8568904729178
 20
1197.968957216517
 30
0.0
 11
804.8105414367674
 21
1197.936569552642
 31
0.0
  0
LINE
  5
364
330
22
100
AcDbEntity
  8
_4-7_
  6
Continuous
 62
     7
100
AcDbLine
 10
804.8105414367674
 20
1197.936569552642
 30
0.0
 11
804.7710797223867
 21
1197.897353287659
 31
0.0
  0
LINE
  5
365
330
22
100
AcDbEntity
  8
_4-7_
  6
Continuous
 62
     7
100
AcDbLine
 10
804.7710797223867
 20
1197.897353287659
 30
0.0
 11
804.7397043539985
 21
1197.852499987935
 31
0.0
  0
LINE
  5
366
330
22
100
AcDbEntity
  8
_4-7_
  6
Continuous
 62
     7
100
AcDbLine
 10
804.7397043539985
 20
1197.852499987935
 30
0.0
 11
804.7173686562947
 21
1197.803372498285
 31
0.0
  0
LINE
  5
367
330
22
100
AcDbEntity
  8
_4-7_
  6
Continuous
 62
     7
100
AcDbLine
 10
804.7173686562947
 20
1197.803372498285
 30
0.0
 11
804.7047512881475
 21
1197.751463532624
 31
0.0
  0
LINE
  5
368
330
22
100
AcDbEntity
  8
_4-7_
  6
Continuous
 62
     7
100
AcDbLine
 10
804.7047512881475
 20
1197.751463532624
 30
0.0
 11
804.7022356219036
 21
1197.725309449396
 31
0.0
  0
LINE
  5
369
330
22
100
AcDbEntity
  8
_4-7_
  6
Continuous
 62
     7
100
AcDbLine
 10
810.2680250921542
 20
1197.725309449396
 30
0.0
 11
810.2680250921542
 21
1197.725309449396
 31
0.0
  0
LINE
  5
36A
330
22
100
AcDbEntity
  8
_4-7_
  6
Continuous
 62
     7
100
AcDbLine
 10
810.2680250921542
 20
1197.725309449396
 30
0.0
 11
810.2603626192491
 21
1197.778013093643
 31
0.0
  0
LINE
  5
36B
330
22
100
AcDbEntity
  8
_4-7_
  6
Continuous
 62
     7
100
AcDbLine
 10
810.2603626192491
 20
1197.778013093643
 30
0.0
 11
810.2427548275574
 21
1197.828705794554
 31
0.0
  0
LINE
  5
36C
330
22
100
AcDbEntity
  8
_4-7_
  6
Continuous
 62
     7
100
AcDbLine
 10
810.2427548275574
 20
1197.828705794554
 30
0.0
 11
810.2157367209189
 21
1197.875847280065
 31
0.0
  0
LINE
  5
36D
330
22
100
AcDbEntity
  8
_4-7_
  6
Continuous
 62
     7
100
AcDbLine
 10
810.2157367209189
 20
1197.875847280065
 30
0.0
 11
810.1801292308323
 21
1197.918005179994
 31
0.0
  0
LINE
  5
36E
330
22
100
AcDbEntity
  8
_4-7_
  6
Continuous
 62
     7
100
AcDbLine
 10
810.1801292308323
 20
1197.918005179994
 30
0.0
 11
810.1370142728656
 21
1197.953898547884
 31
0.0
  0
LINE
  5
36F
330
22
100
AcDbEntity
  8
_4-7_
  6
Continuous
 62
     7
100
AcDbLine
 10
810.1370142728656
 20
1197.953898547884
 30
0.0
 11
810.0877018731994
 21
1197.982436781914
 31
0.0
  0
LINE
  5
370
330
22
100
AcDbEntity
  8
_4-7_
  6
Continuous
 62
     7
100
AcDbLine
 10
810.0877018731994
 20
1197.982436781914
 30
0.0
 11
810.0336903641444
 21
1198.002752762285
 31
0.0
  0
LINE
  5
371
330
22
100
AcDbEntity
  8
_4-7_
  6
Continuous
 62
     7
100
AcDbLine
 10
810.0336903641444
 20
1198.002752762285
 30
0.0
 11
809.9766208580716
 21
1198.014229198213
 31
0.0
  0
LINE
  5
372
330
22
100
AcDbEntity
  8
_4-7_
  6
Continuous
 62
     7
100
AcDbLine
 10
809.9766208580716
 20
1198.014229198213
 30
0.0
 11
809.9182273830452
 21
1198.016517384
 31
0.0
  0
LINE
  5
373
330
22
100
AcDbEntity
  8
_4-7_
  6
Continuous
 62
     7
100
AcDbLine
 10
809.9182273830452
 20
1198.016517384
 30
0.0
 11
809.8602841952548
 21
1198.00954779428
 31
0.0
  0
LINE
  5
374
330
22
100
AcDbEntity
  8
_4-7_
  6
Continuous
 62
     7
100
AcDbLine
 10
809.8602841952548
 20
1198.00954779428
 30
0.0
 11
809.8045518691408
 21
1197.993532196507
 31
0.0
  0
LINE
  5
375
330
22
100
AcDbEntity
  8
_4-7_
  6
Continuous
 62
     7
100
AcDbLine
 10
809.8045518691408
 20
1197.993532196507
 30
0.0
 11
809.7527238032308
 21
1197.968957216517
 31
0.0
  0
LINE
  5
376
330
22
100
AcDbEntity
  8
_4-7_
  6
Continuous
 62
     7
100
AcDbLine
 10
809.7527238032308
 20
1197.968957216517
 30
0.0
 11
809.7063747670803
 21
1197.936569552642
 31
0.0
  0
LINE
  5
377
330
22
100
AcDbEntity
  8
_4-7_
  6
Continuous
 62
     7
100
AcDbLine
 10
809.7063747670803
 20
1197.936569552642
 30
0.0
 11
809.6669130526999
 21
1197.897353287659
 31
0.0
  0
LINE
  5
378
330
22
100
AcDbEntity
  8
_4-7_
  6
Continuous
 62
     7
100
AcDbLine
 10
809.6669130526999
 20
1197.897353287659
 30
0.0
 11
809.6355376843117
 21
1197.852499987935
 31
0.0
  0
LINE
  5
379
330
22
100
AcDbEntity
  8
_4-7_
  6
Continuous
 62
     7
100
AcDbLine
 10
809.6355376843117
 20
1197.852499987935
 30
0.0
 11
809.6132019866077
 21
1197.803372498285
 31
0.0
  0
LINE
  5
37A
330
22
100
AcDbEntity
  8
_4-7_
  6
Continuous
 62
     7
100
AcDbLine
 10
809.6132019866077
 20
1197.803372498285
 30
0.0
 11
809.6005846184606
 21
1197.751463532624
 31
0.0
  0
LINE
  5
37B
330
22
100
AcDbEntity
  8
_4-7_
  6
Continuous
 62
     7
100
AcDbLine
 10
809.6005846184606
 20
1197.751463532624
 30
0.0
 11
809.5980689522166
 21
1197.725309449396
 31
0.0
  0
LINE
  5
37C
330
22
100
AcDbEntity
  8
_4-7_
  6
Continuous
 62
     7
100
AcDbLine
 10
798.3118847486531
 20
1197.928569956147
 30
0.0
 11
798.3118847486531
 21
1197.928569956147
 31
0.0
  0
LINE
  5
37D
330
22
100
AcDbEntity
  8
_4-7_
  6
Continuous
 62
     7
100
AcDbLine
 10
798.3118847486531
 20
1197.928569956147
 30
0.0
 11
798.2283945444236
 21
1197.951185714836
 31
0.0
  0
LINE
  5
37E
330
22
100
AcDbEntity
  8
_4-7_
  6
Continuous
 62
     7
100
AcDbLine
 10
798.2283945444236
 20
1197.951185714836
 30
0.0
 11
798.1418551367891
 21
1197.960270949799
 31
0.0
  0
LINE
  5
37F
330
22
100
AcDbEntity
  8
_4-7_
  6
Continuous
 62
     7
100
AcDbLine
 10
798.1418551367891
 20
1197.960270949799
 30
0.0
 11
798.1057443979033
 21
1197.959992039327
 31
0.0
  0
LINE
  5
380
330
22
100
AcDbEntity
  8
_4-7_
  6
Continuous
 62
     7
100
AcDbLine
 10
796.8689022934035
 20
1198.277205855647
 30
0.0
 11
796.8689022934035
 21
1198.277205855647
 31
0.0
  0
LINE
  5
381
330
22
100
AcDbEntity
  8
_4-7_
  6
Continuous
 62
     7
100
AcDbLine
 10
796.8689022934035
 20
1198.277205855647
 30
0.0
 11
796.9036089028896
 21
1198.280981341611
 31
0.0
  0
LINE
  5
382
330
22
100
AcDbEntity
  8
_4-7_
  6
Continuous
 62
     7
100
AcDbLine
 10
796.9036089028896
 20
1198.280981341611
 30
0.0
 11
796.9370674575046
 21
1198.29018123783
 31
0.0
  0
LINE
  5
383
330
22
100
AcDbEntity
  8
_4-7_
  6
Continuous
 62
     7
100
AcDbLine
 10
796.9370674575046
 20
1198.29018123783
 30
0.0
 11
796.968261335998
 21
1198.304526010111
 31
0.0
  0
LINE
  5
384
330
22
100
AcDbEntity
  8
_4-7_
  6
Continuous
 62
     7
100
AcDbLine
 10
796.968261335998
 20
1198.304526010111
 30
0.0
 11
796.9962427281564
 21
1198.323579799809
 31
0.0
  0
LINE
  5
385
330
22
100
AcDbEntity
  8
_4-7_
  6
Continuous
 62
     7
100
AcDbLine
 10
796.9962427281564
 20
1198.323579799809
 30
0.0
 11
797.0201614335382
 21
1198.346763667164
 31
0.0
  0
LINE
  5
386
330
22
100
AcDbEntity
  8
_4-7_
  6
Continuous
 62
     7
100
AcDbLine
 10
797.0201614335382
 20
1198.346763667164
 30
0.0
 11
797.0392906943841
 21
1198.3733731821
 31
0.0
  0
LINE
  5
387
330
22
100
AcDbEntity
  8
_4-7_
  6
Continuous
 62
     7
100
AcDbLine
 10
797.0392906943841
 20
1198.3733731821
 30
0.0
 11
797.0530492777827
 21
1198.402599827968
 31
0.0
  0
LINE
  5
388
330
22
100
AcDbEntity
  8
_4-7_
  6
Continuous
 62
     7
100
AcDbLine
 10
797.0530492777827
 20
1198.402599827968
 30
0.0
 11
797.0610191361401
 21
1198.433555567925
 31
0.0
  0
LINE
  5
389
330
22
100
AcDbEntity
  8
_4-7_
  6
Continuous
 62
     7
100
AcDbLine
 10
797.0610191361401
 20
1198.433555567925
 30
0.0
 11
797.0629581093428
 21
1198.465299827476
 31
0.0
  0
LINE
  5
38A
330
22
100
AcDbEntity
  8
_4-7_
  6
Continuous
 62
     7
100
AcDbLine
 10
797.0629581093428
 20
1198.465299827476
 30
0.0
 11
797.0588072826711
 21
1198.496868073358
 31
0.0
  0
LINE
  5
38B
330
22
100
AcDbEntity
  8
_4-7_
  6
Continuous
 62
     7
100
AcDbLine
 10
797.0588072826711
 20
1198.496868073358
 30
0.0
 11
797.0486927768932
 21
1198.527301120394
 31
0.0
  0
LINE
  5
38C
330
22
100
AcDbEntity
  8
_4-7_
  6
Continuous
 62
     7
100
AcDbLine
 10
797.0486927768932
 20
1198.527301120394
 30
0.0
 11
797.032921916149
 21
1198.555674275849
 31
0.0
  0
LINE
  5
38D
330
22
100
AcDbEntity
  8
_4-7_
  6
Continuous
 62
     7
100
AcDbLine
 10
797.032921916149
 20
1198.555674275849
 30
0.0
 11
797.0119738900615
 21
1198.581125435754
 31
0.0
  0
LINE
  5
38E
330
22
100
AcDbEntity
  8
_4-7_
  6
Continuous
 62
     7
100
AcDbLine
 10
797.0119738900615
 20
1198.581125435754
 30
0.0
 11
796.9864851938035
 21
1198.602881279492
 31
0.0
  0
LINE
  5
38F
330
22
100
AcDbEntity
  8
_4-7_
  6
Continuous
 62
     7
100
AcDbLine
 10
796.9864851938035
 20
1198.602881279492
 30
0.0
 11
796.9572302885126
 21
1198.620280766762
 31
0.0
  0
LINE
  5
390
330
22
100
AcDbEntity
  8
_4-7_
  6
Continuous
 62
     7
100
AcDbLine
 10
796.9572302885126
 20
1198.620280766762
 30
0.0
 11
796.9250980696828
 21
1198.632795222946
 31
0.0
  0
LINE
  5
391
330
22
100
AcDbEntity
  8
_4-7_
  6
Continuous
 62
     7
100
AcDbLine
 10
796.9250980696828
 20
1198.632795222946
 30
0.0
 11
796.8910648585229
 21
1198.640044402627
 31
0.0
  0
LINE
  5
392
330
22
100
AcDbEntity
  8
_4-7_
  6
Continuous
 62
     7
100
AcDbLine
 10
796.8910648585229
 20
1198.640044402627
 30
0.0
 11
796.8561647369328
 21
1198.641808043147
 31
0.0
  0
LINE
  5
393
330
22
100
AcDbEntity
  8
_4-7_
  6
Continuous
 62
     7
100
AcDbLine
 10
796.8561647369328
 20
1198.641808043147
 30
0.0
 11
796.8561647369328
 21
1198.641808043147
 31
0.0
  0
LINE
  5
394
330
22
100
AcDbEntity
  8
_4-7_
  6
Continuous
 62
     7
100
AcDbLine
 10
819.973697728709
 20
1201.580778199397
 30
0.0
 11
822.5333759617784
 21
1201.580778199397
 31
0.0
  0
LINE
  5
395
330
22
100
AcDbEntity
  8
_4-7_
  6
Continuous
 62
     7
100
AcDbLine
 10
822.5333759617784
 20
1201.580778199397
 30
0.0
 11
822.5333759617784
 21
1199.705778199397
 31
0.0
  0
LINE
  5
396
330
22
100
AcDbEntity
  8
_4-7_
  6
Continuous
 62
     7
100
AcDbLine
 10
819.973697728709
 20
1201.580778199397
 30
0.0
 11
819.4583471535818
 21
1202.049528199397
 31
0.0
  0
LINE
  5
397
330
22
100
AcDbEntity
  8
_4-7_
  6
Continuous
 62
     7
100
AcDbLine
 10
819.4583471535818
 20
1202.049528199397
 30
0.0
 11
818.1467185741347
 21
1202.049528199397
 31
0.0
  0
LINE
  5
398
330
22
100
AcDbEntity
  8
_4-7_
  6
Continuous
 62
     7
100
AcDbLine
 10
818.1467185741347
 20
1202.049528199397
 30
0.0
 11
815.5732227533542
 21
1201.706891168146
 31
0.0
  0
LINE
  5
399
330
22
100
AcDbEntity
  8
_4-7_
  6
Continuous
 62
     7
100
AcDbLine
 10
815.5732227533542
 20
1201.706891168146
 30
0.0
 11
815.3184636855279
 21
1201.555688824396
 31
0.0
  0
LINE
  5
39A
330
22
100
AcDbEntity
  8
_4-7_
  6
Continuous
 62
     7
100
AcDbLine
 10
815.3184636855279
 20
1201.555688824396
 30
0.0
 11
815.3184636855279
 21
1201.580778199397
 31
0.0
  0
LINE
  5
39B
330
22
100
AcDbEntity
  8
_4-7_
  6
Continuous
 62
     7
100
AcDbLine
 10
815.3184636855279
 20
1201.580778199397
 30
0.0
 11
814.1846917564041
 21
1201.580778199397
 31
0.0
  0
LINE
  5
39C
330
22
100
AcDbEntity
  8
_4-7_
  6
Continuous
 62
     7
100
AcDbLine
 10
814.1846917564041
 20
1201.580778199397
 30
0.0
 11
813.6693408795292
 21
1201.310145349041
 31
0.0
  0
LINE
  5
39D
330
22
100
AcDbEntity
  8
_4-7_
  6
Continuous
 62
     7
100
AcDbLine
 10
813.5147356164656
 20
1201.391335230646
 30
0.0
 11
813.5147356164656
 21
1202.002653199397
 31
0.0
  0
LINE
  5
39E
330
22
100
AcDbEntity
  8
_4-7_
  6
Continuous
 62
     7
100
AcDbLine
 10
813.5147356164656
 20
1202.002653199397
 30
0.0
 11
810.8688664952907
 21
1202.002653199397
 31
0.0
  0
LINE
  5
39F
330
22
100
AcDbEntity
  8
_4-7_
  6
Continuous
 62
     7
100
AcDbLine
 10
810.8688664952907
 20
1202.002653199397
 30
0.0
 11
810.2680250921535
 21
1201.689234761897
 31
0.0
  0
LINE
  5
3A0
330
22
100
AcDbEntity
  8
_4-7_
  6
Continuous
 62
     7
100
AcDbLine
 10
810.2680250921535
 20
1201.689234761897
 30
0.0
 11
810.2680250921535
 21
1201.686246949396
 31
0.0
  0
LINE
  5
3A1
330
22
100
AcDbEntity
  8
_4-7_
  6
Continuous
 62
     7
100
AcDbLine
 10
810.2680253132676
 20
1201.686244341093
 30
0.0
 11
810.2680250921535
 21
1201.686246949396
 31
0.0
  0
LINE
  5
3A2
330
22
100
AcDbEntity
  8
_4-7_
  6
Continuous
 62
     7
100
AcDbLine
 10
810.2680253132676
 20
1201.686244341093
 30
0.0
 11
810.2680250921535
 21
1201.686246949396
 31
0.0
  0
LINE
  5
3A3
330
22
100
AcDbEntity
  8
_4-7_
  6
Continuous
 62
     7
100
AcDbLine
 10
809.5980689522161
 20
1201.665877418147
 30
0.0
 11
809.5980689522161
 21
1202.002653199397
 31
0.0
  0
LINE
  5
3A4
330
22
100
AcDbEntity
  8
_4-7_
  6
Continuous
 62
     7
100
AcDbLine
 10
809.5980689522161
 20
1202.002653199397
 30
0.0
 11
805.9747982417331
 21
1202.002653199397
 31
0.0
  0
LINE
  5
3A5
330
22
100
AcDbEntity
  8
_4-7_
  6
Continuous
 62
     7
100
AcDbLine
 10
805.9747982417331
 20
1202.002653199397
 30
0.0
 11
805.372203635629
 21
1201.686248707483
 31
0.0
  0
LINE
  5
3A6
330
22
100
AcDbEntity
  8
_4-7_
  6
Continuous
 62
     7
100
AcDbLine
 10
805.3721917618405
 20
1201.686246949396
 30
0.0
 11
805.6705988851158
 21
1201.684002180424
 31
0.0
  0
LINE
  5
3A7
330
22
100
AcDbEntity
  8
_4-7_
  6
Continuous
 62
     7
100
AcDbLine
 10
805.6705988851158
 20
1201.684002180424
 30
0.0
 11
805.6814022879663
 21
1201.483577175659
 31
0.0
  0
LINE
  5
3A8
330
22
100
AcDbEntity
  8
_4-7_
  6
Continuous
 62
     7
100
AcDbLine
 10
805.8360075510289
 20
1201.384413400555
 30
0.0
 11
806.3513584279029
 21
1201.665877418147
 31
0.0
  0
LINE
  5
3A9
330
22
100
AcDbEntity
  8
_4-7_
  6
Continuous
 62
     7
100
AcDbLine
 10
806.3513584279029
 20
1201.665877418147
 30
0.0
 11
806.6497655960255
 21
1201.665877513224
 31
0.0
  0
LINE
  5
3AA
330
22
100
AcDbEntity
  8
_4-7_
  6
Continuous
 62
     7
100
AcDbLine
 10
806.6497655960255
 20
1201.665877513224
 30
0.0
 11
806.6605689540288
 21
1201.448357261896
 31
0.0
  0
LINE
  5
3AB
330
22
100
AcDbEntity
  8
_4-7_
  6
Continuous
 62
     7
100
AcDbLine
 10
806.8151742170913
 20
1201.348613668322
 30
0.0
 11
807.3305250939663
 21
1201.665877418147
 31
0.0
  0
LINE
  5
3AC
330
22
100
AcDbEntity
  8
_4-7_
  6
Continuous
 62
     7
100
AcDbLine
 10
807.3305250939663
 20
1201.665877418147
 30
0.0
 11
807.6289323196588
 21
1201.665877418147
 31
0.0
  0
LINE
  5
3AD
330
22
100
AcDbEntity
  8
_4-7_
  6
Continuous
 62
     7
100
AcDbLine
 10
807.6289323196588
 20
1201.665877418147
 30
0.0
 11
807.6397356200912
 21
1201.448357261896
 31
0.0
  0
LINE
  5
3AE
330
22
100
AcDbEntity
  8
_4-7_
  6
Continuous
 62
     7
100
AcDbLine
 10
807.7943408831536
 20
1201.348613668322
 30
0.0
 11
808.3096917600286
 21
1201.665877418147
 31
0.0
  0
LINE
  5
3AF
330
22
100
AcDbEntity
  8
_4-7_
  6
Continuous
 62
     7
100
AcDbLine
 10
808.3096917600286
 20
1201.665877418147
 30
0.0
 11
808.6080989857213
 21
1201.665877418147
 31
0.0
  0
LINE
  5
3B0
330
22
100
AcDbEntity
  8
_4-7_
  6
Continuous
 62
     7
100
AcDbLine
 10
808.6080989857213
 20
1201.665877418147
 30
0.0
 11
808.6189022861535
 21
1201.448357261896
 31
0.0
  0
LINE
  5
3B1
330
22
100
AcDbEntity
  8
_4-7_
  6
Continuous
 62
     7
100
AcDbLine
 10
808.773507549216
 20
1201.348613668322
 30
0.0
 11
809.2888584260913
 21
1201.665877513224
 31
0.0
  0
LINE
  5
3B2
330
22
100
AcDbEntity
  8
_4-7_
  6
Continuous
 62
     7
100
AcDbLine
 10
809.2888584260913
 20
1201.665877513224
 30
0.0
 11
809.5980689522161
 21
1201.665877418147
 31
0.0
  0
LINE
  5
3B3
330
22
100
AcDbEntity
  8
_4-7_
  6
Continuous
 62
     7
100
AcDbLine
 10
810.2680253132676
 20
1201.686244341093
 30
0.0
 11
810.5664324813892
 21
1201.683941090315
 31
0.0
  0
LINE
  5
3B4
330
22
100
AcDbEntity
  8
_4-7_
  6
Continuous
 62
     7
100
AcDbLine
 10
810.5664324813892
 20
1201.683941090315
 30
0.0
 11
810.5772356182782
 21
1201.485538043147
 31
0.0
  0
LINE
  5
3B5
330
22
100
AcDbEntity
  8
_4-7_
  6
Continuous
 62
     7
100
AcDbLine
 10
810.7318408813407
 20
1201.384230455446
 30
0.0
 11
811.247191758216
 21
1201.665877513224
 31
0.0
  0
LINE
  5
3B6
330
22
100
AcDbEntity
  8
_4-7_
  6
Continuous
 62
     7
100
AcDbLine
 10
811.247191758216
 20
1201.665877513224
 30
0.0
 11
811.5455989263374
 21
1201.665877513224
 31
0.0
  0
LINE
  5
3B7
330
22
100
AcDbEntity
  8
_4-7_
  6
Continuous
 62
     7
100
AcDbLine
 10
811.5455989263374
 20
1201.665877513224
 30
0.0
 11
811.5564022843408
 21
1201.448357261896
 31
0.0
  0
LINE
  5
3B8
330
22
100
AcDbEntity
  8
_4-7_
  6
Continuous
 62
     7
100
AcDbLine
 10
811.7110075474032
 20
1201.348613668322
 30
0.0
 11
812.2263584242782
 21
1201.665877418147
 31
0.0
  0
LINE
  5
3B9
330
22
100
AcDbEntity
  8
_4-7_
  6
Continuous
 62
     7
100
AcDbLine
 10
812.2263584242782
 20
1201.665877418147
 30
0.0
 11
812.5247655923999
 21
1201.665877513224
 31
0.0
  0
LINE
  5
3BA
330
22
100
AcDbEntity
  8
_4-7_
  6
Continuous
 62
     7
100
AcDbLine
 10
812.5247655923999
 20
1201.665877513224
 30
0.0
 11
812.5357136886281
 21
1201.447803454091
 31
0.0
  0
LINE
  5
3BB
330
22
100
AcDbEntity
  8
_4-7_
  6
Continuous
 62
     7
100
AcDbLine
 10
812.690174213467
 20
1201.348613668322
 30
0.0
 11
813.2055250903405
 21
1201.665877513224
 31
0.0
  0
LINE
  5
3BC
330
22
100
AcDbEntity
  8
_4-7_
  6
Continuous
 62
     7
100
AcDbLine
 10
813.2055250903405
 20
1201.665877513224
 30
0.0
 11
813.5147356164656
 21
1201.665877414705
 31
0.0
  0
LINE
  5
3BD
330
22
100
AcDbEntity
  8
_4-7_
  6
Continuous
 62
     7
100
AcDbLine
 10
804.7022356219041
 20
1201.665877418147
 30
0.0
 11
804.7022356219041
 21
1202.002653199397
 31
0.0
  0
LINE
  5
3BE
330
22
100
AcDbEntity
  8
_4-7_
  6
Continuous
 62
     7
100
AcDbLine
 10
804.7022356219041
 20
1202.002653199397
 30
0.0
 11
802.6720845376303
 21
1202.002653199397
 31
0.0
  0
LINE
  5
3BF
330
22
100
AcDbEntity
  8
_4-7_
  6
Continuous
 62
     7
100
AcDbLine
 10
802.6720845376303
 20
1202.002653199397
 30
0.0
 11
800.4763584315286
 21
1201.686537105646
 31
0.0
  0
LINE
  5
3C0
330
22
100
AcDbEntity
  8
_4-7_
  6
Continuous
 62
     7
100
AcDbLine
 10
800.4763584315286
 20
1201.686537105646
 30
0.0
 11
800.7747653591172
 21
1201.686078032107
 31
0.0
  0
LINE
  5
3C1
330
22
100
AcDbEntity
  8
_4-7_
  6
Continuous
 62
     7
100
AcDbLine
 10
800.7747653591172
 20
1201.686078032107
 30
0.0
 11
800.7855689576535
 21
1201.493147730646
 31
0.0
  0
LINE
  5
3C2
330
22
100
AcDbEntity
  8
_4-7_
  6
Continuous
 62
     7
100
AcDbLine
 10
800.4763584315286
 20
1201.686537105646
 30
0.0
 11
799.9610075546535
 21
1201.415614099042
 31
0.0
  0
LINE
  5
3C3
330
22
100
AcDbEntity
  8
_4-7_
  6
Continuous
 62
     7
100
AcDbLine
 10
800.9401742207158
 20
1201.402799877653
 30
0.0
 11
801.4555250975909
 21
1201.684426336067
 31
0.0
  0
LINE
  5
3C4
330
22
100
AcDbEntity
  8
_4-7_
  6
Continuous
 62
     7
100
AcDbLine
 10
801.4555250975909
 20
1201.684426336067
 30
0.0
 11
801.7539320251783
 21
1201.683123270902
 31
0.0
  0
LINE
  5
3C5
330
22
100
AcDbEntity
  8
_4-7_
  6
Continuous
 62
     7
100
AcDbLine
 10
801.7539320251783
 20
1201.683123270902
 30
0.0
 11
801.7647356237159
 21
1201.481668980647
 31
0.0
  0
LINE
  5
3C6
330
22
100
AcDbEntity
  8
_4-7_
  6
Continuous
 62
     7
100
AcDbLine
 10
801.9193408867783
 20
1201.38885304576
 30
0.0
 11
802.4346915231193
 21
1201.678770457838
 31
0.0
  0
LINE
  5
3C7
330
22
100
AcDbEntity
  8
_4-7_
  6
Continuous
 62
     7
100
AcDbLine
 10
802.4346915231193
 20
1201.678770457838
 30
0.0
 11
802.7330986912419
 21
1201.676231182403
 31
0.0
  0
LINE
  5
3C8
330
22
100
AcDbEntity
  8
_4-7_
  6
Continuous
 62
     7
100
AcDbLine
 10
802.7330986912419
 20
1201.676231182403
 30
0.0
 11
802.7439022897782
 21
1201.46707283536
 31
0.0
  0
LINE
  5
3C9
330
22
100
AcDbEntity
  8
_4-7_
  6
Continuous
 62
     7
100
AcDbLine
 10
802.8985075528405
 20
1201.368788700255
 30
0.0
 11
803.4138581891827
 21
1201.668915340383
 31
0.0
  0
LINE
  5
3CA
330
22
100
AcDbEntity
  8
_4-7_
  6
Continuous
 62
     7
100
AcDbLine
 10
803.4138581891827
 20
1201.668915340383
 30
0.0
 11
803.7122656554082
 21
1201.665877418147
 31
0.0
  0
LINE
  5
3CB
330
22
100
AcDbEntity
  8
_4-7_
  6
Continuous
 62
     7
100
AcDbLine
 10
803.7122656554082
 20
1201.665877418147
 30
0.0
 11
803.7230689558416
 21
1201.448357261896
 31
0.0
  0
LINE
  5
3CC
330
22
100
AcDbEntity
  8
_4-7_
  6
Continuous
 62
     7
100
AcDbLine
 10
803.877674218903
 20
1201.348613668322
 30
0.0
 11
804.3930250957782
 21
1201.665877513224
 31
0.0
  0
LINE
  5
3CD
330
22
100
AcDbEntity
  8
_4-7_
  6
Continuous
 62
     7
100
AcDbLine
 10
804.3930250957782
 20
1201.665877513224
 30
0.0
 11
804.7022356219041
 21
1201.665877418147
 31
0.0
  0
LINE
  5
3CE
330
22
100
AcDbEntity
  8
_4-7_
  6
Continuous
 62
     7
100
AcDbLine
 10
799.8064022915912
 20
1201.496803980647
 30
0.0
 11
799.8064022915912
 21
1201.580778199397
 31
0.0
  0
LINE
  5
3CF
330
22
100
AcDbEntity
  8
_4-7_
  6
Continuous
 62
     7
100
AcDbLine
 10
799.8064022915912
 20
1201.580778199397
 30
0.0
 11
799.3168189585595
 21
1201.580778199397
 31
0.0
  0
LINE
  5
3D0
330
22
100
AcDbEntity
  8
_4-7_
  6
Continuous
 62
     7
100
AcDbLine
 10
799.3168189585595
 20
1201.580778199397
 30
0.0
 11
799.3168189585595
 21
1201.487028199397
 31
0.0
  0
LINE
  5
3D1
330
22
100
AcDbEntity
  8
_4-7_
  6
Continuous
 62
     7
100
AcDbLine
 10
799.3168189585595
 20
1201.487028199397
 30
0.0
 11
798.3118847486536
 21
1201.487028199397
 31
0.0
  0
LINE
  5
3D2
330
22
100
AcDbEntity
  8
_4-7_
  6
Continuous
 62
     7
100
AcDbLine
 10
798.3118847486536
 20
1201.487028199397
 30
0.0
 11
798.3118847486536
 21
1201.482986442646
 31
0.0
  0
LINE
  5
3D3
330
22
100
AcDbEntity
  8
_4-7_
  6
Continuous
 62
     7
100
AcDbLine
 10
798.1057443979034
 20
1201.451564449396
 30
0.0
 11
794.3867184023917
 21
1201.45156435781
 31
0.0
  0
LINE
  5
3D4
330
22
100
AcDbEntity
  8
_4-7_
  6
Continuous
 62
     7
100
AcDbLine
 10
794.3867184023917
 20
1201.45156435781
 30
0.0
 11
793.9795803872914
 21
1201.176291011897
 31
0.0
  0
LINE
  5
3D5
330
22
100
AcDbEntity
  8
_4-7_
  6
Continuous
 62
     7
100
AcDbLine
 10
793.9795803872914
 20
1201.176291011897
 30
0.0
 11
793.1583759799035
 21
1200.549528199396
 31
0.0
  0
LINE
  5
3D6
330
22
100
AcDbEntity
  8
_4-7_
  6
Continuous
 62
     7
100
AcDbLine
 10
793.1583759799035
 20
1200.549528199396
 30
0.0
 11
793.1583759799035
 21
1200.456166649712
 31
0.0
  0
LINE
  5
3D7
330
22
100
AcDbEntity
  8
_4-7_
  6
Continuous
 62
     7
100
AcDbLine
 10
793.1583759799035
 20
1200.456166649712
 30
0.0
 11
794.3867184023917
 21
1201.134350468035
 31
0.0
  0
LINE
  5
3D8
330
22
100
AcDbEntity
  8
_4-7_
  6
Continuous
 62
     7
100
AcDbLine
 10
794.3867184023917
 20
1201.134350468035
 30
0.0
 11
796.8689022934039
 21
1201.134350543147
 31
0.0
  0
LINE
  5
3D9
330
22
100
AcDbEntity
  8
_4-7_
  6
Continuous
 62
     7
100
AcDbLine
 10
796.8689022934039
 20
1200.769748355647
 30
0.0
 11
794.3867184978285
 21
1200.769748526542
 31
0.0
  0
LINE
  5
3DA
330
22
100
AcDbEntity
  8
_4-7_
  6
Continuous
 62
     7
100
AcDbLine
 10
794.3867184978285
 20
1200.769748526542
 30
0.0
 11
793.1583759799035
 21
1200.091564548271
 31
0.0
  0
LINE
  5
3DB
330
22
100
AcDbEntity
  8
_4-7_
  6
Continuous
 62
     7
100
AcDbLine
 10
793.1583759799035
 20
1200.091564548271
 30
0.0
 11
793.1583759799035
 21
1199.705778199397
 31
0.0
  0
LINE
  5
3DC
330
22
100
AcDbEntity
  8
_4-7_
  6
Continuous
 62
     7
100
AcDbLine
 10
813.5147356164656
 20
1201.391335230647
 30
0.0
 11
813.5147356164656
 21
1201.391335230647
 31
0.0
  0
LINE
  5
3DD
330
22
100
AcDbEntity
  8
_4-7_
  6
Continuous
 62
     7
100
AcDbLine
 10
813.5147356164656
 20
1201.391335230647
 30
0.0
 11
813.5176442319126
 21
1201.374486198834
 31
0.0
  0
LINE
  5
3DE
330
22
100
AcDbEntity
  8
_4-7_
  6
Continuous
 62
     7
100
AcDbLine
 10
813.5176442319126
 20
1201.374486198834
 30
0.0
 11
813.5237253319939
 21
1201.358352545701
 31
0.0
  0
LINE
  5
3DF
330
22
100
AcDbEntity
  8
_4-7_
  6
Continuous
 62
     7
100
AcDbLine
 10
813.5237253319939
 20
1201.358352545701
 30
0.0
 11
813.5327941455605
 21
1201.343424484135
 31
0.0
  0
LINE
  5
3E0
330
22
100
AcDbEntity
  8
_4-7_
  6
Continuous
 62
     7
100
AcDbLine
 10
813.5327941455605
 20
1201.343424484135
 30
0.0
 11
813.5445751213012
 21
1201.33015559573
 31
0.0
  0
LINE
  5
3E1
330
22
100
AcDbEntity
  8
_4-7_
  6
Continuous
 62
     7
100
AcDbLine
 10
813.5445751213012
 20
1201.33015559573
 30
0.0
 11
813.5587103002301
 21
1201.318949048949
 31
0.0
  0
LINE
  5
3E2
330
22
100
AcDbEntity
  8
_4-7_
  6
Continuous
 62
     7
100
AcDbLine
 10
813.5587103002301
 20
1201.318949048949
 30
0.0
 11
813.5747701920875
 21
1201.310145349043
 31
0.0
  0
LINE
  5
3E3
330
22
100
AcDbEntity
  8
_4-7_
  6
Continuous
 62
     7
100
AcDbLine
 10
813.5747701920875
 20
1201.310145349043
 30
0.0
 11
813.5922668251863
 21
1201.304011991979
 31
0.0
  0
LINE
  5
3E4
330
22
100
AcDbEntity
  8
_4-7_
  6
Continuous
 62
     7
100
AcDbLine
 10
813.5922668251863
 20
1201.304011991979
 30
0.0
 11
813.6106685731835
 21
1201.300735336709
 31
0.0
  0
LINE
  5
3E5
330
22
100
AcDbEntity
  8
_4-7_
  6
Continuous
 62
     7
100
AcDbLine
 10
813.6106685731835
 20
1201.300735336709
 30
0.0
 11
813.629416308278
 21
1201.300414942745
 31
0.0
  0
LINE
  5
3E6
330
22
100
AcDbEntity
  8
_4-7_
  6
Continuous
 62
     7
100
AcDbLine
 10
813.629416308278
 20
1201.300414942745
 30
0.0
 11
813.6479403900258
 21
1201.303060545094
 31
0.0
  0
LINE
  5
3E7
330
22
100
AcDbEntity
  8
_4-7_
  6
Continuous
 62
     7
100
AcDbLine
 10
813.6479403900258
 20
1201.303060545094
 30
0.0
 11
813.6656779735764
 21
1201.30859175847
 31
0.0
  0
LINE
  5
3E8
330
22
100
AcDbEntity
  8
_4-7_
  6
Continuous
 62
     7
100
AcDbLine
 10
813.6656779735764
 20
1201.30859175847
 30
0.0
 11
813.6820901114296
 21
1201.316840519751
 31
0.0
  0
LINE
  5
3E9
330
22
100
AcDbEntity
  8
_4-7_
  6
Continuous
 62
     7
100
AcDbLine
 10
813.6820901114296
 20
1201.316840519751
 30
0.0
 11
813.6820905124444
 21
1201.316840765074
 31
0.0
  0
LINE
  5
3EA
330
22
100
AcDbEntity
  8
_4-7_
  6
Continuous
 62
     7
100
AcDbLine
 10
812.5355689504038
 20
1201.448357261897
 30
0.0
 11
812.5355689504038
 21
1201.448357261897
 31
0.0
  0
LINE
  5
3EB
330
22
100
AcDbEntity
  8
_4-7_
  6
Continuous
 62
     7
100
AcDbLine
 10
812.5355689504038
 20
1201.448357261897
 30
0.0
 11
812.543389919316
 21
1201.426780244188
 31
0.0
  0
LINE
  5
3EC
330
22
100
AcDbEntity
  8
_4-7_
  6
Continuous
 62
     7
100
AcDbLine
 10
812.543389919316
 20
1201.426780244188
 30
0.0
 11
812.5552113698022
 21
1201.406766320217
 31
0.0
  0
LINE
  5
3ED
330
22
100
AcDbEntity
  8
_4-7_
  6
Continuous
 62
     7
100
AcDbLine
 10
812.5552113698022
 20
1201.406766320217
 30
0.0
 11
812.5706741130718
 21
1201.388923602938
 31
0.0
  0
LINE
  5
3EE
330
22
100
AcDbEntity
  8
_4-7_
  6
Continuous
 62
     7
100
AcDbLine
 10
812.5706741130718
 20
1201.388923602938
 30
0.0
 11
812.589308321495
 21
1201.373794234285
 31
0.0
  0
LINE
  5
3EF
330
22
100
AcDbEntity
  8
_4-7_
  6
Continuous
 62
     7
100
AcDbLine
 10
812.589308321495
 20
1201.373794234285
 30
0.0
 11
812.6105478040782
 21
1201.361837912469
 31
0.0
  0
LINE
  5
3F0
330
22
100
AcDbEntity
  8
_4-7_
  6
Continuous
 62
     7
100
AcDbLine
 10
812.6105478040782
 20
1201.361837912469
 30
0.0
 11
812.633747209891
 21
1201.353417924279
 31
0.0
  0
LINE
  5
3F1
330
22
100
AcDbEntity
  8
_4-7_
  6
Continuous
 62
     7
100
AcDbLine
 10
812.633747209891
 20
1201.353417924279
 30
0.0
 11
812.6582016367272
 21
1201.348790106794
 31
0.0
  0
LINE
  5
3F2
330
22
100
AcDbEntity
  8
_4-7_
  6
Continuous
 62
     7
100
AcDbLine
 10
812.6582016367272
 20
1201.348790106794
 30
0.0
 11
812.6831680492015
 21
1201.348095073909
 31
0.0
  0
LINE
  5
3F3
330
22
100
AcDbEntity
  8
_4-7_
  6
Continuous
 62
     7
100
AcDbLine
 10
812.6831680492015
 20
1201.348095073909
 30
0.0
 11
812.6901742134663
 21
1201.348613668322
 31
0.0
  0
LINE
  5
3F4
330
22
100
AcDbEntity
  8
_4-7_
  6
Continuous
 62
     7
100
AcDbLine
 10
811.5564022843404
 20
1201.448357261897
 30
0.0
 11
811.5564022843404
 21
1201.448357261897
 31
0.0
  0
LINE
  5
3F5
330
22
100
AcDbEntity
  8
_4-7_
  6
Continuous
 62
     7
100
AcDbLine
 10
811.5564022843404
 20
1201.448357261897
 30
0.0
 11
811.5642232532524
 21
1201.426780244188
 31
0.0
  0
LINE
  5
3F6
330
22
100
AcDbEntity
  8
_4-7_
  6
Continuous
 62
     7
100
AcDbLine
 10
811.5642232532524
 20
1201.426780244188
 30
0.0
 11
811.5760447037386
 21
1201.406766320217
 31
0.0
  0
LINE
  5
3F7
330
22
100
AcDbEntity
  8
_4-7_
  6
Continuous
 62
     7
100
AcDbLine
 10
811.5760447037386
 20
1201.406766320217
 30
0.0
 11
811.5915074470082
 21
1201.388923602938
 31
0.0
  0
LINE
  5
3F8
330
22
100
AcDbEntity
  8
_4-7_
  6
Continuous
 62
     7
100
AcDbLine
 10
811.5915074470082
 20
1201.388923602938
 30
0.0
 11
811.6101416554315
 21
1201.373794234285
 31
0.0
  0
LINE
  5
3F9
330
22
100
AcDbEntity
  8
_4-7_
  6
Continuous
 62
     7
100
AcDbLine
 10
811.6101416554315
 20
1201.373794234285
 30
0.0
 11
811.6313811380146
 21
1201.361837912469
 31
0.0
  0
LINE
  5
3FA
330
22
100
AcDbEntity
  8
_4-7_
  6
Continuous
 62
     7
100
AcDbLine
 10
811.6313811380146
 20
1201.361837912469
 30
0.0
 11
811.6545805438276
 21
1201.353417924279
 31
0.0
  0
LINE
  5
3FB
330
22
100
AcDbEntity
  8
_4-7_
  6
Continuous
 62
     7
100
AcDbLine
 10
811.6545805438276
 20
1201.353417924279
 30
0.0
 11
811.6790349706635
 21
1201.348790106794
 31
0.0
  0
LINE
  5
3FC
330
22
100
AcDbEntity
  8
_4-7_
  6
Continuous
 62
     7
100
AcDbLine
 10
811.6790349706635
 20
1201.348790106794
 30
0.0
 11
811.7040013831378
 21
1201.348095073909
 31
0.0
  0
LINE
  5
3FD
330
22
100
AcDbEntity
  8
_4-7_
  6
Continuous
 62
     7
100
AcDbLine
 10
811.7040013831378
 20
1201.348095073909
 30
0.0
 11
811.7110075474027
 21
1201.348613668322
 31
0.0
  0
LINE
  5
3FE
330
22
100
AcDbEntity
  8
_4-7_
  6
Continuous
 62
     7
100
AcDbLine
 10
810.5772356182779
 20
1201.483974049022
 30
0.0
 11
810.5772356182779
 21
1201.483974049022
 31
0.0
  0
LINE
  5
3FF
330
22
100
AcDbEntity
  8
_4-7_
  6
Continuous
 62
     7
100
AcDbLine
 10
810.5772356182779
 20
1201.483974049022
 30
0.0
 11
810.5850565871898
 21
1201.462397031313
 31
0.0
  0
LINE
  5
400
330
22
100
AcDbEntity
  8
_4-7_
  6
Continuous
 62
     7
100
AcDbLine
 10
810.5850565871898
 20
1201.462397031313
 30
0.0
 11
810.5968780376764
 21
1201.442383107342
 31
0.0
  0
LINE
  5
401
330
22
100
AcDbEntity
  8
_4-7_
  6
Continuous
 62
     7
100
AcDbLine
 10
810.5968780376764
 20
1201.442383107342
 30
0.0
 11
810.6123407809459
 21
1201.424540390062
 31
0.0
  0
LINE
  5
402
330
22
100
AcDbEntity
  8
_4-7_
  6
Continuous
 62
     7
100
AcDbLine
 10
810.6123407809459
 20
1201.424540390062
 30
0.0
 11
810.6309749893691
 21
1201.409411021409
 31
0.0
  0
LINE
  5
403
330
22
100
AcDbEntity
  8
_4-7_
  6
Continuous
 62
     7
100
AcDbLine
 10
810.6309749893691
 20
1201.409411021409
 30
0.0
 11
810.6522144719523
 21
1201.397454699593
 31
0.0
  0
LINE
  5
404
330
22
100
AcDbEntity
  8
_4-7_
  6
Continuous
 62
     7
100
AcDbLine
 10
810.6522144719523
 20
1201.397454699593
 30
0.0
 11
810.6754138777652
 21
1201.389034711404
 31
0.0
  0
LINE
  5
405
330
22
100
AcDbEntity
  8
_4-7_
  6
Continuous
 62
     7
100
AcDbLine
 10
810.6754138777652
 20
1201.389034711404
 30
0.0
 11
810.6998683046013
 21
1201.384406893919
 31
0.0
  0
LINE
  5
406
330
22
100
AcDbEntity
  8
_4-7_
  6
Continuous
 62
     7
100
AcDbLine
 10
810.6998683046013
 20
1201.384406893919
 30
0.0
 11
810.7248347170754
 21
1201.383711861034
 31
0.0
  0
LINE
  5
407
330
22
100
AcDbEntity
  8
_4-7_
  6
Continuous
 62
     7
100
AcDbLine
 10
810.7248347170754
 20
1201.383711861034
 30
0.0
 11
810.7318408813405
 21
1201.384230455447
 31
0.0
  0
LINE
  5
408
330
22
100
AcDbEntity
  8
_4-7_
  6
Continuous
 62
     7
100
AcDbLine
 10
808.6189022861532
 20
1201.448357261897
 30
0.0
 11
808.6189022861532
 21
1201.448357261897
 31
0.0
  0
LINE
  5
409
330
22
100
AcDbEntity
  8
_4-7_
  6
Continuous
 62
     7
100
AcDbLine
 10
808.6189022861532
 20
1201.448357261897
 30
0.0
 11
808.6267232550651
 21
1201.426780244188
 31
0.0
  0
LINE
  5
40A
330
22
100
AcDbEntity
  8
_4-7_
  6
Continuous
 62
     7
100
AcDbLine
 10
808.6267232550651
 20
1201.426780244188
 30
0.0
 11
808.6385447055514
 21
1201.406766320217
 31
0.0
  0
LINE
  5
40B
330
22
100
AcDbEntity
  8
_4-7_
  6
Continuous
 62
     7
100
AcDbLine
 10
808.6385447055514
 20
1201.406766320217
 30
0.0
 11
808.654007448821
 21
1201.388923602938
 31
0.0
  0
LINE
  5
40C
330
22
100
AcDbEntity
  8
_4-7_
  6
Continuous
 62
     7
100
AcDbLine
 10
808.654007448821
 20
1201.388923602938
 30
0.0
 11
808.6726416572444
 21
1201.373794234285
 31
0.0
  0
LINE
  5
40D
330
22
100
AcDbEntity
  8
_4-7_
  6
Continuous
 62
     7
100
AcDbLine
 10
808.6726416572444
 20
1201.373794234285
 30
0.0
 11
808.6938811398276
 21
1201.361837912469
 31
0.0
  0
LINE
  5
40E
330
22
100
AcDbEntity
  8
_4-7_
  6
Continuous
 62
     7
100
AcDbLine
 10
808.6938811398276
 20
1201.361837912469
 30
0.0
 11
808.7170805456404
 21
1201.353417924279
 31
0.0
  0
LINE
  5
40F
330
22
100
AcDbEntity
  8
_4-7_
  6
Continuous
 62
     7
100
AcDbLine
 10
808.7170805456404
 20
1201.353417924279
 30
0.0
 11
808.7415349724764
 21
1201.348790106794
 31
0.0
  0
LINE
  5
410
330
22
100
AcDbEntity
  8
_4-7_
  6
Continuous
 62
     7
100
AcDbLine
 10
808.7415349724764
 20
1201.348790106794
 30
0.0
 11
808.7665013849507
 21
1201.348095073909
 31
0.0
  0
LINE
  5
411
330
22
100
AcDbEntity
  8
_4-7_
  6
Continuous
 62
     7
100
AcDbLine
 10
808.7665013849507
 20
1201.348095073909
 30
0.0
 11
808.7735075492156
 21
1201.348613668322
 31
0.0
  0
LINE
  5
412
330
22
100
AcDbEntity
  8
_4-7_
  6
Continuous
 62
     7
100
AcDbLine
 10
807.639735620091
 20
1201.448357261897
 30
0.0
 11
807.639735620091
 21
1201.448357261897
 31
0.0
  0
LINE
  5
413
330
22
100
AcDbEntity
  8
_4-7_
  6
Continuous
 62
     7
100
AcDbLine
 10
807.639735620091
 20
1201.448357261897
 30
0.0
 11
807.6475565890026
 21
1201.426780244188
 31
0.0
  0
LINE
  5
414
330
22
100
AcDbEntity
  8
_4-7_
  6
Continuous
 62
     7
100
AcDbLine
 10
807.6475565890026
 20
1201.426780244188
 30
0.0
 11
807.6593780394892
 21
1201.406766320217
 31
0.0
  0
LINE
  5
415
330
22
100
AcDbEntity
  8
_4-7_
  6
Continuous
 62
     7
100
AcDbLine
 10
807.6593780394892
 20
1201.406766320217
 30
0.0
 11
807.6748407827588
 21
1201.388923602938
 31
0.0
  0
LINE
  5
416
330
22
100
AcDbEntity
  8
_4-7_
  6
Continuous
 62
     7
100
AcDbLine
 10
807.6748407827588
 20
1201.388923602938
 30
0.0
 11
807.6934749911821
 21
1201.373794234285
 31
0.0
  0
LINE
  5
417
330
22
100
AcDbEntity
  8
_4-7_
  6
Continuous
 62
     7
100
AcDbLine
 10
807.6934749911821
 20
1201.373794234285
 30
0.0
 11
807.7147144737653
 21
1201.361837912469
 31
0.0
  0
LINE
  5
418
330
22
100
AcDbEntity
  8
_4-7_
  6
Continuous
 62
     7
100
AcDbLine
 10
807.7147144737653
 20
1201.361837912469
 30
0.0
 11
807.7379138795778
 21
1201.353417924279
 31
0.0
  0
LINE
  5
419
330
22
100
AcDbEntity
  8
_4-7_
  6
Continuous
 62
     7
100
AcDbLine
 10
807.7379138795778
 20
1201.353417924279
 30
0.0
 11
807.7623683064141
 21
1201.348790106794
 31
0.0
  0
LINE
  5
41A
330
22
100
AcDbEntity
  8
_4-7_
  6
Continuous
 62
     7
100
AcDbLine
 10
807.7623683064141
 20
1201.348790106794
 30
0.0
 11
807.7873347188884
 21
1201.348095073909
 31
0.0
  0
LINE
  5
41B
330
22
100
AcDbEntity
  8
_4-7_
  6
Continuous
 62
     7
100
AcDbLine
 10
807.7873347188884
 20
1201.348095073909
 30
0.0
 11
807.7943408831533
 21
1201.348613668322
 31
0.0
  0
LINE
  5
41C
330
22
100
AcDbEntity
  8
_4-7_
  6
Continuous
 62
     7
100
AcDbLine
 10
806.6605689540285
 20
1201.448357261897
 30
0.0
 11
806.6605689540285
 21
1201.448357261897
 31
0.0
  0
LINE
  5
41D
330
22
100
AcDbEntity
  8
_4-7_
  6
Continuous
 62
     7
100
AcDbLine
 10
806.6605689540285
 20
1201.448357261897
 30
0.0
 11
806.6683899229404
 21
1201.426780244188
 31
0.0
  0
LINE
  5
41E
330
22
100
AcDbEntity
  8
_4-7_
  6
Continuous
 62
     7
100
AcDbLine
 10
806.6683899229404
 20
1201.426780244188
 30
0.0
 11
806.6802113734267
 21
1201.406766320217
 31
0.0
  0
LINE
  5
41F
330
22
100
AcDbEntity
  8
_4-7_
  6
Continuous
 62
     7
100
AcDbLine
 10
806.6802113734267
 20
1201.406766320217
 30
0.0
 11
806.6956741166963
 21
1201.388923602938
 31
0.0
  0
LINE
  5
420
330
22
100
AcDbEntity
  8
_4-7_
  6
Continuous
 62
     7
100
AcDbLine
 10
806.6956741166963
 20
1201.388923602938
 30
0.0
 11
806.7143083251195
 21
1201.373794234285
 31
0.0
  0
LINE
  5
421
330
22
100
AcDbEntity
  8
_4-7_
  6
Continuous
 62
     7
100
AcDbLine
 10
806.7143083251195
 20
1201.373794234285
 30
0.0
 11
806.7355478077029
 21
1201.361837912469
 31
0.0
  0
LINE
  5
422
330
22
100
AcDbEntity
  8
_4-7_
  6
Continuous
 62
     7
100
AcDbLine
 10
806.7355478077029
 20
1201.361837912469
 30
0.0
 11
806.7587472135155
 21
1201.353417924279
 31
0.0
  0
LINE
  5
423
330
22
100
AcDbEntity
  8
_4-7_
  6
Continuous
 62
     7
100
AcDbLine
 10
806.7587472135155
 20
1201.353417924279
 30
0.0
 11
806.7832016403515
 21
1201.348790106794
 31
0.0
  0
LINE
  5
424
330
22
100
AcDbEntity
  8
_4-7_
  6
Continuous
 62
     7
100
AcDbLine
 10
806.7832016403515
 20
1201.348790106794
 30
0.0
 11
806.808168052826
 21
1201.348095073909
 31
0.0
  0
LINE
  5
425
330
22
100
AcDbEntity
  8
_4-7_
  6
Continuous
 62
     7
100
AcDbLine
 10
806.808168052826
 20
1201.348095073909
 30
0.0
 11
806.8151742170911
 21
1201.348613668322
 31
0.0
  0
LINE
  5
426
330
22
100
AcDbEntity
  8
_4-7_
  6
Continuous
 62
     7
100
AcDbLine
 10
805.6814022879661
 20
1201.48415699413
 30
0.0
 11
805.6814022879661
 21
1201.48415699413
 31
0.0
  0
LINE
  5
427
330
22
100
AcDbEntity
  8
_4-7_
  6
Continuous
 62
     7
100
AcDbLine
 10
805.6814022879661
 20
1201.48415699413
 30
0.0
 11
805.6892232568781
 21
1201.462579976421
 31
0.0
  0
LINE
  5
428
330
22
100
AcDbEntity
  8
_4-7_
  6
Continuous
 62
     7
100
AcDbLine
 10
805.6892232568781
 20
1201.462579976421
 30
0.0
 11
805.7010447073645
 21
1201.44256605245
 31
0.0
  0
LINE
  5
429
330
22
100
AcDbEntity
  8
_4-7_
  6
Continuous
 62
     7
100
AcDbLine
 10
805.7010447073645
 20
1201.44256605245
 30
0.0
 11
805.7165074506338
 21
1201.42472333517
 31
0.0
  0
LINE
  5
42A
330
22
100
AcDbEntity
  8
_4-7_
  6
Continuous
 62
     7
100
AcDbLine
 10
805.7165074506338
 20
1201.42472333517
 30
0.0
 11
805.7351416590572
 21
1201.409593966517
 31
0.0
  0
LINE
  5
42B
330
22
100
AcDbEntity
  8
_4-7_
  6
Continuous
 62
     7
100
AcDbLine
 10
805.7351416590572
 20
1201.409593966517
 30
0.0
 11
805.7563811416404
 21
1201.397637644702
 31
0.0
  0
LINE
  5
42C
330
22
100
AcDbEntity
  8
_4-7_
  6
Continuous
 62
     7
100
AcDbLine
 10
805.7563811416404
 20
1201.397637644702
 30
0.0
 11
805.7795805474533
 21
1201.389217656511
 31
0.0
  0
LINE
  5
42D
330
22
100
AcDbEntity
  8
_4-7_
  6
Continuous
 62
     7
100
AcDbLine
 10
805.7795805474533
 20
1201.389217656511
 30
0.0
 11
805.8040349742892
 21
1201.384589839027
 31
0.0
  0
LINE
  5
42E
330
22
100
AcDbEntity
  8
_4-7_
  6
Continuous
 62
     7
100
AcDbLine
 10
805.8040349742892
 20
1201.384589839027
 30
0.0
 11
805.8290013867635
 21
1201.383894806142
 31
0.0
  0
LINE
  5
42F
330
22
100
AcDbEntity
  8
_4-7_
  6
Continuous
 62
     7
100
AcDbLine
 10
805.8290013867635
 20
1201.383894806142
 30
0.0
 11
805.8360075510286
 21
1201.384413400555
 31
0.0
  0
LINE
  5
430
330
22
100
AcDbEntity
  8
_4-7_
  6
Continuous
 62
     7
100
AcDbLine
 10
803.7230689558411
 20
1201.448357261897
 30
0.0
 11
803.7230689558411
 21
1201.448357261897
 31
0.0
  0
LINE
  5
431
330
22
100
AcDbEntity
  8
_4-7_
  6
Continuous
 62
     7
100
AcDbLine
 10
803.7230689558411
 20
1201.448357261897
 30
0.0
 11
803.7308899247532
 21
1201.426780244188
 31
0.0
  0
LINE
  5
432
330
22
100
AcDbEntity
  8
_4-7_
  6
Continuous
 62
     7
100
AcDbLine
 10
803.7308899247532
 20
1201.426780244188
 30
0.0
 11
803.7427113752395
 21
1201.406766320217
 31
0.0
  0
LINE
  5
433
330
22
100
AcDbEntity
  8
_4-7_
  6
Continuous
 62
     7
100
AcDbLine
 10
803.7427113752395
 20
1201.406766320217
 30
0.0
 11
803.7581741185089
 21
1201.388923602938
 31
0.0
  0
LINE
  5
434
330
22
100
AcDbEntity
  8
_4-7_
  6
Continuous
 62
     7
100
AcDbLine
 10
803.7581741185089
 20
1201.388923602938
 30
0.0
 11
803.7768083269325
 21
1201.373794234285
 31
0.0
  0
LINE
  5
435
330
22
100
AcDbEntity
  8
_4-7_
  6
Continuous
 62
     7
100
AcDbLine
 10
803.7768083269325
 20
1201.373794234285
 30
0.0
 11
803.7980478095157
 21
1201.361837912469
 31
0.0
  0
LINE
  5
436
330
22
100
AcDbEntity
  8
_4-7_
  6
Continuous
 62
     7
100
AcDbLine
 10
803.7980478095157
 20
1201.361837912469
 30
0.0
 11
803.8212472153285
 21
1201.353417924279
 31
0.0
  0
LINE
  5
437
330
22
100
AcDbEntity
  8
_4-7_
  6
Continuous
 62
     7
100
AcDbLine
 10
803.8212472153285
 20
1201.353417924279
 30
0.0
 11
803.8457016421645
 21
1201.348790106794
 31
0.0
  0
LINE
  5
438
330
22
100
AcDbEntity
  8
_4-7_
  6
Continuous
 62
     7
100
AcDbLine
 10
803.8457016421645
 20
1201.348790106794
 30
0.0
 11
803.8706680546388
 21
1201.348095073909
 31
0.0
  0
LINE
  5
439
330
22
100
AcDbEntity
  8
_4-7_
  6
Continuous
 62
     7
100
AcDbLine
 10
803.8706680546388
 20
1201.348095073909
 30
0.0
 11
803.8776742189039
 21
1201.348613668322
 31
0.0
  0
LINE
  5
43A
330
22
100
AcDbEntity
  8
_4-7_
  6
Continuous
 62
     7
100
AcDbLine
 10
802.7439022897777
 20
1201.46853229383
 30
0.0
 11
802.7439022897777
 21
1201.46853229383
 31
0.0
  0
LINE
  5
43B
330
22
100
AcDbEntity
  8
_4-7_
  6
Continuous
 62
     7
100
AcDbLine
 10
802.7439022897777
 20
1201.46853229383
 30
0.0
 11
802.7517232586896
 21
1201.446955276121
 31
0.0
  0
LINE
  5
43C
330
22
100
AcDbEntity
  8
_4-7_
  6
Continuous
 62
     7
100
AcDbLine
 10
802.7517232586896
 20
1201.446955276121
 30
0.0
 11
802.7635447091761
 21
1201.42694135215
 31
0.0
  0
LINE
  5
43D
330
22
100
AcDbEntity
  8
_4-7_
  6
Continuous
 62
     7
100
AcDbLine
 10
802.7635447091761
 20
1201.42694135215
 30
0.0
 11
802.7790074524457
 21
1201.409098634871
 31
0.0
  0
LINE
  5
43E
330
22
100
AcDbEntity
  8
_4-7_
  6
Continuous
 62
     7
100
AcDbLine
 10
802.7790074524457
 20
1201.409098634871
 30
0.0
 11
802.7976416608691
 21
1201.393969266218
 31
0.0
  0
LINE
  5
43F
330
22
100
AcDbEntity
  8
_4-7_
  6
Continuous
 62
     7
100
AcDbLine
 10
802.7976416608691
 20
1201.393969266218
 30
0.0
 11
802.8188811434521
 21
1201.382012944402
 31
0.0
  0
LINE
  5
440
330
22
100
AcDbEntity
  8
_4-7_
  6
Continuous
 62
     7
100
AcDbLine
 10
802.8188811434521
 20
1201.382012944402
 30
0.0
 11
802.842080549265
 21
1201.373592956212
 31
0.0
  0
LINE
  5
441
330
22
100
AcDbEntity
  8
_4-7_
  6
Continuous
 62
     7
100
AcDbLine
 10
802.842080549265
 20
1201.373592956212
 30
0.0
 11
802.8665349761011
 21
1201.368965138728
 31
0.0
  0
LINE
  5
442
330
22
100
AcDbEntity
  8
_4-7_
  6
Continuous
 62
     7
100
AcDbLine
 10
802.8665349761011
 20
1201.368965138728
 30
0.0
 11
802.8915013885754
 21
1201.368270105842
 31
0.0
  0
LINE
  5
443
330
22
100
AcDbEntity
  8
_4-7_
  6
Continuous
 62
     7
100
AcDbLine
 10
802.8915013885754
 20
1201.368270105842
 30
0.0
 11
802.8985075528405
 21
1201.368788700255
 31
0.0
  0
LINE
  5
444
330
22
100
AcDbEntity
  8
_4-7_
  6
Continuous
 62
     7
100
AcDbLine
 10
801.7647356237153
 20
1201.488596639335
 30
0.0
 11
801.7647356237153
 21
1201.488596639335
 31
0.0
  0
LINE
  5
445
330
22
100
AcDbEntity
  8
_4-7_
  6
Continuous
 62
     7
100
AcDbLine
 10
801.7647356237153
 20
1201.488596639335
 30
0.0
 11
801.7725565926275
 21
1201.467019621626
 31
0.0
  0
LINE
  5
446
330
22
100
AcDbEntity
  8
_4-7_
  6
Continuous
 62
     7
100
AcDbLine
 10
801.7725565926275
 20
1201.467019621626
 30
0.0
 11
801.7843780431137
 21
1201.447005697655
 31
0.0
  0
LINE
  5
447
330
22
100
AcDbEntity
  8
_4-7_
  6
Continuous
 62
     7
100
AcDbLine
 10
801.7843780431137
 20
1201.447005697655
 30
0.0
 11
801.7998407863833
 21
1201.429162980376
 31
0.0
  0
LINE
  5
448
330
22
100
AcDbEntity
  8
_4-7_
  6
Continuous
 62
     7
100
AcDbLine
 10
801.7998407863833
 20
1201.429162980376
 30
0.0
 11
801.8184749948067
 21
1201.414033611723
 31
0.0
  0
LINE
  5
449
330
22
100
AcDbEntity
  8
_4-7_
  6
Continuous
 62
     7
100
AcDbLine
 10
801.8184749948067
 20
1201.414033611723
 30
0.0
 11
801.8397144773896
 21
1201.402077289907
 31
0.0
  0
LINE
  5
44A
330
22
100
AcDbEntity
  8
_4-7_
  6
Continuous
 62
     7
100
AcDbLine
 10
801.8397144773896
 20
1201.402077289907
 30
0.0
 11
801.8629138832025
 21
1201.393657301717
 31
0.0
  0
LINE
  5
44B
330
22
100
AcDbEntity
  8
_4-7_
  6
Continuous
 62
     7
100
AcDbLine
 10
801.8629138832025
 20
1201.393657301717
 30
0.0
 11
801.8873683100386
 21
1201.389029484233
 31
0.0
  0
LINE
  5
44C
330
22
100
AcDbEntity
  8
_4-7_
  6
Continuous
 62
     7
100
AcDbLine
 10
801.8873683100386
 20
1201.389029484233
 30
0.0
 11
801.9123347225129
 21
1201.388334451347
 31
0.0
  0
LINE
  5
44D
330
22
100
AcDbEntity
  8
_4-7_
  6
Continuous
 62
     7
100
AcDbLine
 10
801.9123347225129
 20
1201.388334451347
 30
0.0
 11
801.9193408867778
 21
1201.38885304576
 31
0.0
  0
LINE
  5
44E
330
22
100
AcDbEntity
  8
_4-7_
  6
Continuous
 62
     7
100
AcDbLine
 10
800.785568957654
 20
1201.502543471229
 30
0.0
 11
800.785568957654
 21
1201.502543471229
 31
0.0
  0
LINE
  5
44F
330
22
100
AcDbEntity
  8
_4-7_
  6
Continuous
 62
     7
100
AcDbLine
 10
800.785568957654
 20
1201.502543471229
 30
0.0
 11
800.7933899265662
 21
1201.480966453519
 31
0.0
  0
LINE
  5
450
330
22
100
AcDbEntity
  8
_4-7_
  6
Continuous
 62
     7
100
AcDbLine
 10
800.7933899265662
 20
1201.480966453519
 30
0.0
 11
800.8052113770524
 21
1201.460952529549
 31
0.0
  0
LINE
  5
451
330
22
100
AcDbEntity
  8
_4-7_
  6
Continuous
 62
     7
100
AcDbLine
 10
800.8052113770524
 20
1201.460952529549
 30
0.0
 11
800.820674120322
 21
1201.443109812269
 31
0.0
  0
LINE
  5
452
330
22
100
AcDbEntity
  8
_4-7_
  6
Continuous
 62
     7
100
AcDbLine
 10
800.820674120322
 20
1201.443109812269
 30
0.0
 11
800.8393083287453
 21
1201.427980443616
 31
0.0
  0
LINE
  5
453
330
22
100
AcDbEntity
  8
_4-7_
  6
Continuous
 62
     7
100
AcDbLine
 10
800.8393083287453
 20
1201.427980443616
 30
0.0
 11
800.8605478113286
 21
1201.4160241218
 31
0.0
  0
LINE
  5
454
330
22
100
AcDbEntity
  8
_4-7_
  6
Continuous
 62
     7
100
AcDbLine
 10
800.8605478113286
 20
1201.4160241218
 30
0.0
 11
800.8837472171416
 21
1201.40760413361
 31
0.0
  0
LINE
  5
455
330
22
100
AcDbEntity
  8
_4-7_
  6
Continuous
 62
     7
100
AcDbLine
 10
800.8837472171416
 20
1201.40760413361
 30
0.0
 11
800.9082016439773
 21
1201.402976316126
 31
0.0
  0
LINE
  5
456
330
22
100
AcDbEntity
  8
_4-7_
  6
Continuous
 62
     7
100
AcDbLine
 10
800.9082016439773
 20
1201.402976316126
 30
0.0
 11
800.9331680564516
 21
1201.402281283241
 31
0.0
  0
LINE
  5
457
330
22
100
AcDbEntity
  8
_4-7_
  6
Continuous
 62
     7
100
AcDbLine
 10
800.9331680564516
 20
1201.402281283241
 30
0.0
 11
800.9401742207167
 21
1201.402799877653
 31
0.0
  0
LINE
  5
458
330
22
100
AcDbEntity
  8
_4-7_
  6
Continuous
 62
     7
100
AcDbLine
 10
799.806402291591
 20
1201.496803980647
 30
0.0
 11
799.806402291591
 21
1201.496803980647
 31
0.0
  0
LINE
  5
459
330
22
100
AcDbEntity
  8
_4-7_
  6
Continuous
 62
     7
100
AcDbLine
 10
799.806402291591
 20
1201.496803980647
 30
0.0
 11
799.8095871783714
 21
1201.479837770685
 31
0.0
  0
LINE
  5
45A
330
22
100
AcDbEntity
  8
_4-7_
  6
Continuous
 62
     7
100
AcDbLine
 10
799.8095871783714
 20
1201.479837770685
 30
0.0
 11
799.8159627232537
 21
1201.46363235554
 31
0.0
  0
LINE
  5
45B
330
22
100
AcDbEntity
  8
_4-7_
  6
Continuous
 62
     7
100
AcDbLine
 10
799.8159627232537
 20
1201.46363235554
 30
0.0
 11
799.8253352085327
 21
1201.448680128551
 31
0.0
  0
LINE
  5
45C
330
22
100
AcDbEntity
  8
_4-7_
  6
Continuous
 62
     7
100
AcDbLine
 10
799.8253352085327
 20
1201.448680128551
 30
0.0
 11
799.8374198559859
 21
1201.435435405569
 31
0.0
  0
LINE
  5
45D
330
22
100
AcDbEntity
  8
_4-7_
  6
Continuous
 62
     7
100
AcDbLine
 10
799.8374198559859
 20
1201.435435405569
 30
0.0
 11
799.8518494797155
 21
1201.424300620799
 31
0.0
  0
LINE
  5
45E
330
22
100
AcDbEntity
  8
_4-7_
  6
Continuous
 62
     7
100
AcDbLine
 10
799.8518494797155
 20
1201.424300620799
 30
0.0
 11
799.8681856429064
 21
1201.415614099042
 31
0.0
  0
LINE
  5
45F
330
22
100
AcDbEntity
  8
_4-7_
  6
Continuous
 62
     7
100
AcDbLine
 10
799.8681856429064
 20
1201.415614099042
 30
0.0
 11
799.8859319795065
 21
1201.409639775866
 31
0.0
  0
LINE
  5
460
330
22
100
AcDbEntity
  8
_4-7_
  6
Continuous
 62
     7
100
AcDbLine
 10
799.8859319795065
 20
1201.409639775866
 30
0.0
 11
799.9045492760582
 21
1201.406559178058
 31
0.0
  0
LINE
  5
461
330
22
100
AcDbEntity
  8
_4-7_
  6
Continuous
 62
     7
100
AcDbLine
 10
799.9045492760582
 20
1201.406559178058
 30
0.0
 11
799.9234718554264
 21
1201.406465908023
 31
0.0
  0
LINE
  5
462
330
22
100
AcDbEntity
  8
_4-7_
  6
Continuous
 62
     7
100
AcDbLine
 10
799.9234718554264
 20
1201.406465908023
 30
0.0
 11
799.942124764613
 21
1201.409362799724
 31
0.0
  0
LINE
  5
463
330
22
100
AcDbEntity
  8
_4-7_
  6
Continuous
 62
     7
100
AcDbLine
 10
799.942124764613
 20
1201.409362799724
 30
0.0
 11
799.9599412444104
 21
1201.415161832573
 31
0.0
  0
LINE
  5
464
330
22
100
AcDbEntity
  8
_4-7_
  6
Continuous
 62
     7
100
AcDbLine
 10
799.9599412444104
 20
1201.415161832573
 30
0.0
 11
799.9763799500958
 21
1201.42368680589
 31
0.0
  0
LINE
  5
465
330
22
100
AcDbEntity
  8
_4-7_
  6
Continuous
 62
     7
100
AcDbLine
 10
799.9763799500958
 20
1201.42368680589
 30
0.0
 11
799.9764627552596
 21
1201.423738989488
 31
0.0
  0
LINE
  5
466
330
22
100
AcDbEntity
  8
_4-7_
  6
Continuous
 62
     7
100
AcDbLine
 10
804.7022356219036
 20
1201.686246949396
 30
0.0
 11
804.7022356219036
 21
1201.686246949396
 31
0.0
  0
LINE
  5
467
330
22
100
AcDbEntity
  8
_4-7_
  6
Continuous
 62
     7
100
AcDbLine
 10
804.7022356219036
 20
1201.686246949396
 30
0.0
 11
804.7098980948083
 21
1201.63354330515
 31
0.0
  0
LINE
  5
468
330
22
100
AcDbEntity
  8
_4-7_
  6
Continuous
 62
     7
100
AcDbLine
 10
804.7098980948083
 20
1201.63354330515
 30
0.0
 11
804.7275058865004
 21
1201.582850604239
 31
0.0
  0
LINE
  5
469
330
22
100
AcDbEntity
  8
_4-7_
  6
Continuous
 62
     7
100
AcDbLine
 10
804.7275058865004
 20
1201.582850604239
 30
0.0
 11
804.7545239931388
 21
1201.535709118727
 31
0.0
  0
LINE
  5
46A
330
22
100
AcDbEntity
  8
_4-7_
  6
Continuous
 62
     7
100
AcDbLine
 10
804.7545239931388
 20
1201.535709118727
 30
0.0
 11
804.7901314832255
 21
1201.493551218799
 31
0.0
  0
LINE
  5
46B
330
22
100
AcDbEntity
  8
_4-7_
  6
Continuous
 62
     7
100
AcDbLine
 10
804.7901314832255
 20
1201.493551218799
 30
0.0
 11
804.833246441192
 21
1201.457657850909
 31
0.0
  0
LINE
  5
46C
330
22
100
AcDbEntity
  8
_4-7_
  6
Continuous
 62
     7
100
AcDbLine
 10
804.833246441192
 20
1201.457657850909
 30
0.0
 11
804.8825588408583
 21
1201.429119616879
 31
0.0
  0
LINE
  5
46D
330
22
100
AcDbEntity
  8
_4-7_
  6
Continuous
 62
     7
100
AcDbLine
 10
804.8825588408583
 20
1201.429119616879
 30
0.0
 11
804.936570349913
 21
1201.408803636508
 31
0.0
  0
LINE
  5
46E
330
22
100
AcDbEntity
  8
_4-7_
  6
Continuous
 62
     7
100
AcDbLine
 10
804.936570349913
 20
1201.408803636508
 30
0.0
 11
804.9936398559859
 21
1201.39732720058
 31
0.0
  0
LINE
  5
46F
330
22
100
AcDbEntity
  8
_4-7_
  6
Continuous
 62
     7
100
AcDbLine
 10
804.9936398559859
 20
1201.39732720058
 30
0.0
 11
805.0520333310126
 21
1201.395039014793
 31
0.0
  0
LINE
  5
470
330
22
100
AcDbEntity
  8
_4-7_
  6
Continuous
 62
     7
100
AcDbLine
 10
805.0520333310126
 20
1201.395039014793
 30
0.0
 11
805.1099765188029
 21
1201.402008604514
 31
0.0
  0
LINE
  5
471
330
22
100
AcDbEntity
  8
_4-7_
  6
Continuous
 62
     7
100
AcDbLine
 10
805.1099765188029
 20
1201.402008604514
 30
0.0
 11
805.1657088449166
 21
1201.418024202286
 31
0.0
  0
LINE
  5
472
330
22
100
AcDbEntity
  8
_4-7_
  6
Continuous
 62
     7
100
AcDbLine
 10
805.1657088449166
 20
1201.418024202286
 30
0.0
 11
805.2175369108269
 21
1201.442599182275
 31
0.0
  0
LINE
  5
473
330
22
100
AcDbEntity
  8
_4-7_
  6
Continuous
 62
     7
100
AcDbLine
 10
805.2175369108269
 20
1201.442599182275
 30
0.0
 11
805.2638859469771
 21
1201.474986846151
 31
0.0
  0
LINE
  5
474
330
22
100
AcDbEntity
  8
_4-7_
  6
Continuous
 62
     7
100
AcDbLine
 10
805.2638859469771
 20
1201.474986846151
 30
0.0
 11
805.3033476613581
 21
1201.514203111134
 31
0.0
  0
LINE
  5
475
330
22
100
AcDbEntity
  8
_4-7_
  6
Continuous
 62
     7
100
AcDbLine
 10
805.3033476613581
 20
1201.514203111134
 30
0.0
 11
805.3347230297461
 21
1201.559056410858
 31
0.0
  0
LINE
  5
476
330
22
100
AcDbEntity
  8
_4-7_
  6
Continuous
 62
     7
100
AcDbLine
 10
805.3347230297461
 20
1201.559056410858
 30
0.0
 11
805.3570587274498
 21
1201.608183900508
 31
0.0
  0
LINE
  5
477
330
22
100
AcDbEntity
  8
_4-7_
  6
Continuous
 62
     7
100
AcDbLine
 10
805.3570587274498
 20
1201.608183900508
 30
0.0
 11
805.3696760955968
 21
1201.660092866169
 31
0.0
  0
LINE
  5
478
330
22
100
AcDbEntity
  8
_4-7_
  6
Continuous
 62
     7
100
AcDbLine
 10
805.3696760955968
 20
1201.660092866169
 30
0.0
 11
805.372191761841
 21
1201.686246949396
 31
0.0
  0
LINE
  5
479
330
22
100
AcDbEntity
  8
_4-7_
  6
Continuous
 62
     7
100
AcDbLine
 10
809.5980689522166
 20
1201.686246949396
 30
0.0
 11
809.5980689522166
 21
1201.686246949396
 31
0.0
  0
LINE
  5
47A
330
22
100
AcDbEntity
  8
_4-7_
  6
Continuous
 62
     7
100
AcDbLine
 10
809.5980689522166
 20
1201.686246949396
 30
0.0
 11
809.6057314251215
 21
1201.63354330515
 31
0.0
  0
LINE
  5
47B
330
22
100
AcDbEntity
  8
_4-7_
  6
Continuous
 62
     7
100
AcDbLine
 10
809.6057314251215
 20
1201.63354330515
 30
0.0
 11
809.6233392168135
 21
1201.582850604239
 31
0.0
  0
LINE
  5
47C
330
22
100
AcDbEntity
  8
_4-7_
  6
Continuous
 62
     7
100
AcDbLine
 10
809.6233392168135
 20
1201.582850604239
 30
0.0
 11
809.6503573234519
 21
1201.535709118727
 31
0.0
  0
LINE
  5
47D
330
22
100
AcDbEntity
  8
_4-7_
  6
Continuous
 62
     7
100
AcDbLine
 10
809.6503573234519
 20
1201.535709118727
 30
0.0
 11
809.6859648135385
 21
1201.493551218799
 31
0.0
  0
LINE
  5
47E
330
22
100
AcDbEntity
  8
_4-7_
  6
Continuous
 62
     7
100
AcDbLine
 10
809.6859648135385
 20
1201.493551218799
 30
0.0
 11
809.729079771505
 21
1201.457657850909
 31
0.0
  0
LINE
  5
47F
330
22
100
AcDbEntity
  8
_4-7_
  6
Continuous
 62
     7
100
AcDbLine
 10
809.729079771505
 20
1201.457657850909
 30
0.0
 11
809.7783921711712
 21
1201.429119616879
 31
0.0
  0
LINE
  5
480
330
22
100
AcDbEntity
  8
_4-7_
  6
Continuous
 62
     7
100
AcDbLine
 10
809.7783921711712
 20
1201.429119616879
 30
0.0
 11
809.8324036802264
 21
1201.408803636508
 31
0.0
  0
LINE
  5
481
330
22
100
AcDbEntity
  8
_4-7_
  6
Continuous
 62
     7
100
AcDbLine
 10
809.8324036802264
 20
1201.408803636508
 30
0.0
 11
809.8894731862991
 21
1201.39732720058
 31
0.0
  0
LINE
  5
482
330
22
100
AcDbEntity
  8
_4-7_
  6
Continuous
 62
     7
100
AcDbLine
 10
809.8894731862991
 20
1201.39732720058
 30
0.0
 11
809.9478666613254
 21
1201.395039014793
 31
0.0
  0
LINE
  5
483
330
22
100
AcDbEntity
  8
_4-7_
  6
Continuous
 62
     7
100
AcDbLine
 10
809.9478666613254
 20
1201.395039014793
 30
0.0
 11
810.0058098491158
 21
1201.402008604514
 31
0.0
  0
LINE
  5
484
330
22
100
AcDbEntity
  8
_4-7_
  6
Continuous
 62
     7
100
AcDbLine
 10
810.0058098491158
 20
1201.402008604514
 30
0.0
 11
810.0615421752298
 21
1201.418024202286
 31
0.0
  0
LINE
  5
485
330
22
100
AcDbEntity
  8
_4-7_
  6
Continuous
 62
     7
100
AcDbLine
 10
810.0615421752298
 20
1201.418024202286
 30
0.0
 11
810.1133702411399
 21
1201.442599182275
 31
0.0
  0
LINE
  5
486
330
22
100
AcDbEntity
  8
_4-7_
  6
Continuous
 62
     7
100
AcDbLine
 10
810.1133702411399
 20
1201.442599182275
 30
0.0
 11
810.1597192772901
 21
1201.474986846151
 31
0.0
  0
LINE
  5
487
330
22
100
AcDbEntity
  8
_4-7_
  6
Continuous
 62
     7
100
AcDbLine
 10
810.1597192772901
 20
1201.474986846151
 30
0.0
 11
810.1991809916709
 21
1201.514203111134
 31
0.0
  0
LINE
  5
488
330
22
100
AcDbEntity
  8
_4-7_
  6
Continuous
 62
     7
100
AcDbLine
 10
810.1991809916709
 20
1201.514203111134
 30
0.0
 11
810.2305563600591
 21
1201.559056410858
 31
0.0
  0
LINE
  5
489
330
22
100
AcDbEntity
  8
_4-7_
  6
Continuous
 62
     7
100
AcDbLine
 10
810.2305563600591
 20
1201.559056410858
 30
0.0
 11
810.2528920577629
 21
1201.608183900508
 31
0.0
  0
LINE
  5
48A
330
22
100
AcDbEntity
  8
_4-7_
  6
Continuous
 62
     7
100
AcDbLine
 10
810.2528920577629
 20
1201.608183900508
 30
0.0
 11
810.2655094259102
 21
1201.660092866169
 31
0.0
  0
LINE
  5
48B
330
22
100
AcDbEntity
  8
_4-7_
  6
Continuous
 62
     7
100
AcDbLine
 10
810.2655094259102
 20
1201.660092866169
 30
0.0
 11
810.2680250921542
 21
1201.686246949396
 31
0.0
  0
LINE
  5
48C
330
22
100
AcDbEntity
  8
_4-7_
  6
Continuous
 62
     7
100
AcDbLine
 10
798.1057443979033
 20
1201.451564359466
 30
0.0
 11
798.1057443979033
 21
1201.451564359466
 31
0.0
  0
LINE
  5
48D
330
22
100
AcDbEntity
  8
_4-7_
  6
Continuous
 62
     7
100
AcDbLine
 10
798.1057443979033
 20
1201.451564359466
 30
0.0
 11
798.1927791616002
 21
1201.454941812232
 31
0.0
  0
LINE
  5
48E
330
22
100
AcDbEntity
  8
_4-7_
  6
Continuous
 62
     7
100
AcDbLine
 10
798.1927791616002
 20
1201.454941812232
 30
0.0
 11
798.277846877277
 21
1201.472014742244
 31
0.0
  0
LINE
  5
48F
330
22
100
AcDbEntity
  8
_4-7_
  6
Continuous
 62
     7
100
AcDbLine
 10
798.277846877277
 20
1201.472014742244
 30
0.0
 11
798.3118847486531
 21
1201.482986442646
 31
0.0
  0
LINE
  5
490
330
22
100
AcDbEntity
  8
_4-7_
  6
Continuous
 62
     7
100
AcDbLine
 10
796.8561647369328
 20
1200.769748355647
 30
0.0
 11
796.8561647369328
 21
1200.769748355647
 31
0.0
  0
LINE
  5
491
330
22
100
AcDbEntity
  8
_4-7_
  6
Continuous
 62
     7
100
AcDbLine
 10
796.8561647369328
 20
1200.769748355647
 30
0.0
 11
796.8910648585229
 21
1200.771511996168
 31
0.0
  0
LINE
  5
492
330
22
100
AcDbEntity
  8
_4-7_
  6
Continuous
 62
     7
100
AcDbLine
 10
796.8910648585229
 20
1200.771511996168
 30
0.0
 11
796.9250980696824
 21
1200.778761175848
 31
0.0
  0
LINE
  5
493
330
22
100
AcDbEntity
  8
_4-7_
  6
Continuous
 62
     7
100
AcDbLine
 10
796.9250980696824
 20
1200.778761175848
 30
0.0
 11
796.9572302885126
 21
1200.791275632032
 31
0.0
  0
LINE
  5
494
330
22
100
AcDbEntity
  8
_4-7_
  6
Continuous
 62
     7
100
AcDbLine
 10
796.9572302885126
 20
1200.791275632032
 30
0.0
 11
796.9864851938035
 21
1200.808675119302
 31
0.0
  0
LINE
  5
495
330
22
100
AcDbEntity
  8
_4-7_
  6
Continuous
 62
     7
100
AcDbLine
 10
796.9864851938035
 20
1200.808675119302
 30
0.0
 11
797.0119738900615
 21
1200.83043096304
 31
0.0
  0
LINE
  5
496
330
22
100
AcDbEntity
  8
_4-7_
  6
Continuous
 62
     7
100
AcDbLine
 10
797.0119738900615
 20
1200.83043096304
 30
0.0
 11
797.032921916149
 21
1200.855882122945
 31
0.0
  0
LINE
  5
497
330
22
100
AcDbEntity
  8
_4-7_
  6
Continuous
 62
     7
100
AcDbLine
 10
797.032921916149
 20
1200.855882122945
 30
0.0
 11
797.0486927768932
 21
1200.8842552784
 31
0.0
  0
LINE
  5
498
330
22
100
AcDbEntity
  8
_4-7_
  6
Continuous
 62
     7
100
AcDbLine
 10
797.0486927768932
 20
1200.8842552784
 30
0.0
 11
797.0588072826711
 21
1200.914688325436
 31
0.0
  0
LINE
  5
499
330
22
100
AcDbEntity
  8
_4-7_
  6
Continuous
 62
     7
100
AcDbLine
 10
797.0588072826711
 20
1200.914688325436
 30
0.0
 11
797.0629581093428
 21
1200.946256571318
 31
0.0
  0
LINE
  5
49A
330
22
100
AcDbEntity
  8
_4-7_
  6
Continuous
 62
     7
100
AcDbLine
 10
797.0629581093428
 20
1200.946256571318
 30
0.0
 11
797.0610191361401
 21
1200.978000830869
 31
0.0
  0
LINE
  5
49B
330
22
100
AcDbEntity
  8
_4-7_
  6
Continuous
 62
     7
100
AcDbLine
 10
797.0610191361401
 20
1200.978000830869
 30
0.0
 11
797.0530492777827
 21
1201.008956570826
 31
0.0
  0
LINE
  5
49C
330
22
100
AcDbEntity
  8
_4-7_
  6
Continuous
 62
     7
100
AcDbLine
 10
797.0530492777827
 20
1201.008956570826
 30
0.0
 11
797.0392906943841
 21
1201.038183216694
 31
0.0
  0
LINE
  5
49D
330
22
100
AcDbEntity
  8
_4-7_
  6
Continuous
 62
     7
100
AcDbLine
 10
797.0392906943841
 20
1201.038183216694
 30
0.0
 11
797.0201614335382
 21
1201.06479273163
 31
0.0
  0
LINE
  5
49E
330
22
100
AcDbEntity
  8
_4-7_
  6
Continuous
 62
     7
100
AcDbLine
 10
797.0201614335382
 20
1201.06479273163
 30
0.0
 11
796.9962427281566
 21
1201.087976598985
 31
0.0
  0
LINE
  5
49F
330
22
100
AcDbEntity
  8
_4-7_
  6
Continuous
 62
     7
100
AcDbLine
 10
796.9962427281566
 20
1201.087976598985
 30
0.0
 11
796.9682613359982
 21
1201.107030388683
 31
0.0
  0
LINE
  5
4A0
330
22
100
AcDbEntity
  8
_4-7_
  6
Continuous
 62
     7
100
AcDbLine
 10
796.9682613359982
 20
1201.107030388683
 30
0.0
 11
796.9370674575046
 21
1201.121375160964
 31
0.0
  0
LINE
  5
4A1
330
22
100
AcDbEntity
  8
_4-7_
  6
Continuous
 62
     7
100
AcDbLine
 10
796.9370674575046
 20
1201.121375160964
 30
0.0
 11
796.9036089028896
 21
1201.130575057183
 31
0.0
  0
LINE
  5
4A2
330
22
100
AcDbEntity
  8
_4-7_
  6
Continuous
 62
     7
100
AcDbLine
 10
796.9036089028896
 20
1201.130575057183
 30
0.0
 11
796.8689022934035
 21
1201.134350543147
 31
0.0
  0
LINE
  5
4A3
330
22
100
AcDbEntity
  8
_4-7_
  6
Continuous
 62
     7
100
AcDbLine
 10
796.8689022934035
 20
1201.134350543147
 30
0.0
 11
796.8689022934035
 21
1201.134350543147
 31
0.0
  0
LINE
  5
4A4
330
22
100
AcDbEntity
  8
_4-7_
  6
Continuous
 62
     7
100
AcDbLine
 10
819.973697728709
 20
559.2952691305858
 30
0.0
 11
822.5333759617784
 21
559.2952691305858
 31
0.0
  0
LINE
  5
4A5
330
22
100
AcDbEntity
  8
_4-7_
  6
Continuous
 62
     7
100
AcDbLine
 10
822.5333759617784
 20
559.2952691305858
 30
0.0
 11
822.5333759617784
 21
561.1702691305858
 31
0.0
  0
LINE
  5
4A6
330
22
100
AcDbEntity
  8
_4-7_
  6
Continuous
 62
     7
100
AcDbLine
 10
819.973697728709
 20
559.2952691305858
 30
0.0
 11
819.4583471535818
 21
558.8265191305858
 31
0.0
  0
LINE
  5
4A7
330
22
100
AcDbEntity
  8
_4-7_
  6
Continuous
 62
     7
100
AcDbLine
 10
819.4583471535818
 20
558.8265191305858
 30
0.0
 11
818.1467185741347
 21
558.8265191305858
 31
0.0
  0
LINE
  5
4A8
330
22
100
AcDbEntity
  8
_4-7_
  6
Continuous
 62
     7
100
AcDbLine
 10
818.1467185741347
 20
558.8265191305858
 30
0.0
 11
815.5732227533542
 21
559.169156161836
 31
0.0
  0
LINE
  5
4A9
330
22
100
AcDbEntity
  8
_4-7_
  6
Continuous
 62
     7
100
AcDbLine
 10
815.5732227533542
 20
559.169156161836
 30
0.0
 11
815.3184636855279
 21
559.3203585055859
 31
0.0
  0
LINE
  5
4AA
330
22
100
AcDbEntity
  8
_4-7_
  6
Continuous
 62
     7
100
AcDbLine
 10
815.3184636855279
 20
559.3203585055859
 30
0.0
 11
815.3184636855279
 21
559.2952691305858
 31
0.0
  0
LINE
  5
4AB
330
22
100
AcDbEntity
  8
_4-7_
  6
Continuous
 62
     7
100
AcDbLine
 10
815.3184636855279
 20
559.2952691305858
 30
0.0
 11
814.1846917564041
 21
559.2952691305858
 31
0.0
  0
LINE
  5
4AC
330
22
100
AcDbEntity
  8
_4-7_
  6
Continuous
 62
     7
100
AcDbLine
 10
814.1846917564041
 20
559.2952691305858
 30
0.0
 11
813.6693408795292
 21
559.5659019809411
 31
0.0
  0
LINE
  5
4AD
330
22
100
AcDbEntity
  8
_4-7_
  6
Continuous
 62
     7
100
AcDbLine
 10
813.5147356164656
 20
559.484712099336
 30
0.0
 11
813.5147356164656
 21
558.8733941305863
 31
0.0
  0
LINE
  5
4AE
330
22
100
AcDbEntity
  8
_4-7_
  6
Continuous
 62
     7
100
AcDbLine
 10
813.5147356164656
 20
558.8733941305863
 30
0.0
 11
810.8688664952907
 21
558.8733941305863
 31
0.0
  0
LINE
  5
4AF
330
22
100
AcDbEntity
  8
_4-7_
  6
Continuous
 62
     7
100
AcDbLine
 10
810.8688664952907
 20
558.8733941305863
 30
0.0
 11
810.2680250921535
 21
559.1868125680857
 31
0.0
  0
LINE
  5
4B0
330
22
100
AcDbEntity
  8
_4-7_
  6
Continuous
 62
     7
100
AcDbLine
 10
810.2680250921535
 20
559.1868125680857
 30
0.0
 11
810.2680250921535
 21
559.1898003805865
 31
0.0
  0
LINE
  5
4B1
330
22
100
AcDbEntity
  8
_4-7_
  6
Continuous
 62
     7
100
AcDbLine
 10
810.2680253132676
 20
559.1898029888888
 30
0.0
 11
810.2680250921535
 21
559.1898003805865
 31
0.0
  0
LINE
  5
4B2
330
22
100
AcDbEntity
  8
_4-7_
  6
Continuous
 62
     7
100
AcDbLine
 10
810.2680253132676
 20
559.1898029888888
 30
0.0
 11
810.2680250921535
 21
559.1898003805865
 31
0.0
  0
LINE
  5
4B3
330
22
100
AcDbEntity
  8
_4-7_
  6
Continuous
 62
     7
100
AcDbLine
 10
809.5980689522161
 20
559.2101699118361
 30
0.0
 11
809.5980689522161
 21
558.8733941305863
 31
0.0
  0
LINE
  5
4B4
330
22
100
AcDbEntity
  8
_4-7_
  6
Continuous
 62
     7
100
AcDbLine
 10
809.5980689522161
 20
558.8733941305863
 30
0.0
 11
805.9747982417331
 21
558.8733941305863
 31
0.0
  0
LINE
  5
4B5
330
22
100
AcDbEntity
  8
_4-7_
  6
Continuous
 62
     7
100
AcDbLine
 10
805.9747982417331
 20
558.8733941305863
 30
0.0
 11
805.372203635629
 21
559.1897986224991
 31
0.0
  0
LINE
  5
4B6
330
22
100
AcDbEntity
  8
_4-7_
  6
Continuous
 62
     7
100
AcDbLine
 10
805.3721917618405
 20
559.1898003805865
 30
0.0
 11
805.6705988851158
 21
559.1920451495595
 31
0.0
  0
LINE
  5
4B7
330
22
100
AcDbEntity
  8
_4-7_
  6
Continuous
 62
     7
100
AcDbLine
 10
805.6705988851158
 20
559.1920451495595
 30
0.0
 11
805.6814022879663
 21
559.3924701543235
 31
0.0
  0
LINE
  5
4B8
330
22
100
AcDbEntity
  8
_4-7_
  6
Continuous
 62
     7
100
AcDbLine
 10
805.8360075510289
 20
559.4916339294289
 30
0.0
 11
806.3513584279029
 21
559.2101699118361
 31
0.0
  0
LINE
  5
4B9
330
22
100
AcDbEntity
  8
_4-7_
  6
Continuous
 62
     7
100
AcDbLine
 10
806.3513584279029
 20
559.2101699118361
 30
0.0
 11
806.6497655960255
 21
559.2101698167587
 31
0.0
  0
LINE
  5
4BA
330
22
100
AcDbEntity
  8
_4-7_
  6
Continuous
 62
     7
100
AcDbLine
 10
806.6497655960255
 20
559.2101698167587
 30
0.0
 11
806.6605689540288
 21
559.4276900680861
 31
0.0
  0
LINE
  5
4BB
330
22
100
AcDbEntity
  8
_4-7_
  6
Continuous
 62
     7
100
AcDbLine
 10
806.8151742170913
 20
559.5274336616617
 30
0.0
 11
807.3305250939663
 21
559.2101699118361
 31
0.0
  0
LINE
  5
4BC
330
22
100
AcDbEntity
  8
_4-7_
  6
Continuous
 62
     7
100
AcDbLine
 10
807.3305250939663
 20
559.2101699118361
 30
0.0
 11
807.6289323196588
 21
559.2101699118361
 31
0.0
  0
LINE
  5
4BD
330
22
100
AcDbEntity
  8
_4-7_
  6
Continuous
 62
     7
100
AcDbLine
 10
807.6289323196588
 20
559.2101699118361
 30
0.0
 11
807.6397356200912
 21
559.4276900680861
 31
0.0
  0
LINE
  5
4BE
330
22
100
AcDbEntity
  8
_4-7_
  6
Continuous
 62
     7
100
AcDbLine
 10
807.7943408831536
 20
559.5274336616617
 30
0.0
 11
808.3096917600286
 21
559.2101699118361
 31
0.0
  0
LINE
  5
4BF
330
22
100
AcDbEntity
  8
_4-7_
  6
Continuous
 62
     7
100
AcDbLine
 10
808.3096917600286
 20
559.2101699118361
 30
0.0
 11
808.6080989857213
 21
559.2101699118361
 31
0.0
  0
LINE
  5
4C0
330
22
100
AcDbEntity
  8
_4-7_
  6
Continuous
 62
     7
100
AcDbLine
 10
808.6080989857213
 20
559.2101699118361
 30
0.0
 11
808.6189022861535
 21
559.4276900680861
 31
0.0
  0
LINE
  5
4C1
330
22
100
AcDbEntity
  8
_4-7_
  6
Continuous
 62
     7
100
AcDbLine
 10
808.773507549216
 20
559.5274336616617
 30
0.0
 11
809.2888584260913
 21
559.2101698167587
 31
0.0
  0
LINE
  5
4C2
330
22
100
AcDbEntity
  8
_4-7_
  6
Continuous
 62
     7
100
AcDbLine
 10
809.2888584260913
 20
559.2101698167587
 30
0.0
 11
809.5980689522161
 21
559.2101699118361
 31
0.0
  0
LINE
  5
4C3
330
22
100
AcDbEntity
  8
_4-7_
  6
Continuous
 62
     7
100
AcDbLine
 10
810.2680253132676
 20
559.1898029888888
 30
0.0
 11
810.5664324813892
 21
559.1921062396672
 31
0.0
  0
LINE
  5
4C4
330
22
100
AcDbEntity
  8
_4-7_
  6
Continuous
 62
     7
100
AcDbLine
 10
810.5664324813892
 20
559.1921062396672
 30
0.0
 11
810.5772356182782
 21
559.3905092868364
 31
0.0
  0
LINE
  5
4C5
330
22
100
AcDbEntity
  8
_4-7_
  6
Continuous
 62
     7
100
AcDbLine
 10
810.7318408813407
 20
559.4918168745359
 30
0.0
 11
811.247191758216
 21
559.2101698167587
 31
0.0
  0
LINE
  5
4C6
330
22
100
AcDbEntity
  8
_4-7_
  6
Continuous
 62
     7
100
AcDbLine
 10
811.247191758216
 20
559.2101698167587
 30
0.0
 11
811.5455989263374
 21
559.2101698167587
 31
0.0
  0
LINE
  5
4C7
330
22
100
AcDbEntity
  8
_4-7_
  6
Continuous
 62
     7
100
AcDbLine
 10
811.5455989263374
 20
559.2101698167587
 30
0.0
 11
811.5564022843408
 21
559.4276900680861
 31
0.0
  0
LINE
  5
4C8
330
22
100
AcDbEntity
  8
_4-7_
  6
Continuous
 62
     7
100
AcDbLine
 10
811.7110075474032
 20
559.5274336616617
 30
0.0
 11
812.2263584242782
 21
559.2101699118361
 31
0.0
  0
LINE
  5
4C9
330
22
100
AcDbEntity
  8
_4-7_
  6
Continuous
 62
     7
100
AcDbLine
 10
812.2263584242782
 20
559.2101699118361
 30
0.0
 11
812.5247655923999
 21
559.2101698167587
 31
0.0
  0
LINE
  5
4CA
330
22
100
AcDbEntity
  8
_4-7_
  6
Continuous
 62
     7
100
AcDbLine
 10
812.5247655923999
 20
559.2101698167587
 30
0.0
 11
812.5357136886281
 21
559.4282438758912
 31
0.0
  0
LINE
  5
4CB
330
22
100
AcDbEntity
  8
_4-7_
  6
Continuous
 62
     7
100
AcDbLine
 10
812.690174213467
 20
559.5274336616617
 30
0.0
 11
813.2055250903405
 21
559.2101698167587
 31
0.0
  0
LINE
  5
4CC
330
22
100
AcDbEntity
  8
_4-7_
  6
Continuous
 62
     7
100
AcDbLine
 10
813.2055250903405
 20
559.2101698167587
 30
0.0
 11
813.5147356164656
 21
559.2101699152774
 31
0.0
  0
LINE
  5
4CD
330
22
100
AcDbEntity
  8
_4-7_
  6
Continuous
 62
     7
100
AcDbLine
 10
804.7022356219041
 20
559.2101699118361
 30
0.0
 11
804.7022356219041
 21
558.8733941305863
 31
0.0
  0
LINE
  5
4CE
330
22
100
AcDbEntity
  8
_4-7_
  6
Continuous
 62
     7
100
AcDbLine
 10
804.7022356219041
 20
558.8733941305863
 30
0.0
 11
802.6720845376303
 21
558.8733941305863
 31
0.0
  0
LINE
  5
4CF
330
22
100
AcDbEntity
  8
_4-7_
  6
Continuous
 62
     7
100
AcDbLine
 10
802.6720845376303
 20
558.8733941305863
 30
0.0
 11
800.4763584315286
 21
559.1895102243361
 31
0.0
  0
LINE
  5
4D0
330
22
100
AcDbEntity
  8
_4-7_
  6
Continuous
 62
     7
100
AcDbLine
 10
800.4763584315286
 20
559.1895102243361
 30
0.0
 11
800.7747653591172
 21
559.1899692978759
 31
0.0
  0
LINE
  5
4D1
330
22
100
AcDbEntity
  8
_4-7_
  6
Continuous
 62
     7
100
AcDbLine
 10
800.7747653591172
 20
559.1899692978759
 30
0.0
 11
800.7855689576535
 21
559.3828995993365
 31
0.0
  0
LINE
  5
4D2
330
22
100
AcDbEntity
  8
_4-7_
  6
Continuous
 62
     7
100
AcDbLine
 10
800.4763584315286
 20
559.1895102243361
 30
0.0
 11
799.9610075546535
 21
559.4604332309407
 31
0.0
  0
LINE
  5
4D3
330
22
100
AcDbEntity
  8
_4-7_
  6
Continuous
 62
     7
100
AcDbLine
 10
800.9401742207158
 20
559.4732474523291
 30
0.0
 11
801.4555250975909
 21
559.1916209939157
 31
0.0
  0
LINE
  5
4D4
330
22
100
AcDbEntity
  8
_4-7_
  6
Continuous
 62
     7
100
AcDbLine
 10
801.4555250975909
 20
559.1916209939157
 30
0.0
 11
801.7539320251783
 21
559.1929240590799
 31
0.0
  0
LINE
  5
4D5
330
22
100
AcDbEntity
  8
_4-7_
  6
Continuous
 62
     7
100
AcDbLine
 10
801.7539320251783
 20
559.1929240590799
 30
0.0
 11
801.7647356237159
 21
559.3943783493367
 31
0.0
  0
LINE
  5
4D6
330
22
100
AcDbEntity
  8
_4-7_
  6
Continuous
 62
     7
100
AcDbLine
 10
801.9193408867783
 20
559.4871942842225
 30
0.0
 11
802.4346915231193
 21
559.1972768721452
 31
0.0
  0
LINE
  5
4D7
330
22
100
AcDbEntity
  8
_4-7_
  6
Continuous
 62
     7
100
AcDbLine
 10
802.4346915231193
 20
559.1972768721452
 30
0.0
 11
802.7330986912419
 21
559.1998161475796
 31
0.0
  0
LINE
  5
4D8
330
22
100
AcDbEntity
  8
_4-7_
  6
Continuous
 62
     7
100
AcDbLine
 10
802.7330986912419
 20
559.1998161475796
 30
0.0
 11
802.7439022897782
 21
559.4089744946225
 31
0.0
  0
LINE
  5
4D9
330
22
100
AcDbEntity
  8
_4-7_
  6
Continuous
 62
     7
100
AcDbLine
 10
802.8985075528405
 20
559.5072586297273
 30
0.0
 11
803.4138581891827
 21
559.2071319895992
 31
0.0
  0
LINE
  5
4DA
330
22
100
AcDbEntity
  8
_4-7_
  6
Continuous
 62
     7
100
AcDbLine
 10
803.4138581891827
 20
559.2071319895992
 30
0.0
 11
803.7122656554082
 21
559.2101699118361
 31
0.0
  0
LINE
  5
4DB
330
22
100
AcDbEntity
  8
_4-7_
  6
Continuous
 62
     7
100
AcDbLine
 10
803.7122656554082
 20
559.2101699118361
 30
0.0
 11
803.7230689558416
 21
559.4276900680861
 31
0.0
  0
LINE
  5
4DC
330
22
100
AcDbEntity
  8
_4-7_
  6
Continuous
 62
     7
100
AcDbLine
 10
803.877674218903
 20
559.5274336616617
 30
0.0
 11
804.3930250957782
 21
559.2101698167587
 31
0.0
  0
LINE
  5
4DD
330
22
100
AcDbEntity
  8
_4-7_
  6
Continuous
 62
     7
100
AcDbLine
 10
804.3930250957782
 20
559.2101698167587
 30
0.0
 11
804.7022356219041
 21
559.2101699118361
 31
0.0
  0
LINE
  5
4DE
330
22
100
AcDbEntity
  8
_4-7_
  6
Continuous
 62
     7
100
AcDbLine
 10
799.8064022915912
 20
559.3792433493357
 30
0.0
 11
799.8064022915912
 21
559.2952691305858
 31
0.0
  0
LINE
  5
4DF
330
22
100
AcDbEntity
  8
_4-7_
  6
Continuous
 62
     7
100
AcDbLine
 10
799.8064022915912
 20
559.2952691305858
 30
0.0
 11
799.3168189585595
 21
559.2952691305858
 31
0.0
  0
LINE
  5
4E0
330
22
100
AcDbEntity
  8
_4-7_
  6
Continuous
 62
     7
100
AcDbLine
 10
799.3168189585595
 20
559.2952691305858
 30
0.0
 11
799.3168189585595
 21
559.3890191305856
 31
0.0
  0
LINE
  5
4E1
330
22
100
AcDbEntity
  8
_4-7_
  6
Continuous
 62
     7
100
AcDbLine
 10
799.3168189585595
 20
559.3890191305856
 30
0.0
 11
798.3118847486536
 21
559.3890191305856
 31
0.0
  0
LINE
  5
4E2
330
22
100
AcDbEntity
  8
_4-7_
  6
Continuous
 62
     7
100
AcDbLine
 10
798.3118847486536
 20
559.3890191305856
 30
0.0
 11
798.3118847486536
 21
559.3930608873372
 31
0.0
  0
LINE
  5
4E3
330
22
100
AcDbEntity
  8
_4-7_
  6
Continuous
 62
     7
100
AcDbLine
 10
798.1057443979034
 20
559.4244828805861
 30
0.0
 11
794.3867184023917
 21
559.4244829721722
 31
0.0
  0
LINE
  5
4E4
330
22
100
AcDbEntity
  8
_4-7_
  6
Continuous
 62
     7
100
AcDbLine
 10
794.3867184023917
 20
559.4244829721722
 30
0.0
 11
793.9795803872914
 21
559.6997563180857
 31
0.0
  0
LINE
  5
4E5
330
22
100
AcDbEntity
  8
_4-7_
  6
Continuous
 62
     7
100
AcDbLine
 10
793.9795803872914
 20
559.6997563180857
 30
0.0
 11
793.1583759799035
 21
560.3265191305856
 31
0.0
  0
LINE
  5
4E6
330
22
100
AcDbEntity
  8
_4-7_
  6
Continuous
 62
     7
100
AcDbLine
 10
793.1583759799035
 20
560.3265191305856
 30
0.0
 11
793.1583759799035
 21
560.4198806802698
 31
0.0
  0
LINE
  5
4E7
330
22
100
AcDbEntity
  8
_4-7_
  6
Continuous
 62
     7
100
AcDbLine
 10
793.1583759799035
 20
560.4198806802698
 30
0.0
 11
794.3867184023917
 21
559.7416968619486
 31
0.0
  0
LINE
  5
4E8
330
22
100
AcDbEntity
  8
_4-7_
  6
Continuous
 62
     7
100
AcDbLine
 10
794.3867184023917
 20
559.7416968619486
 30
0.0
 11
796.8689022934039
 21
559.7416967868368
 31
0.0
  0
LINE
  5
4E9
330
22
100
AcDbEntity
  8
_4-7_
  6
Continuous
 62
     7
100
AcDbLine
 10
796.8689022934039
 20
560.1062989743357
 30
0.0
 11
794.3867184978285
 21
560.1062988034416
 31
0.0
  0
LINE
  5
4EA
330
22
100
AcDbEntity
  8
_4-7_
  6
Continuous
 62
     7
100
AcDbLine
 10
794.3867184978285
 20
560.1062988034416
 30
0.0
 11
793.1583759799035
 21
560.7844827817111
 31
0.0
  0
LINE
  5
4EB
330
22
100
AcDbEntity
  8
_4-7_
  6
Continuous
 62
     7
100
AcDbLine
 10
793.1583759799035
 20
560.7844827817111
 30
0.0
 11
793.1583759799035
 21
561.1702691305858
 31
0.0
  0
LINE
  5
4EC
330
22
100
AcDbEntity
  8
_4-7_
  6
Continuous
 62
     7
100
AcDbLine
 10
813.6820905124444
 20
559.5592065649092
 30
0.0
 11
813.6820905124444
 21
559.5592065649092
 31
0.0
  0
LINE
  5
4ED
330
22
100
AcDbEntity
  8
_4-7_
  6
Continuous
 62
     7
100
AcDbLine
 10
813.6820905124444
 20
559.5592065649092
 30
0.0
 11
813.6656784153343
 21
559.567455393256
 31
0.0
  0
LINE
  5
4EE
330
22
100
AcDbEntity
  8
_4-7_
  6
Continuous
 62
     7
100
AcDbLine
 10
813.6656784153343
 20
559.567455393256
 30
0.0
 11
813.6479408591037
 21
559.572986679113
 31
0.0
  0
LINE
  5
4EF
330
22
100
AcDbEntity
  8
_4-7_
  6
Continuous
 62
     7
100
AcDbLine
 10
813.6479408591037
 20
559.572986679113
 30
0.0
 11
813.6294167904233
 21
559.5756323571588
 31
0.0
  0
LINE
  5
4F0
330
22
100
AcDbEntity
  8
_4-7_
  6
Continuous
 62
     7
100
AcDbLine
 10
813.6294167904233
 20
559.5756323571588
 30
0.0
 11
813.6106690537465
 21
559.5753120398042
 31
0.0
  0
LINE
  5
4F1
330
22
100
AcDbEntity
  8
_4-7_
  6
Continuous
 62
     7
100
AcDbLine
 10
813.6106690537465
 20
559.5753120398042
 30
0.0
 11
813.5922672895652
 21
559.5720354597303
 31
0.0
  0
LINE
  5
4F2
330
22
100
AcDbEntity
  8
_4-7_
  6
Continuous
 62
     7
100
AcDbLine
 10
813.5922672895652
 20
559.5720354597303
 30
0.0
 11
813.5747706261726
 21
559.5659021741647
 31
0.0
  0
LINE
  5
4F3
330
22
100
AcDbEntity
  8
_4-7_
  6
Continuous
 62
     7
100
AcDbLine
 10
813.5747706261726
 20
559.5659021741647
 30
0.0
 11
813.5587106908319
 21
559.5570985398853
 31
0.0
  0
LINE
  5
4F4
330
22
100
AcDbEntity
  8
_4-7_
  6
Continuous
 62
     7
100
AcDbLine
 10
813.5587106908319
 20
559.5570985398853
 30
0.0
 11
813.5445754565516
 21
559.5458920508652
 31
0.0
  0
LINE
  5
4F5
330
22
100
AcDbEntity
  8
_4-7_
  6
Continuous
 62
     7
100
AcDbLine
 10
813.5445754565516
 20
559.5458920508652
 30
0.0
 11
813.5327944152725
 21
559.5326232106023
 31
0.0
  0
LINE
  5
4F6
330
22
100
AcDbEntity
  8
_4-7_
  6
Continuous
 62
     7
100
AcDbLine
 10
813.5327944152725
 20
559.5326232106023
 30
0.0
 11
813.5237255279731
 21
559.5176951860937
 31
0.0
  0
LINE
  5
4F7
330
22
100
AcDbEntity
  8
_4-7_
  6
Continuous
 62
     7
100
AcDbLine
 10
813.5237255279731
 20
559.5176951860937
 30
0.0
 11
813.5176443482041
 21
559.5015615578103
 31
0.0
  0
LINE
  5
4F8
330
22
100
AcDbEntity
  8
_4-7_
  6
Continuous
 62
     7
100
AcDbLine
 10
813.5176443482041
 20
559.5015615578103
 30
0.0
 11
813.5147356495359
 21
559.4847125378833
 31
0.0
  0
LINE
  5
4F9
330
22
100
AcDbEntity
  8
_4-7_
  6
Continuous
 62
     7
100
AcDbLine
 10
813.5147356495359
 20
559.4847125378833
 30
0.0
 11
813.5147356164656
 21
559.484712099336
 31
0.0
  0
LINE
  5
4FA
330
22
100
AcDbEntity
  8
_4-7_
  6
Continuous
 62
     7
100
AcDbLine
 10
812.6901742134663
 20
559.5274336616616
 30
0.0
 11
812.6901742134663
 21
559.5274336616616
 31
0.0
  0
LINE
  5
4FB
330
22
100
AcDbEntity
  8
_4-7_
  6
Continuous
 62
     7
100
AcDbLine
 10
812.6901742134663
 20
559.5274336616616
 30
0.0
 11
812.6652003672235
 21
559.5278531026535
 31
0.0
  0
LINE
  5
4FC
330
22
100
AcDbEntity
  8
_4-7_
  6
Continuous
 62
     7
100
AcDbLine
 10
812.6652003672235
 20
559.5278531026535
 30
0.0
 11
812.6405258537348
 21
559.5243216535508
 31
0.0
  0
LINE
  5
4FD
330
22
100
AcDbEntity
  8
_4-7_
  6
Continuous
 62
     7
100
AcDbLine
 10
812.6405258537348
 20
559.5243216535508
 30
0.0
 11
812.6169003956061
 21
559.5169466156479
 31
0.0
  0
LINE
  5
4FE
330
22
100
AcDbEntity
  8
_4-7_
  6
Continuous
 62
     7
100
AcDbLine
 10
812.6169003956061
 20
559.5169466156479
 30
0.0
 11
812.5950418404277
 21
559.5059520757391
 31
0.0
  0
LINE
  5
4FF
330
22
100
AcDbEntity
  8
_4-7_
  6
Continuous
 62
     7
100
AcDbLine
 10
812.5950418404277
 20
559.5059520757391
 30
0.0
 11
812.5756143493383
 21
559.4916720973563
 31
0.0
  0
LINE
  5
500
330
22
100
AcDbEntity
  8
_4-7_
  6
Continuous
 62
     7
100
AcDbLine
 10
812.5756143493383
 20
559.4916720973563
 30
0.0
 11
812.5592082168234
 21
559.4745405704165
 31
0.0
  0
LINE
  5
501
330
22
100
AcDbEntity
  8
_4-7_
  6
Continuous
 62
     7
100
AcDbLine
 10
812.5592082168234
 20
559.4745405704165
 30
0.0
 11
812.5463219349169
 21
559.4550780276968
 31
0.0
  0
LINE
  5
502
330
22
100
AcDbEntity
  8
_4-7_
  6
Continuous
 62
     7
100
AcDbLine
 10
812.5463219349169
 20
559.4550780276968
 30
0.0
 11
812.5373470467749
 21
559.4338758287094
 31
0.0
  0
LINE
  5
503
330
22
100
AcDbEntity
  8
_4-7_
  6
Continuous
 62
     7
100
AcDbLine
 10
812.5373470467749
 20
559.4338758287094
 30
0.0
 11
812.5355689504038
 21
559.4276900680861
 31
0.0
  0
LINE
  5
504
330
22
100
AcDbEntity
  8
_4-7_
  6
Continuous
 62
     7
100
AcDbLine
 10
811.7110075474027
 20
559.5274336616616
 30
0.0
 11
811.7110075474027
 21
559.5274336616616
 31
0.0
  0
LINE
  5
505
330
22
100
AcDbEntity
  8
_4-7_
  6
Continuous
 62
     7
100
AcDbLine
 10
811.7110075474027
 20
559.5274336616616
 30
0.0
 11
811.6860337011601
 21
559.5278531026535
 31
0.0
  0
LINE
  5
506
330
22
100
AcDbEntity
  8
_4-7_
  6
Continuous
 62
     7
100
AcDbLine
 10
811.6860337011601
 20
559.5278531026535
 30
0.0
 11
811.6613591876713
 21
559.5243216535508
 31
0.0
  0
LINE
  5
507
330
22
100
AcDbEntity
  8
_4-7_
  6
Continuous
 62
     7
100
AcDbLine
 10
811.6613591876713
 20
559.5243216535508
 30
0.0
 11
811.6377337295425
 21
559.5169466156479
 31
0.0
  0
LINE
  5
508
330
22
100
AcDbEntity
  8
_4-7_
  6
Continuous
 62
     7
100
AcDbLine
 10
811.6377337295425
 20
559.5169466156479
 30
0.0
 11
811.6158751743643
 21
559.5059520757391
 31
0.0
  0
LINE
  5
509
330
22
100
AcDbEntity
  8
_4-7_
  6
Continuous
 62
     7
100
AcDbLine
 10
811.6158751743643
 20
559.5059520757391
 30
0.0
 11
811.5964476832747
 21
559.4916720973563
 31
0.0
  0
LINE
  5
50A
330
22
100
AcDbEntity
  8
_4-7_
  6
Continuous
 62
     7
100
AcDbLine
 10
811.5964476832747
 20
559.4916720973563
 30
0.0
 11
811.5800415507594
 21
559.4745405704165
 31
0.0
  0
LINE
  5
50B
330
22
100
AcDbEntity
  8
_4-7_
  6
Continuous
 62
     7
100
AcDbLine
 10
811.5800415507594
 20
559.4745405704165
 30
0.0
 11
811.5671552688533
 21
559.4550780276968
 31
0.0
  0
LINE
  5
50C
330
22
100
AcDbEntity
  8
_4-7_
  6
Continuous
 62
     7
100
AcDbLine
 10
811.5671552688533
 20
559.4550780276968
 30
0.0
 11
811.5581803807113
 21
559.4338758287094
 31
0.0
  0
LINE
  5
50D
330
22
100
AcDbEntity
  8
_4-7_
  6
Continuous
 62
     7
100
AcDbLine
 10
811.5581803807113
 20
559.4338758287094
 30
0.0
 11
811.5564022843404
 21
559.4276900680861
 31
0.0
  0
LINE
  5
50E
330
22
100
AcDbEntity
  8
_4-7_
  6
Continuous
 62
     7
100
AcDbLine
 10
810.7318408813405
 20
559.4918168745358
 30
0.0
 11
810.7318408813405
 21
559.4918168745358
 31
0.0
  0
LINE
  5
50F
330
22
100
AcDbEntity
  8
_4-7_
  6
Continuous
 62
     7
100
AcDbLine
 10
810.7318408813405
 20
559.4918168745358
 30
0.0
 11
810.7068670350978
 21
559.4922363155277
 31
0.0
  0
LINE
  5
510
330
22
100
AcDbEntity
  8
_4-7_
  6
Continuous
 62
     7
100
AcDbLine
 10
810.7068670350978
 20
559.4922363155277
 30
0.0
 11
810.682192521609
 21
559.4887048664252
 31
0.0
  0
LINE
  5
511
330
22
100
AcDbEntity
  8
_4-7_
  6
Continuous
 62
     7
100
AcDbLine
 10
810.682192521609
 20
559.4887048664252
 30
0.0
 11
810.6585670634803
 21
559.4813298285222
 31
0.0
  0
LINE
  5
512
330
22
100
AcDbEntity
  8
_4-7_
  6
Continuous
 62
     7
100
AcDbLine
 10
810.6585670634803
 20
559.4813298285222
 30
0.0
 11
810.6367085083022
 21
559.4703352886137
 31
0.0
  0
LINE
  5
513
330
22
100
AcDbEntity
  8
_4-7_
  6
Continuous
 62
     7
100
AcDbLine
 10
810.6367085083022
 20
559.4703352886137
 30
0.0
 11
810.6172810172123
 21
559.4560553102306
 31
0.0
  0
LINE
  5
514
330
22
100
AcDbEntity
  8
_4-7_
  6
Continuous
 62
     7
100
AcDbLine
 10
810.6172810172123
 20
559.4560553102306
 30
0.0
 11
810.6008748846972
 21
559.4389237832908
 31
0.0
  0
LINE
  5
515
330
22
100
AcDbEntity
  8
_4-7_
  6
Continuous
 62
     7
100
AcDbLine
 10
810.6008748846972
 20
559.4389237832908
 30
0.0
 11
810.587988602791
 21
559.4194612405711
 31
0.0
  0
LINE
  5
516
330
22
100
AcDbEntity
  8
_4-7_
  6
Continuous
 62
     7
100
AcDbLine
 10
810.587988602791
 20
559.4194612405711
 30
0.0
 11
810.579013714649
 21
559.3982590415836
 31
0.0
  0
LINE
  5
517
330
22
100
AcDbEntity
  8
_4-7_
  6
Continuous
 62
     7
100
AcDbLine
 10
810.579013714649
 20
559.3982590415836
 30
0.0
 11
810.5772356182779
 21
559.3920732809603
 31
0.0
  0
LINE
  5
518
330
22
100
AcDbEntity
  8
_4-7_
  6
Continuous
 62
     7
100
AcDbLine
 10
808.7735075492156
 20
559.5274336616616
 30
0.0
 11
808.7735075492156
 21
559.5274336616616
 31
0.0
  0
LINE
  5
519
330
22
100
AcDbEntity
  8
_4-7_
  6
Continuous
 62
     7
100
AcDbLine
 10
808.7735075492156
 20
559.5274336616616
 30
0.0
 11
808.7485337029731
 21
559.5278531026535
 31
0.0
  0
LINE
  5
51A
330
22
100
AcDbEntity
  8
_4-7_
  6
Continuous
 62
     7
100
AcDbLine
 10
808.7485337029731
 20
559.5278531026535
 30
0.0
 11
808.7238591894843
 21
559.5243216535508
 31
0.0
  0
LINE
  5
51B
330
22
100
AcDbEntity
  8
_4-7_
  6
Continuous
 62
     7
100
AcDbLine
 10
808.7238591894843
 20
559.5243216535508
 30
0.0
 11
808.7002337313554
 21
559.5169466156479
 31
0.0
  0
LINE
  5
51C
330
22
100
AcDbEntity
  8
_4-7_
  6
Continuous
 62
     7
100
AcDbLine
 10
808.7002337313554
 20
559.5169466156479
 30
0.0
 11
808.6783751761773
 21
559.5059520757391
 31
0.0
  0
LINE
  5
51D
330
22
100
AcDbEntity
  8
_4-7_
  6
Continuous
 62
     7
100
AcDbLine
 10
808.6783751761773
 20
559.5059520757391
 30
0.0
 11
808.6589476850875
 21
559.4916720973563
 31
0.0
  0
LINE
  5
51E
330
22
100
AcDbEntity
  8
_4-7_
  6
Continuous
 62
     7
100
AcDbLine
 10
808.6589476850875
 20
559.4916720973563
 30
0.0
 11
808.6425415525724
 21
559.4745405704165
 31
0.0
  0
LINE
  5
51F
330
22
100
AcDbEntity
  8
_4-7_
  6
Continuous
 62
     7
100
AcDbLine
 10
808.6425415525724
 20
559.4745405704165
 30
0.0
 11
808.6296552706661
 21
559.4550780276968
 31
0.0
  0
LINE
  5
520
330
22
100
AcDbEntity
  8
_4-7_
  6
Continuous
 62
     7
100
AcDbLine
 10
808.6296552706661
 20
559.4550780276968
 30
0.0
 11
808.6206803825241
 21
559.4338758287094
 31
0.0
  0
LINE
  5
521
330
22
100
AcDbEntity
  8
_4-7_
  6
Continuous
 62
     7
100
AcDbLine
 10
808.6206803825241
 20
559.4338758287094
 30
0.0
 11
808.6189022861532
 21
559.4276900680861
 31
0.0
  0
LINE
  5
522
330
22
100
AcDbEntity
  8
_4-7_
  6
Continuous
 62
     7
100
AcDbLine
 10
807.7943408831533
 20
559.5274336616616
 30
0.0
 11
807.7943408831533
 21
559.5274336616616
 31
0.0
  0
LINE
  5
523
330
22
100
AcDbEntity
  8
_4-7_
  6
Continuous
 62
     7
100
AcDbLine
 10
807.7943408831533
 20
559.5274336616616
 30
0.0
 11
807.7693670369107
 21
559.5278531026535
 31
0.0
  0
LINE
  5
524
330
22
100
AcDbEntity
  8
_4-7_
  6
Continuous
 62
     7
100
AcDbLine
 10
807.7693670369107
 20
559.5278531026535
 30
0.0
 11
807.7446925234218
 21
559.5243216535508
 31
0.0
  0
LINE
  5
525
330
22
100
AcDbEntity
  8
_4-7_
  6
Continuous
 62
     7
100
AcDbLine
 10
807.7446925234218
 20
559.5243216535508
 30
0.0
 11
807.7210670652931
 21
559.5169466156479
 31
0.0
  0
LINE
  5
526
330
22
100
AcDbEntity
  8
_4-7_
  6
Continuous
 62
     7
100
AcDbLine
 10
807.7210670652931
 20
559.5169466156479
 30
0.0
 11
807.6992085101149
 21
559.5059520757391
 31
0.0
  0
LINE
  5
527
330
22
100
AcDbEntity
  8
_4-7_
  6
Continuous
 62
     7
100
AcDbLine
 10
807.6992085101149
 20
559.5059520757391
 30
0.0
 11
807.6797810190253
 21
559.4916720973563
 31
0.0
  0
LINE
  5
528
330
22
100
AcDbEntity
  8
_4-7_
  6
Continuous
 62
     7
100
AcDbLine
 10
807.6797810190253
 20
559.4916720973563
 30
0.0
 11
807.6633748865102
 21
559.4745405704165
 31
0.0
  0
LINE
  5
529
330
22
100
AcDbEntity
  8
_4-7_
  6
Continuous
 62
     7
100
AcDbLine
 10
807.6633748865102
 20
559.4745405704165
 30
0.0
 11
807.6504886046038
 21
559.4550780276968
 31
0.0
  0
LINE
  5
52A
330
22
100
AcDbEntity
  8
_4-7_
  6
Continuous
 62
     7
100
AcDbLine
 10
807.6504886046038
 20
559.4550780276968
 30
0.0
 11
807.6415137164618
 21
559.4338758287094
 31
0.0
  0
LINE
  5
52B
330
22
100
AcDbEntity
  8
_4-7_
  6
Continuous
 62
     7
100
AcDbLine
 10
807.6415137164618
 20
559.4338758287094
 30
0.0
 11
807.639735620091
 21
559.4276900680861
 31
0.0
  0
LINE
  5
52C
330
22
100
AcDbEntity
  8
_4-7_
  6
Continuous
 62
     7
100
AcDbLine
 10
806.8151742170911
 20
559.5274336616616
 30
0.0
 11
806.8151742170911
 21
559.5274336616616
 31
0.0
  0
LINE
  5
52D
330
22
100
AcDbEntity
  8
_4-7_
  6
Continuous
 62
     7
100
AcDbLine
 10
806.8151742170911
 20
559.5274336616616
 30
0.0
 11
806.7902003708484
 21
559.5278531026535
 31
0.0
  0
LINE
  5
52E
330
22
100
AcDbEntity
  8
_4-7_
  6
Continuous
 62
     7
100
AcDbLine
 10
806.7902003708484
 20
559.5278531026535
 30
0.0
 11
806.7655258573593
 21
559.5243216535508
 31
0.0
  0
LINE
  5
52F
330
22
100
AcDbEntity
  8
_4-7_
  6
Continuous
 62
     7
100
AcDbLine
 10
806.7655258573593
 20
559.5243216535508
 30
0.0
 11
806.7419003992307
 21
559.5169466156479
 31
0.0
  0
LINE
  5
530
330
22
100
AcDbEntity
  8
_4-7_
  6
Continuous
 62
     7
100
AcDbLine
 10
806.7419003992307
 20
559.5169466156479
 30
0.0
 11
806.7200418440524
 21
559.5059520757391
 31
0.0
  0
LINE
  5
531
330
22
100
AcDbEntity
  8
_4-7_
  6
Continuous
 62
     7
100
AcDbLine
 10
806.7200418440524
 20
559.5059520757391
 30
0.0
 11
806.7006143529628
 21
559.4916720973563
 31
0.0
  0
LINE
  5
532
330
22
100
AcDbEntity
  8
_4-7_
  6
Continuous
 62
     7
100
AcDbLine
 10
806.7006143529628
 20
559.4916720973563
 30
0.0
 11
806.6842082204477
 21
559.4745405704165
 31
0.0
  0
LINE
  5
533
330
22
100
AcDbEntity
  8
_4-7_
  6
Continuous
 62
     7
100
AcDbLine
 10
806.6842082204477
 20
559.4745405704165
 30
0.0
 11
806.6713219385416
 21
559.4550780276968
 31
0.0
  0
LINE
  5
534
330
22
100
AcDbEntity
  8
_4-7_
  6
Continuous
 62
     7
100
AcDbLine
 10
806.6713219385416
 20
559.4550780276968
 30
0.0
 11
806.6623470503994
 21
559.4338758287094
 31
0.0
  0
LINE
  5
535
330
22
100
AcDbEntity
  8
_4-7_
  6
Continuous
 62
     7
100
AcDbLine
 10
806.6623470503994
 20
559.4338758287094
 30
0.0
 11
806.6605689540285
 21
559.4276900680861
 31
0.0
  0
LINE
  5
536
330
22
100
AcDbEntity
  8
_4-7_
  6
Continuous
 62
     7
100
AcDbLine
 10
805.8360075510286
 20
559.4916339294287
 30
0.0
 11
805.8360075510286
 21
559.4916339294287
 31
0.0
  0
LINE
  5
537
330
22
100
AcDbEntity
  8
_4-7_
  6
Continuous
 62
     7
100
AcDbLine
 10
805.8360075510286
 20
559.4916339294287
 30
0.0
 11
805.8110337047859
 21
559.4920533704208
 31
0.0
  0
LINE
  5
538
330
22
100
AcDbEntity
  8
_4-7_
  6
Continuous
 62
     7
100
AcDbLine
 10
805.8110337047859
 20
559.4920533704208
 30
0.0
 11
805.7863591912971
 21
559.488521921318
 31
0.0
  0
LINE
  5
539
330
22
100
AcDbEntity
  8
_4-7_
  6
Continuous
 62
     7
100
AcDbLine
 10
805.7863591912971
 20
559.488521921318
 30
0.0
 11
805.7627337331684
 21
559.4811468834152
 31
0.0
  0
LINE
  5
53A
330
22
100
AcDbEntity
  8
_4-7_
  6
Continuous
 62
     7
100
AcDbLine
 10
805.7627337331684
 20
559.4811468834152
 30
0.0
 11
805.7408751779901
 21
559.4701523435064
 31
0.0
  0
LINE
  5
53B
330
22
100
AcDbEntity
  8
_4-7_
  6
Continuous
 62
     7
100
AcDbLine
 10
805.7408751779901
 20
559.4701523435064
 30
0.0
 11
805.7214476869004
 21
559.4558723651235
 31
0.0
  0
LINE
  5
53C
330
22
100
AcDbEntity
  8
_4-7_
  6
Continuous
 62
     7
100
AcDbLine
 10
805.7214476869004
 20
559.4558723651235
 30
0.0
 11
805.7050415543852
 21
559.4387408381837
 31
0.0
  0
LINE
  5
53D
330
22
100
AcDbEntity
  8
_4-7_
  6
Continuous
 62
     7
100
AcDbLine
 10
805.7050415543852
 20
559.4387408381837
 30
0.0
 11
805.6921552724789
 21
559.4192782954641
 31
0.0
  0
LINE
  5
53E
330
22
100
AcDbEntity
  8
_4-7_
  6
Continuous
 62
     7
100
AcDbLine
 10
805.6921552724789
 20
559.4192782954641
 30
0.0
 11
805.6831803843371
 21
559.3980760964765
 31
0.0
  0
LINE
  5
53F
330
22
100
AcDbEntity
  8
_4-7_
  6
Continuous
 62
     7
100
AcDbLine
 10
805.6831803843371
 20
559.3980760964765
 30
0.0
 11
805.6814022879661
 21
559.3918903358533
 31
0.0
  0
LINE
  5
540
330
22
100
AcDbEntity
  8
_4-7_
  6
Continuous
 62
     7
100
AcDbLine
 10
803.8776742189039
 20
559.5274336616616
 30
0.0
 11
803.8776742189039
 21
559.5274336616616
 31
0.0
  0
LINE
  5
541
330
22
100
AcDbEntity
  8
_4-7_
  6
Continuous
 62
     7
100
AcDbLine
 10
803.8776742189039
 20
559.5274336616616
 30
0.0
 11
803.8527003726612
 21
559.5278531026535
 31
0.0
  0
LINE
  5
542
330
22
100
AcDbEntity
  8
_4-7_
  6
Continuous
 62
     7
100
AcDbLine
 10
803.8527003726612
 20
559.5278531026535
 30
0.0
 11
803.828025859172
 21
559.5243216535508
 31
0.0
  0
LINE
  5
543
330
22
100
AcDbEntity
  8
_4-7_
  6
Continuous
 62
     7
100
AcDbLine
 10
803.828025859172
 20
559.5243216535508
 30
0.0
 11
803.8044004010435
 21
559.5169466156479
 31
0.0
  0
LINE
  5
544
330
22
100
AcDbEntity
  8
_4-7_
  6
Continuous
 62
     7
100
AcDbLine
 10
803.8044004010435
 20
559.5169466156479
 30
0.0
 11
803.7825418458654
 21
559.5059520757391
 31
0.0
  0
LINE
  5
545
330
22
100
AcDbEntity
  8
_4-7_
  6
Continuous
 62
     7
100
AcDbLine
 10
803.7825418458654
 20
559.5059520757391
 30
0.0
 11
803.7631143547756
 21
559.4916720973563
 31
0.0
  0
LINE
  5
546
330
22
100
AcDbEntity
  8
_4-7_
  6
Continuous
 62
     7
100
AcDbLine
 10
803.7631143547756
 20
559.4916720973563
 30
0.0
 11
803.7467082222603
 21
559.4745405704165
 31
0.0
  0
LINE
  5
547
330
22
100
AcDbEntity
  8
_4-7_
  6
Continuous
 62
     7
100
AcDbLine
 10
803.7467082222603
 20
559.4745405704165
 30
0.0
 11
803.7338219403544
 21
559.4550780276968
 31
0.0
  0
LINE
  5
548
330
22
100
AcDbEntity
  8
_4-7_
  6
Continuous
 62
     7
100
AcDbLine
 10
803.7338219403544
 20
559.4550780276968
 30
0.0
 11
803.7248470522124
 21
559.4338758287094
 31
0.0
  0
LINE
  5
549
330
22
100
AcDbEntity
  8
_4-7_
  6
Continuous
 62
     7
100
AcDbLine
 10
803.7248470522124
 20
559.4338758287094
 30
0.0
 11
803.7230689558411
 21
559.4276900680861
 31
0.0
  0
LINE
  5
54A
330
22
100
AcDbEntity
  8
_4-7_
  6
Continuous
 62
     7
100
AcDbLine
 10
802.8985075528405
 20
559.5072586297284
 30
0.0
 11
802.8985075528405
 21
559.5072586297284
 31
0.0
  0
LINE
  5
54B
330
22
100
AcDbEntity
  8
_4-7_
  6
Continuous
 62
     7
100
AcDbLine
 10
802.8985075528405
 20
559.5072586297284
 30
0.0
 11
802.8735337065976
 21
559.5076780707203
 31
0.0
  0
LINE
  5
54C
330
22
100
AcDbEntity
  8
_4-7_
  6
Continuous
 62
     7
100
AcDbLine
 10
802.8735337065976
 20
559.5076780707203
 30
0.0
 11
802.8488591931086
 21
559.5041466216177
 31
0.0
  0
LINE
  5
54D
330
22
100
AcDbEntity
  8
_4-7_
  6
Continuous
 62
     7
100
AcDbLine
 10
802.8488591931086
 20
559.5041466216177
 30
0.0
 11
802.8252337349801
 21
559.4967715837148
 31
0.0
  0
LINE
  5
54E
330
22
100
AcDbEntity
  8
_4-7_
  6
Continuous
 62
     7
100
AcDbLine
 10
802.8252337349801
 20
559.4967715837148
 30
0.0
 11
802.8033751798018
 21
559.485777043806
 31
0.0
  0
LINE
  5
54F
330
22
100
AcDbEntity
  8
_4-7_
  6
Continuous
 62
     7
100
AcDbLine
 10
802.8033751798018
 20
559.485777043806
 30
0.0
 11
802.7839476887121
 21
559.4714970654232
 31
0.0
  0
LINE
  5
550
330
22
100
AcDbEntity
  8
_4-7_
  6
Continuous
 62
     7
100
AcDbLine
 10
802.7839476887121
 20
559.4714970654232
 30
0.0
 11
802.767541556197
 21
559.4543655384833
 31
0.0
  0
LINE
  5
551
330
22
100
AcDbEntity
  8
_4-7_
  6
Continuous
 62
     7
100
AcDbLine
 10
802.767541556197
 20
559.4543655384833
 30
0.0
 11
802.754655274291
 21
559.4349029957637
 31
0.0
  0
LINE
  5
552
330
22
100
AcDbEntity
  8
_4-7_
  6
Continuous
 62
     7
100
AcDbLine
 10
802.754655274291
 20
559.4349029957637
 30
0.0
 11
802.7456803861486
 21
559.4137007967762
 31
0.0
  0
LINE
  5
553
330
22
100
AcDbEntity
  8
_4-7_
  6
Continuous
 62
     7
100
AcDbLine
 10
802.7456803861486
 20
559.4137007967762
 30
0.0
 11
802.7439022897777
 21
559.4075150361529
 31
0.0
  0
LINE
  5
554
330
22
100
AcDbEntity
  8
_4-7_
  6
Continuous
 62
     7
100
AcDbLine
 10
801.9193408867778
 20
559.4871942842225
 30
0.0
 11
801.9193408867778
 21
559.4871942842225
 31
0.0
  0
LINE
  5
555
330
22
100
AcDbEntity
  8
_4-7_
  6
Continuous
 62
     7
100
AcDbLine
 10
801.9193408867778
 20
559.4871942842225
 30
0.0
 11
801.8943670405352
 21
559.4876137252144
 31
0.0
  0
LINE
  5
556
330
22
100
AcDbEntity
  8
_4-7_
  6
Continuous
 62
     7
100
AcDbLine
 10
801.8943670405352
 20
559.4876137252144
 30
0.0
 11
801.8696925270463
 21
559.484082276112
 31
0.0
  0
LINE
  5
557
330
22
100
AcDbEntity
  8
_4-7_
  6
Continuous
 62
     7
100
AcDbLine
 10
801.8696925270463
 20
559.484082276112
 30
0.0
 11
801.8460670689176
 21
559.4767072382088
 31
0.0
  0
LINE
  5
558
330
22
100
AcDbEntity
  8
_4-7_
  6
Continuous
 62
     7
100
AcDbLine
 10
801.8460670689176
 20
559.4767072382088
 30
0.0
 11
801.8242085137393
 21
559.4657126983001
 31
0.0
  0
LINE
  5
559
330
22
100
AcDbEntity
  8
_4-7_
  6
Continuous
 62
     7
100
AcDbLine
 10
801.8242085137393
 20
559.4657126983001
 30
0.0
 11
801.8047810226496
 21
559.4514327199171
 31
0.0
  0
LINE
  5
55A
330
22
100
AcDbEntity
  8
_4-7_
  6
Continuous
 62
     7
100
AcDbLine
 10
801.8047810226496
 20
559.4514327199171
 30
0.0
 11
801.7883748901343
 21
559.4343011929774
 31
0.0
  0
LINE
  5
55B
330
22
100
AcDbEntity
  8
_4-7_
  6
Continuous
 62
     7
100
AcDbLine
 10
801.7883748901343
 20
559.4343011929774
 30
0.0
 11
801.7754886082284
 21
559.4148386502577
 31
0.0
  0
LINE
  5
55C
330
22
100
AcDbEntity
  8
_4-7_
  6
Continuous
 62
     7
100
AcDbLine
 10
801.7754886082284
 20
559.4148386502577
 30
0.0
 11
801.7665137200863
 21
559.3936364512702
 31
0.0
  0
LINE
  5
55D
330
22
100
AcDbEntity
  8
_4-7_
  6
Continuous
 62
     7
100
AcDbLine
 10
801.7665137200863
 20
559.3936364512702
 30
0.0
 11
801.7647356237153
 21
559.387450690647
 31
0.0
  0
LINE
  5
55E
330
22
100
AcDbEntity
  8
_4-7_
  6
Continuous
 62
     7
100
AcDbLine
 10
800.9401742207167
 20
559.4732474523289
 30
0.0
 11
800.9401742207167
 21
559.4732474523289
 31
0.0
  0
LINE
  5
55F
330
22
100
AcDbEntity
  8
_4-7_
  6
Continuous
 62
     7
100
AcDbLine
 10
800.9401742207167
 20
559.4732474523289
 30
0.0
 11
800.9152003744739
 21
559.4736668933207
 31
0.0
  0
LINE
  5
560
330
22
100
AcDbEntity
  8
_4-7_
  6
Continuous
 62
     7
100
AcDbLine
 10
800.9152003744739
 20
559.4736668933207
 30
0.0
 11
800.8905258609852
 21
559.4701354442183
 31
0.0
  0
LINE
  5
561
330
22
100
AcDbEntity
  8
_4-7_
  6
Continuous
 62
     7
100
AcDbLine
 10
800.8905258609852
 20
559.4701354442183
 30
0.0
 11
800.8669004028565
 21
559.4627604063154
 31
0.0
  0
LINE
  5
562
330
22
100
AcDbEntity
  8
_4-7_
  6
Continuous
 62
     7
100
AcDbLine
 10
800.8669004028565
 20
559.4627604063154
 30
0.0
 11
800.8450418476781
 21
559.4517658664067
 31
0.0
  0
LINE
  5
563
330
22
100
AcDbEntity
  8
_4-7_
  6
Continuous
 62
     7
100
AcDbLine
 10
800.8450418476781
 20
559.4517658664067
 30
0.0
 11
800.8256143565883
 21
559.4374858880238
 31
0.0
  0
LINE
  5
564
330
22
100
AcDbEntity
  8
_4-7_
  6
Continuous
 62
     7
100
AcDbLine
 10
800.8256143565883
 20
559.4374858880238
 30
0.0
 11
800.8092082240731
 21
559.420354361084
 31
0.0
  0
LINE
  5
565
330
22
100
AcDbEntity
  8
_4-7_
  6
Continuous
 62
     7
100
AcDbLine
 10
800.8092082240731
 20
559.420354361084
 30
0.0
 11
800.7963219421672
 21
559.4008918183643
 31
0.0
  0
LINE
  5
566
330
22
100
AcDbEntity
  8
_4-7_
  6
Continuous
 62
     7
100
AcDbLine
 10
800.7963219421672
 20
559.4008918183643
 30
0.0
 11
800.7873470540253
 21
559.3796896193768
 31
0.0
  0
LINE
  5
567
330
22
100
AcDbEntity
  8
_4-7_
  6
Continuous
 62
     7
100
AcDbLine
 10
800.7873470540253
 20
559.3796896193768
 30
0.0
 11
800.785568957654
 21
559.3735038587537
 31
0.0
  0
LINE
  5
568
330
22
100
AcDbEntity
  8
_4-7_
  6
Continuous
 62
     7
100
AcDbLine
 10
799.9764627552596
 20
559.452308340494
 30
0.0
 11
799.9764627552596
 21
559.452308340494
 31
0.0
  0
LINE
  5
569
330
22
100
AcDbEntity
  8
_4-7_
  6
Continuous
 62
     7
100
AcDbLine
 10
799.9764627552596
 20
559.452308340494
 30
0.0
 11
799.9600327540236
 21
559.4608471853379
 31
0.0
  0
LINE
  5
56A
330
22
100
AcDbEntity
  8
_4-7_
  6
Continuous
 62
     7
100
AcDbLine
 10
799.9600327540236
 20
559.4608471853379
 30
0.0
 11
799.9422221982025
 21
559.4666612538056
 31
0.0
  0
LINE
  5
56B
330
22
100
AcDbEntity
  8
_4-7_
  6
Continuous
 62
     7
100
AcDbLine
 10
799.9422221982025
 20
559.4666612538056
 30
0.0
 11
799.9235722525224
 21
559.4695738883692
 31
0.0
  0
LINE
  5
56C
330
22
100
AcDbEntity
  8
_4-7_
  6
Continuous
 62
     7
100
AcDbLine
 10
799.9235722525224
 20
559.4695738883692
 30
0.0
 11
799.9046495861453
 21
559.4694965901009
 31
0.0
  0
LINE
  5
56D
330
22
100
AcDbEntity
  8
_4-7_
  6
Continuous
 62
     7
100
AcDbLine
 10
799.9046495861453
 20
559.4694965901009
 30
0.0
 11
799.8860291547134
 21
559.4664317076697
 31
0.0
  0
LINE
  5
56E
330
22
100
AcDbEntity
  8
_4-7_
  6
Continuous
 62
     7
100
AcDbLine
 10
799.8860291547134
 20
559.4664317076697
 30
0.0
 11
799.8682767306137
 21
559.4604723659775
 31
0.0
  0
LINE
  5
56F
330
22
100
AcDbEntity
  8
_4-7_
  6
Continuous
 62
     7
100
AcDbLine
 10
799.8682767306137
 20
559.4604723659775
 30
0.0
 11
799.8519317122694
 21
559.4517996366057
 31
0.0
  0
LINE
  5
570
330
22
100
AcDbEntity
  8
_4-7_
  6
Continuous
 62
     7
100
AcDbLine
 10
799.8519317122694
 20
559.4517996366057
 30
0.0
 11
799.8374907347916
 21
559.4406770360479
 31
0.0
  0
LINE
  5
571
330
22
100
AcDbEntity
  8
_4-7_
  6
Continuous
 62
     7
100
AcDbLine
 10
799.8374907347916
 20
559.4406770360479
 30
0.0
 11
799.8253925799739
 21
559.4274425188936
 31
0.0
  0
LINE
  5
572
330
22
100
AcDbEntity
  8
_4-7_
  6
Continuous
 62
     7
100
AcDbLine
 10
799.8253925799739
 20
559.4274425188936
 30
0.0
 11
799.816004844128
 21
559.4124982092499
 31
0.0
  0
LINE
  5
573
330
22
100
AcDbEntity
  8
_4-7_
  6
Continuous
 62
     7
100
AcDbLine
 10
799.816004844128
 20
559.4124982092499
 30
0.0
 11
799.8096127688576
 21
559.3962981824027
 31
0.0
  0
LINE
  5
574
330
22
100
AcDbEntity
  8
_4-7_
  6
Continuous
 62
     7
100
AcDbLine
 10
799.8096127688576
 20
559.3962981824027
 30
0.0
 11
799.8064105741347
 21
559.3793346679705
 31
0.0
  0
LINE
  5
575
330
22
100
AcDbEntity
  8
_4-7_
  6
Continuous
 62
     7
100
AcDbLine
 10
799.8064105741347
 20
559.3793346679705
 30
0.0
 11
799.806402291591
 21
559.3792433493352
 31
0.0
  0
LINE
  5
576
330
22
100
AcDbEntity
  8
_4-7_
  6
Continuous
 62
     7
100
AcDbLine
 10
805.372191761841
 20
559.189800380586
 30
0.0
 11
805.372191761841
 21
559.189800380586
 31
0.0
  0
LINE
  5
577
330
22
100
AcDbEntity
  8
_4-7_
  6
Continuous
 62
     7
100
AcDbLine
 10
805.372191761841
 20
559.189800380586
 30
0.0
 11
805.3645292889363
 21
559.2425040248321
 31
0.0
  0
LINE
  5
578
330
22
100
AcDbEntity
  8
_4-7_
  6
Continuous
 62
     7
100
AcDbLine
 10
805.3645292889363
 20
559.2425040248321
 30
0.0
 11
805.3469214972444
 21
559.2931967257437
 31
0.0
  0
LINE
  5
579
330
22
100
AcDbEntity
  8
_4-7_
  6
Continuous
 62
     7
100
AcDbLine
 10
805.3469214972444
 20
559.2931967257437
 30
0.0
 11
805.3199033906057
 21
559.3403382112549
 31
0.0
  0
LINE
  5
57A
330
22
100
AcDbEntity
  8
_4-7_
  6
Continuous
 62
     7
100
AcDbLine
 10
805.3199033906057
 20
559.3403382112549
 30
0.0
 11
805.2842959005193
 21
559.3824961111836
 31
0.0
  0
LINE
  5
57B
330
22
100
AcDbEntity
  8
_4-7_
  6
Continuous
 62
     7
100
AcDbLine
 10
805.2842959005193
 20
559.3824961111836
 30
0.0
 11
805.2411809425526
 21
559.4183894790733
 31
0.0
  0
LINE
  5
57C
330
22
100
AcDbEntity
  8
_4-7_
  6
Continuous
 62
     7
100
AcDbLine
 10
805.2411809425526
 20
559.4183894790733
 30
0.0
 11
805.1918685428864
 21
559.4469277131033
 31
0.0
  0
LINE
  5
57D
330
22
100
AcDbEntity
  8
_4-7_
  6
Continuous
 62
     7
100
AcDbLine
 10
805.1918685428864
 20
559.4469277131033
 30
0.0
 11
805.1378570338313
 21
559.4672436934741
 31
0.0
  0
LINE
  5
57E
330
22
100
AcDbEntity
  8
_4-7_
  6
Continuous
 62
     7
100
AcDbLine
 10
805.1378570338313
 20
559.4672436934741
 30
0.0
 11
805.0807875277588
 21
559.4787201294024
 31
0.0
  0
LINE
  5
57F
330
22
100
AcDbEntity
  8
_4-7_
  6
Continuous
 62
     7
100
AcDbLine
 10
805.0807875277588
 20
559.4787201294024
 30
0.0
 11
805.022394052732
 21
559.4810083151896
 31
0.0
  0
LINE
  5
580
330
22
100
AcDbEntity
  8
_4-7_
  6
Continuous
 62
     7
100
AcDbLine
 10
805.022394052732
 20
559.4810083151896
 30
0.0
 11
804.9644508649416
 21
559.4740387254688
 31
0.0
  0
LINE
  5
581
330
22
100
AcDbEntity
  8
_4-7_
  6
Continuous
 62
     7
100
AcDbLine
 10
804.9644508649416
 20
559.4740387254688
 30
0.0
 11
804.908718538828
 21
559.4580231276965
 31
0.0
  0
LINE
  5
582
330
22
100
AcDbEntity
  8
_4-7_
  6
Continuous
 62
     7
100
AcDbLine
 10
804.908718538828
 20
559.4580231276965
 30
0.0
 11
804.8568904729178
 21
559.4334481477071
 31
0.0
  0
LINE
  5
583
330
22
100
AcDbEntity
  8
_4-7_
  6
Continuous
 62
     7
100
AcDbLine
 10
804.8568904729178
 20
559.4334481477071
 30
0.0
 11
804.8105414367674
 21
559.4010604838316
 31
0.0
  0
LINE
  5
584
330
22
100
AcDbEntity
  8
_4-7_
  6
Continuous
 62
     7
100
AcDbLine
 10
804.8105414367674
 20
559.4010604838316
 30
0.0
 11
804.7710797223867
 21
559.3618442188483
 31
0.0
  0
LINE
  5
585
330
22
100
AcDbEntity
  8
_4-7_
  6
Continuous
 62
     7
100
AcDbLine
 10
804.7710797223867
 20
559.3618442188483
 30
0.0
 11
804.7397043539985
 21
559.3169909191243
 31
0.0
  0
LINE
  5
586
330
22
100
AcDbEntity
  8
_4-7_
  6
Continuous
 62
     7
100
AcDbLine
 10
804.7397043539985
 20
559.3169909191243
 30
0.0
 11
804.7173686562947
 21
559.2678634294748
 31
0.0
  0
LINE
  5
587
330
22
100
AcDbEntity
  8
_4-7_
  6
Continuous
 62
     7
100
AcDbLine
 10
804.7173686562947
 20
559.2678634294748
 30
0.0
 11
804.7047512881475
 21
559.2159544638129
 31
0.0
  0
LINE
  5
588
330
22
100
AcDbEntity
  8
_4-7_
  6
Continuous
 62
     7
100
AcDbLine
 10
804.7047512881475
 20
559.2159544638129
 30
0.0
 11
804.7022356219036
 21
559.189800380586
 31
0.0
  0
LINE
  5
589
330
22
100
AcDbEntity
  8
_4-7_
  6
Continuous
 62
     7
100
AcDbLine
 10
810.2680250921542
 20
559.189800380586
 30
0.0
 11
810.2680250921542
 21
559.189800380586
 31
0.0
  0
LINE
  5
58A
330
22
100
AcDbEntity
  8
_4-7_
  6
Continuous
 62
     7
100
AcDbLine
 10
810.2680250921542
 20
559.189800380586
 30
0.0
 11
810.2603626192491
 21
559.2425040248321
 31
0.0
  0
LINE
  5
58B
330
22
100
AcDbEntity
  8
_4-7_
  6
Continuous
 62
     7
100
AcDbLine
 10
810.2603626192491
 20
559.2425040248321
 30
0.0
 11
810.2427548275574
 21
559.2931967257437
 31
0.0
  0
LINE
  5
58C
330
22
100
AcDbEntity
  8
_4-7_
  6
Continuous
 62
     7
100
AcDbLine
 10
810.2427548275574
 20
559.2931967257437
 30
0.0
 11
810.2157367209189
 21
559.3403382112549
 31
0.0
  0
LINE
  5
58D
330
22
100
AcDbEntity
  8
_4-7_
  6
Continuous
 62
     7
100
AcDbLine
 10
810.2157367209189
 20
559.3403382112549
 30
0.0
 11
810.1801292308323
 21
559.3824961111836
 31
0.0
  0
LINE
  5
58E
330
22
100
AcDbEntity
  8
_4-7_
  6
Continuous
 62
     7
100
AcDbLine
 10
810.1801292308323
 20
559.3824961111836
 30
0.0
 11
810.1370142728656
 21
559.4183894790733
 31
0.0
  0
LINE
  5
58F
330
22
100
AcDbEntity
  8
_4-7_
  6
Continuous
 62
     7
100
AcDbLine
 10
810.1370142728656
 20
559.4183894790733
 30
0.0
 11
810.0877018731994
 21
559.4469277131033
 31
0.0
  0
LINE
  5
590
330
22
100
AcDbEntity
  8
_4-7_
  6
Continuous
 62
     7
100
AcDbLine
 10
810.0877018731994
 20
559.4469277131033
 30
0.0
 11
810.0336903641444
 21
559.4672436934741
 31
0.0
  0
LINE
  5
591
330
22
100
AcDbEntity
  8
_4-7_
  6
Continuous
 62
     7
100
AcDbLine
 10
810.0336903641444
 20
559.4672436934741
 30
0.0
 11
809.9766208580716
 21
559.4787201294024
 31
0.0
  0
LINE
  5
592
330
22
100
AcDbEntity
  8
_4-7_
  6
Continuous
 62
     7
100
AcDbLine
 10
809.9766208580716
 20
559.4787201294024
 30
0.0
 11
809.9182273830452
 21
559.4810083151896
 31
0.0
  0
LINE
  5
593
330
22
100
AcDbEntity
  8
_4-7_
  6
Continuous
 62
     7
100
AcDbLine
 10
809.9182273830452
 20
559.4810083151896
 30
0.0
 11
809.8602841952548
 21
559.4740387254688
 31
0.0
  0
LINE
  5
594
330
22
100
AcDbEntity
  8
_4-7_
  6
Continuous
 62
     7
100
AcDbLine
 10
809.8602841952548
 20
559.4740387254688
 30
0.0
 11
809.8045518691408
 21
559.4580231276965
 31
0.0
  0
LINE
  5
595
330
22
100
AcDbEntity
  8
_4-7_
  6
Continuous
 62
     7
100
AcDbLine
 10
809.8045518691408
 20
559.4580231276965
 30
0.0
 11
809.7527238032308
 21
559.4334481477071
 31
0.0
  0
LINE
  5
596
330
22
100
AcDbEntity
  8
_4-7_
  6
Continuous
 62
     7
100
AcDbLine
 10
809.7527238032308
 20
559.4334481477071
 30
0.0
 11
809.7063747670803
 21
559.4010604838316
 31
0.0
  0
LINE
  5
597
330
22
100
AcDbEntity
  8
_4-7_
  6
Continuous
 62
     7
100
AcDbLine
 10
809.7063747670803
 20
559.4010604838316
 30
0.0
 11
809.6669130526999
 21
559.3618442188483
 31
0.0
  0
LINE
  5
598
330
22
100
AcDbEntity
  8
_4-7_
  6
Continuous
 62
     7
100
AcDbLine
 10
809.6669130526999
 20
559.3618442188483
 30
0.0
 11
809.6355376843117
 21
559.3169909191243
 31
0.0
  0
LINE
  5
599
330
22
100
AcDbEntity
  8
_4-7_
  6
Continuous
 62
     7
100
AcDbLine
 10
809.6355376843117
 20
559.3169909191243
 30
0.0
 11
809.6132019866077
 21
559.2678634294748
 31
0.0
  0
LINE
  5
59A
330
22
100
AcDbEntity
  8
_4-7_
  6
Continuous
 62
     7
100
AcDbLine
 10
809.6132019866077
 20
559.2678634294748
 30
0.0
 11
809.6005846184606
 21
559.2159544638129
 31
0.0
  0
LINE
  5
59B
330
22
100
AcDbEntity
  8
_4-7_
  6
Continuous
 62
     7
100
AcDbLine
 10
809.6005846184606
 20
559.2159544638129
 30
0.0
 11
809.5980689522166
 21
559.189800380586
 31
0.0
  0
LINE
  5
59C
330
22
100
AcDbEntity
  8
_4-7_
  6
Continuous
 62
     7
100
AcDbLine
 10
798.3118847486531
 20
559.3930608873365
 30
0.0
 11
798.3118847486531
 21
559.3930608873365
 31
0.0
  0
LINE
  5
59D
330
22
100
AcDbEntity
  8
_4-7_
  6
Continuous
 62
     7
100
AcDbLine
 10
798.3118847486531
 20
559.3930608873365
 30
0.0
 11
798.2283945444236
 21
559.4156766460251
 31
0.0
  0
LINE
  5
59E
330
22
100
AcDbEntity
  8
_4-7_
  6
Continuous
 62
     7
100
AcDbLine
 10
798.2283945444236
 20
559.4156766460251
 30
0.0
 11
798.1418551367891
 21
559.4247618809884
 31
0.0
  0
LINE
  5
59F
330
22
100
AcDbEntity
  8
_4-7_
  6
Continuous
 62
     7
100
AcDbLine
 10
798.1418551367891
 20
559.4247618809884
 30
0.0
 11
798.1057443979033
 21
559.4244829705167
 31
0.0
  0
LINE
  5
5A0
330
22
100
AcDbEntity
  8
_4-7_
  6
Continuous
 62
     7
100
AcDbLine
 10
796.8689022934035
 20
559.7416967868363
 30
0.0
 11
796.8689022934035
 21
559.7416967868363
 31
0.0
  0
LINE
  5
5A1
330
22
100
AcDbEntity
  8
_4-7_
  6
Continuous
 62
     7
100
AcDbLine
 10
796.8689022934035
 20
559.7416967868363
 30
0.0
 11
796.9036089028896
 21
559.7454722728006
 31
0.0
  0
LINE
  5
5A2
330
22
100
AcDbEntity
  8
_4-7_
  6
Continuous
 62
     7
100
AcDbLine
 10
796.9036089028896
 20
559.7454722728006
 30
0.0
 11
796.9370674575046
 21
559.7546721690191
 31
0.0
  0
LINE
  5
5A3
330
22
100
AcDbEntity
  8
_4-7_
  6
Continuous
 62
     7
100
AcDbLine
 10
796.9370674575046
 20
559.7546721690191
 30
0.0
 11
796.968261335998
 21
559.7690169413007
 31
0.0
  0
LINE
  5
5A4
330
22
100
AcDbEntity
  8
_4-7_
  6
Continuous
 62
     7
100
AcDbLine
 10
796.968261335998
 20
559.7690169413007
 30
0.0
 11
796.9962427281564
 21
559.7880707309983
 31
0.0
  0
LINE
  5
5A5
330
22
100
AcDbEntity
  8
_4-7_
  6
Continuous
 62
     7
100
AcDbLine
 10
796.9962427281564
 20
559.7880707309983
 30
0.0
 11
797.0201614335382
 21
559.8112545983537
 31
0.0
  0
LINE
  5
5A6
330
22
100
AcDbEntity
  8
_4-7_
  6
Continuous
 62
     7
100
AcDbLine
 10
797.0201614335382
 20
559.8112545983537
 30
0.0
 11
797.0392906943841
 21
559.8378641132889
 31
0.0
  0
LINE
  5
5A7
330
22
100
AcDbEntity
  8
_4-7_
  6
Continuous
 62
     7
100
AcDbLine
 10
797.0392906943841
 20
559.8378641132889
 30
0.0
 11
797.0530492777827
 21
559.8670907591577
 31
0.0
  0
LINE
  5
5A8
330
22
100
AcDbEntity
  8
_4-7_
  6
Continuous
 62
     7
100
AcDbLine
 10
797.0530492777827
 20
559.8670907591577
 30
0.0
 11
797.0610191361401
 21
559.8980464991146
 31
0.0
  0
LINE
  5
5A9
330
22
100
AcDbEntity
  8
_4-7_
  6
Continuous
 62
     7
100
AcDbLine
 10
797.0610191361401
 20
559.8980464991146
 30
0.0
 11
797.0629581093428
 21
559.9297907586654
 31
0.0
  0
LINE
  5
5AA
330
22
100
AcDbEntity
  8
_4-7_
  6
Continuous
 62
     7
100
AcDbLine
 10
797.0629581093428
 20
559.9297907586654
 30
0.0
 11
797.0588072826711
 21
559.9613590045473
 31
0.0
  0
LINE
  5
5AB
330
22
100
AcDbEntity
  8
_4-7_
  6
Continuous
 62
     7
100
AcDbLine
 10
797.0588072826711
 20
559.9613590045473
 30
0.0
 11
797.0486927768932
 21
559.9917920515832
 31
0.0
  0
LINE
  5
5AC
330
22
100
AcDbEntity
  8
_4-7_
  6
Continuous
 62
     7
100
AcDbLine
 10
797.0486927768932
 20
559.9917920515832
 30
0.0
 11
797.032921916149
 21
560.0201652070389
 31
0.0
  0
LINE
  5
5AD
330
22
100
AcDbEntity
  8
_4-7_
  6
Continuous
 62
     7
100
AcDbLine
 10
797.032921916149
 20
560.0201652070389
 30
0.0
 11
797.0119738900615
 21
560.0456163669433
 31
0.0
  0
LINE
  5
5AE
330
22
100
AcDbEntity
  8
_4-7_
  6
Continuous
 62
     7
100
AcDbLine
 10
797.0119738900615
 20
560.0456163669433
 30
0.0
 11
796.9864851938035
 21
560.0673722106817
 31
0.0
  0
LINE
  5
5AF
330
22
100
AcDbEntity
  8
_4-7_
  6
Continuous
 62
     7
100
AcDbLine
 10
796.9864851938035
 20
560.0673722106817
 30
0.0
 11
796.9572302885126
 21
560.0847716979512
 31
0.0
  0
LINE
  5
5B0
330
22
100
AcDbEntity
  8
_4-7_
  6
Continuous
 62
     7
100
AcDbLine
 10
796.9572302885126
 20
560.0847716979512
 30
0.0
 11
796.9250980696828
 21
560.0972861541353
 31
0.0
  0
LINE
  5
5B1
330
22
100
AcDbEntity
  8
_4-7_
  6
Continuous
 62
     7
100
AcDbLine
 10
796.9250980696828
 20
560.0972861541353
 30
0.0
 11
796.8910648585229
 21
560.1045353338157
 31
0.0
  0
LINE
  5
5B2
330
22
100
AcDbEntity
  8
_4-7_
  6
Continuous
 62
     7
100
AcDbLine
 10
796.8910648585229
 20
560.1045353338157
 30
0.0
 11
796.8561647369328
 21
560.1062989743362
 31
0.0
  0
LINE
  5
5B3
330
22
100
AcDbEntity
  8
_4-7_
  6
Continuous
 62
     7
100
AcDbLine
 10
796.8561647369328
 20
560.1062989743362
 30
0.0
 11
796.8561647369328
 21
560.1062989743362
 31
0.0
  0
LINE
  5
5B4
330
22
100
AcDbEntity
  8
_4-7_
  6
Continuous
 62
     7
100
AcDbLine
 10
819.973697728709
 20
563.0452691305858
 30
0.0
 11
822.5333759617784
 21
563.0452691305858
 31
0.0
  0
LINE
  5
5B5
330
22
100
AcDbEntity
  8
_4-7_
  6
Continuous
 62
     7
100
AcDbLine
 10
822.5333759617784
 20
563.0452691305858
 30
0.0
 11
822.5333759617784
 21
561.1702691305858
 31
0.0
  0
LINE
  5
5B6
330
22
100
AcDbEntity
  8
_4-7_
  6
Continuous
 62
     7
100
AcDbLine
 10
819.973697728709
 20
563.0452691305858
 30
0.0
 11
819.4583471535818
 21
563.5140191305858
 31
0.0
  0
LINE
  5
5B7
330
22
100
AcDbEntity
  8
_4-7_
  6
Continuous
 62
     7
100
AcDbLine
 10
819.4583471535818
 20
563.5140191305858
 30
0.0
 11
818.1467185741347
 21
563.5140191305858
 31
0.0
  0
LINE
  5
5B8
330
22
100
AcDbEntity
  8
_4-7_
  6
Continuous
 62
     7
100
AcDbLine
 10
818.1467185741347
 20
563.5140191305858
 30
0.0
 11
815.5732227533542
 21
563.1713820993357
 31
0.0
  0
LINE
  5
5B9
330
22
100
AcDbEntity
  8
_4-7_
  6
Continuous
 62
     7
100
AcDbLine
 10
815.5732227533542
 20
563.1713820993357
 30
0.0
 11
815.3184636855279
 21
563.0201797555858
 31
0.0
  0
LINE
  5
5BA
330
22
100
AcDbEntity
  8
_4-7_
  6
Continuous
 62
     7
100
AcDbLine
 10
815.3184636855279
 20
563.0201797555858
 30
0.0
 11
815.3184636855279
 21
563.0452691305858
 31
0.0
  0
LINE
  5
5BB
330
22
100
AcDbEntity
  8
_4-7_
  6
Continuous
 62
     7
100
AcDbLine
 10
815.3184636855279
 20
563.0452691305858
 30
0.0
 11
814.1846917564041
 21
563.0452691305858
 31
0.0
  0
LINE
  5
5BC
330
22
100
AcDbEntity
  8
_4-7_
  6
Continuous
 62
     7
100
AcDbLine
 10
814.1846917564041
 20
563.0452691305858
 30
0.0
 11
813.6693408795292
 21
562.7746362802306
 31
0.0
  0
LINE
  5
5BD
330
22
100
AcDbEntity
  8
_4-7_
  6
Continuous
 62
     7
100
AcDbLine
 10
813.5147356164656
 20
562.8558261618357
 30
0.0
 11
813.5147356164656
 21
563.4671441305864
 31
0.0
  0
LINE
  5
5BE
330
22
100
AcDbEntity
  8
_4-7_
  6
Continuous
 62
     7
100
AcDbLine
 10
813.5147356164656
 20
563.4671441305864
 30
0.0
 11
810.8688664952907
 21
563.4671441305864
 31
0.0
  0
LINE
  5
5BF
330
22
100
AcDbEntity
  8
_4-7_
  6
Continuous
 62
     7
100
AcDbLine
 10
810.8688664952907
 20
563.4671441305864
 30
0.0
 11
810.2680250921535
 21
563.153725693086
 31
0.0
  0
LINE
  5
5C0
330
22
100
AcDbEntity
  8
_4-7_
  6
Continuous
 62
     7
100
AcDbLine
 10
810.2680250921535
 20
563.153725693086
 30
0.0
 11
810.2680250921535
 21
563.1507378805852
 31
0.0
  0
LINE
  5
5C1
330
22
100
AcDbEntity
  8
_4-7_
  6
Continuous
 62
     7
100
AcDbLine
 10
810.2680253132676
 20
563.1507352722828
 30
0.0
 11
810.2680250921535
 21
563.1507378805852
 31
0.0
  0
LINE
  5
5C2
330
22
100
AcDbEntity
  8
_4-7_
  6
Continuous
 62
     7
100
AcDbLine
 10
810.2680253132676
 20
563.1507352722828
 30
0.0
 11
810.2680250921535
 21
563.1507378805852
 31
0.0
  0
LINE
  5
5C3
330
22
100
AcDbEntity
  8
_4-7_
  6
Continuous
 62
     7
100
AcDbLine
 10
809.5980689522161
 20
563.1303683493367
 30
0.0
 11
809.5980689522161
 21
563.4671441305864
 31
0.0
  0
LINE
  5
5C4
330
22
100
AcDbEntity
  8
_4-7_
  6
Continuous
 62
     7
100
AcDbLine
 10
809.5980689522161
 20
563.4671441305864
 30
0.0
 11
805.9747982417331
 21
563.4671441305864
 31
0.0
  0
LINE
  5
5C5
330
22
100
AcDbEntity
  8
_4-7_
  6
Continuous
 62
     7
100
AcDbLine
 10
805.9747982417331
 20
563.4671441305864
 30
0.0
 11
805.372203635629
 21
563.1507396386724
 31
0.0
  0
LINE
  5
5C6
330
22
100
AcDbEntity
  8
_4-7_
  6
Continuous
 62
     7
100
AcDbLine
 10
805.3721917618405
 20
563.1507378805852
 30
0.0
 11
805.6705988851158
 21
563.1484931116132
 31
0.0
  0
LINE
  5
5C7
330
22
100
AcDbEntity
  8
_4-7_
  6
Continuous
 62
     7
100
AcDbLine
 10
805.6705988851158
 20
563.1484931116132
 30
0.0
 11
805.6814022879663
 21
562.9480681068482
 31
0.0
  0
LINE
  5
5C8
330
22
100
AcDbEntity
  8
_4-7_
  6
Continuous
 62
     7
100
AcDbLine
 10
805.8360075510289
 20
562.848904331744
 30
0.0
 11
806.3513584279029
 21
563.1303683493367
 31
0.0
  0
LINE
  5
5C9
330
22
100
AcDbEntity
  8
_4-7_
  6
Continuous
 62
     7
100
AcDbLine
 10
806.3513584279029
 20
563.1303683493367
 30
0.0
 11
806.6497655960255
 21
563.1303684444129
 31
0.0
  0
LINE
  5
5CA
330
22
100
AcDbEntity
  8
_4-7_
  6
Continuous
 62
     7
100
AcDbLine
 10
806.6497655960255
 20
563.1303684444129
 30
0.0
 11
806.6605689540288
 21
562.9128481930856
 31
0.0
  0
LINE
  5
5CB
330
22
100
AcDbEntity
  8
_4-7_
  6
Continuous
 62
     7
100
AcDbLine
 10
806.8151742170913
 20
562.8131045995112
 30
0.0
 11
807.3305250939663
 21
563.1303683493367
 31
0.0
  0
LINE
  5
5CC
330
22
100
AcDbEntity
  8
_4-7_
  6
Continuous
 62
     7
100
AcDbLine
 10
807.3305250939663
 20
563.1303683493367
 30
0.0
 11
807.6289323196588
 21
563.1303683493367
 31
0.0
  0
LINE
  5
5CD
330
22
100
AcDbEntity
  8
_4-7_
  6
Continuous
 62
     7
100
AcDbLine
 10
807.6289323196588
 20
563.1303683493367
 30
0.0
 11
807.6397356200912
 21
562.9128481930856
 31
0.0
  0
LINE
  5
5CE
330
22
100
AcDbEntity
  8
_4-7_
  6
Continuous
 62
     7
100
AcDbLine
 10
807.7943408831536
 20
562.8131045995112
 30
0.0
 11
808.3096917600286
 21
563.1303683493367
 31
0.0
  0
LINE
  5
5CF
330
22
100
AcDbEntity
  8
_4-7_
  6
Continuous
 62
     7
100
AcDbLine
 10
808.3096917600286
 20
563.1303683493367
 30
0.0
 11
808.6080989857213
 21
563.1303683493367
 31
0.0
  0
LINE
  5
5D0
330
22
100
AcDbEntity
  8
_4-7_
  6
Continuous
 62
     7
100
AcDbLine
 10
808.6080989857213
 20
563.1303683493367
 30
0.0
 11
808.6189022861535
 21
562.9128481930856
 31
0.0
  0
LINE
  5
5D1
330
22
100
AcDbEntity
  8
_4-7_
  6
Continuous
 62
     7
100
AcDbLine
 10
808.773507549216
 20
562.8131045995112
 30
0.0
 11
809.2888584260913
 21
563.1303684444129
 31
0.0
  0
LINE
  5
5D2
330
22
100
AcDbEntity
  8
_4-7_
  6
Continuous
 62
     7
100
AcDbLine
 10
809.2888584260913
 20
563.1303684444129
 30
0.0
 11
809.5980689522161
 21
563.1303683493367
 31
0.0
  0
LINE
  5
5D3
330
22
100
AcDbEntity
  8
_4-7_
  6
Continuous
 62
     7
100
AcDbLine
 10
810.2680253132676
 20
563.1507352722828
 30
0.0
 11
810.5664324813892
 21
563.1484320215045
 31
0.0
  0
LINE
  5
5D4
330
22
100
AcDbEntity
  8
_4-7_
  6
Continuous
 62
     7
100
AcDbLine
 10
810.5664324813892
 20
563.1484320215045
 30
0.0
 11
810.5772356182782
 21
562.9500289743364
 31
0.0
  0
LINE
  5
5D5
330
22
100
AcDbEntity
  8
_4-7_
  6
Continuous
 62
     7
100
AcDbLine
 10
810.7318408813407
 20
562.8487213866358
 30
0.0
 11
811.247191758216
 21
563.1303684444129
 31
0.0
  0
LINE
  5
5D6
330
22
100
AcDbEntity
  8
_4-7_
  6
Continuous
 62
     7
100
AcDbLine
 10
811.247191758216
 20
563.1303684444129
 30
0.0
 11
811.5455989263374
 21
563.1303684444129
 31
0.0
  0
LINE
  5
5D7
330
22
100
AcDbEntity
  8
_4-7_
  6
Continuous
 62
     7
100
AcDbLine
 10
811.5455989263374
 20
563.1303684444129
 30
0.0
 11
811.5564022843408
 21
562.9128481930856
 31
0.0
  0
LINE
  5
5D8
330
22
100
AcDbEntity
  8
_4-7_
  6
Continuous
 62
     7
100
AcDbLine
 10
811.7110075474032
 20
562.8131045995112
 30
0.0
 11
812.2263584242782
 21
563.1303683493367
 31
0.0
  0
LINE
  5
5D9
330
22
100
AcDbEntity
  8
_4-7_
  6
Continuous
 62
     7
100
AcDbLine
 10
812.2263584242782
 20
563.1303683493367
 30
0.0
 11
812.5247655923999
 21
563.1303684444129
 31
0.0
  0
LINE
  5
5DA
330
22
100
AcDbEntity
  8
_4-7_
  6
Continuous
 62
     7
100
AcDbLine
 10
812.5247655923999
 20
563.1303684444129
 30
0.0
 11
812.5357136886281
 21
562.9122943852805
 31
0.0
  0
LINE
  5
5DB
330
22
100
AcDbEntity
  8
_4-7_
  6
Continuous
 62
     7
100
AcDbLine
 10
812.690174213467
 20
562.8131045995112
 30
0.0
 11
813.2055250903405
 21
563.1303684444129
 31
0.0
  0
LINE
  5
5DC
330
22
100
AcDbEntity
  8
_4-7_
  6
Continuous
 62
     7
100
AcDbLine
 10
813.2055250903405
 20
563.1303684444129
 30
0.0
 11
813.5147356164656
 21
563.1303683458943
 31
0.0
  0
LINE
  5
5DD
330
22
100
AcDbEntity
  8
_4-7_
  6
Continuous
 62
     7
100
AcDbLine
 10
804.7022356219041
 20
563.1303683493367
 30
0.0
 11
804.7022356219041
 21
563.4671441305864
 31
0.0
  0
LINE
  5
5DE
330
22
100
AcDbEntity
  8
_4-7_
  6
Continuous
 62
     7
100
AcDbLine
 10
804.7022356219041
 20
563.4671441305864
 30
0.0
 11
802.6720845376303
 21
563.4671441305864
 31
0.0
  0
LINE
  5
5DF
330
22
100
AcDbEntity
  8
_4-7_
  6
Continuous
 62
     7
100
AcDbLine
 10
802.6720845376303
 20
563.4671441305864
 30
0.0
 11
800.4763584315286
 21
563.1510280368356
 31
0.0
  0
LINE
  5
5E0
330
22
100
AcDbEntity
  8
_4-7_
  6
Continuous
 62
     7
100
AcDbLine
 10
800.4763584315286
 20
563.1510280368356
 30
0.0
 11
800.7747653591172
 21
563.150568963297
 31
0.0
  0
LINE
  5
5E1
330
22
100
AcDbEntity
  8
_4-7_
  6
Continuous
 62
     7
100
AcDbLine
 10
800.7747653591172
 20
563.150568963297
 30
0.0
 11
800.7855689576535
 21
562.9576386618352
 31
0.0
  0
LINE
  5
5E2
330
22
100
AcDbEntity
  8
_4-7_
  6
Continuous
 62
     7
100
AcDbLine
 10
800.4763584315286
 20
563.1510280368356
 30
0.0
 11
799.9610075546535
 21
562.880105030231
 31
0.0
  0
LINE
  5
5E3
330
22
100
AcDbEntity
  8
_4-7_
  6
Continuous
 62
     7
100
AcDbLine
 10
800.9401742207158
 20
562.8672908088426
 30
0.0
 11
801.4555250975909
 21
563.1489172672561
 31
0.0
  0
LINE
  5
5E4
330
22
100
AcDbEntity
  8
_4-7_
  6
Continuous
 62
     7
100
AcDbLine
 10
801.4555250975909
 20
563.1489172672561
 30
0.0
 11
801.7539320251783
 21
563.1476142020917
 31
0.0
  0
LINE
  5
5E5
330
22
100
AcDbEntity
  8
_4-7_
  6
Continuous
 62
     7
100
AcDbLine
 10
801.7539320251783
 20
563.1476142020917
 30
0.0
 11
801.7647356237159
 21
562.9461599118362
 31
0.0
  0
LINE
  5
5E6
330
22
100
AcDbEntity
  8
_4-7_
  6
Continuous
 62
     7
100
AcDbLine
 10
801.9193408867783
 20
562.8533439769491
 30
0.0
 11
802.4346915231193
 21
563.1432613890276
 31
0.0
  0
LINE
  5
5E7
330
22
100
AcDbEntity
  8
_4-7_
  6
Continuous
 62
     7
100
AcDbLine
 10
802.4346915231193
 20
563.1432613890276
 30
0.0
 11
802.7330986912419
 21
563.1407221135921
 31
0.0
  0
LINE
  5
5E8
330
22
100
AcDbEntity
  8
_4-7_
  6
Continuous
 62
     7
100
AcDbLine
 10
802.7330986912419
 20
563.1407221135921
 30
0.0
 11
802.7439022897782
 21
562.9315637665492
 31
0.0
  0
LINE
  5
5E9
330
22
100
AcDbEntity
  8
_4-7_
  6
Continuous
 62
     7
100
AcDbLine
 10
802.8985075528405
 20
562.8332796314444
 30
0.0
 11
803.4138581891827
 21
563.1334062715725
 31
0.0
  0
LINE
  5
5EA
330
22
100
AcDbEntity
  8
_4-7_
  6
Continuous
 62
     7
100
AcDbLine
 10
803.4138581891827
 20
563.1334062715725
 30
0.0
 11
803.7122656554082
 21
563.1303683493367
 31
0.0
  0
LINE
  5
5EB
330
22
100
AcDbEntity
  8
_4-7_
  6
Continuous
 62
     7
100
AcDbLine
 10
803.7122656554082
 20
563.1303683493367
 30
0.0
 11
803.7230689558416
 21
562.9128481930856
 31
0.0
  0
LINE
  5
5EC
330
22
100
AcDbEntity
  8
_4-7_
  6
Continuous
 62
     7
100
AcDbLine
 10
803.877674218903
 20
562.8131045995112
 30
0.0
 11
804.3930250957782
 21
563.1303684444129
 31
0.0
  0
LINE
  5
5ED
330
22
100
AcDbEntity
  8
_4-7_
  6
Continuous
 62
     7
100
AcDbLine
 10
804.3930250957782
 20
563.1303684444129
 30
0.0
 11
804.7022356219041
 21
563.1303683493367
 31
0.0
  0
LINE
  5
5EE
330
22
100
AcDbEntity
  8
_4-7_
  6
Continuous
 62
     7
100
AcDbLine
 10
799.8064022915912
 20
562.961294911836
 30
0.0
 11
799.8064022915912
 21
563.0452691305858
 31
0.0
  0
LINE
  5
5EF
330
22
100
AcDbEntity
  8
_4-7_
  6
Continuous
 62
     7
100
AcDbLine
 10
799.8064022915912
 20
563.0452691305858
 30
0.0
 11
799.3168189585595
 21
563.0452691305858
 31
0.0
  0
LINE
  5
5F0
330
22
100
AcDbEntity
  8
_4-7_
  6
Continuous
 62
     7
100
AcDbLine
 10
799.3168189585595
 20
563.0452691305858
 30
0.0
 11
799.3168189585595
 21
562.9515191305861
 31
0.0
  0
LINE
  5
5F1
330
22
100
AcDbEntity
  8
_4-7_
  6
Continuous
 62
     7
100
AcDbLine
 10
799.3168189585595
 20
562.9515191305861
 30
0.0
 11
798.3118847486536
 21
562.9515191305861
 31
0.0
  0
LINE
  5
5F2
330
22
100
AcDbEntity
  8
_4-7_
  6
Continuous
 62
     7
100
AcDbLine
 10
798.3118847486536
 20
562.9515191305861
 30
0.0
 11
798.3118847486536
 21
562.9474773738357
 31
0.0
  0
LINE
  5
5F3
330
22
100
AcDbEntity
  8
_4-7_
  6
Continuous
 62
     7
100
AcDbLine
 10
798.1057443979034
 20
562.9160553805856
 30
0.0
 11
794.3867184023917
 21
562.9160552889995
 31
0.0
  0
LINE
  5
5F4
330
22
100
AcDbEntity
  8
_4-7_
  6
Continuous
 62
     7
100
AcDbLine
 10
794.3867184023917
 20
562.9160552889995
 30
0.0
 11
793.9795803872914
 21
562.640781943086
 31
0.0
  0
LINE
  5
5F5
330
22
100
AcDbEntity
  8
_4-7_
  6
Continuous
 62
     7
100
AcDbLine
 10
793.9795803872914
 20
562.640781943086
 30
0.0
 11
793.1583759799035
 21
562.0140191305861
 31
0.0
  0
LINE
  5
5F6
330
22
100
AcDbEntity
  8
_4-7_
  6
Continuous
 62
     7
100
AcDbLine
 10
793.1583759799035
 20
562.0140191305861
 30
0.0
 11
793.1583759799035
 21
561.9206575809017
 31
0.0
  0
LINE
  5
5F7
330
22
100
AcDbEntity
  8
_4-7_
  6
Continuous
 62
     7
100
AcDbLine
 10
793.1583759799035
 20
561.9206575809017
 30
0.0
 11
794.3867184023917
 21
562.5988413992242
 31
0.0
  0
LINE
  5
5F8
330
22
100
AcDbEntity
  8
_4-7_
  6
Continuous
 62
     7
100
AcDbLine
 10
794.3867184023917
 20
562.5988413992242
 30
0.0
 11
796.8689022934039
 21
562.598841474336
 31
0.0
  0
LINE
  5
5F9
330
22
100
AcDbEntity
  8
_4-7_
  6
Continuous
 62
     7
100
AcDbLine
 10
796.8689022934039
 20
562.234239286836
 30
0.0
 11
794.3867184978285
 21
562.2342394577312
 31
0.0
  0
LINE
  5
5FA
330
22
100
AcDbEntity
  8
_4-7_
  6
Continuous
 62
     7
100
AcDbLine
 10
794.3867184978285
 20
562.2342394577312
 30
0.0
 11
793.1583759799035
 21
561.5560554794606
 31
0.0
  0
LINE
  5
5FB
330
22
100
AcDbEntity
  8
_4-7_
  6
Continuous
 62
     7
100
AcDbLine
 10
793.1583759799035
 20
561.5560554794606
 30
0.0
 11
793.1583759799035
 21
561.1702691305858
 31
0.0
  0
LINE
  5
5FC
330
22
100
AcDbEntity
  8
_4-7_
  6
Continuous
 62
     7
100
AcDbLine
 10
813.5147356164656
 20
562.8558261618368
 30
0.0
 11
813.5147356164656
 21
562.8558261618368
 31
0.0
  0
LINE
  5
5FD
330
22
100
AcDbEntity
  8
_4-7_
  6
Continuous
 62
     7
100
AcDbLine
 10
813.5147356164656
 20
562.8558261618368
 30
0.0
 11
813.5176442319126
 21
562.8389771300239
 31
0.0
  0
LINE
  5
5FE
330
22
100
AcDbEntity
  8
_4-7_
  6
Continuous
 62
     7
100
AcDbLine
 10
813.5176442319126
 20
562.8389771300239
 30
0.0
 11
813.5237253319939
 21
562.8228434768907
 31
0.0
  0
LINE
  5
5FF
330
22
100
AcDbEntity
  8
_4-7_
  6
Continuous
 62
     7
100
AcDbLine
 10
813.5237253319939
 20
562.8228434768907
 30
0.0
 11
813.5327941455605
 21
562.8079154153237
 31
0.0
  0
LINE
  5
600
330
22
100
AcDbEntity
  8
_4-7_
  6
Continuous
 62
     7
100
AcDbLine
 10
813.5327941455605
 20
562.8079154153237
 30
0.0
 11
813.5445751213012
 21
562.7946465269194
 31
0.0
  0
LINE
  5
601
330
22
100
AcDbEntity
  8
_4-7_
  6
Continuous
 62
     7
100
AcDbLine
 10
813.5445751213012
 20
562.7946465269194
 30
0.0
 11
813.5587103002301
 21
562.7834399801378
 31
0.0
  0
LINE
  5
602
330
22
100
AcDbEntity
  8
_4-7_
  6
Continuous
 62
     7
100
AcDbLine
 10
813.5587103002301
 20
562.7834399801378
 30
0.0
 11
813.5747701920875
 21
562.7746362802319
 31
0.0
  0
LINE
  5
603
330
22
100
AcDbEntity
  8
_4-7_
  6
Continuous
 62
     7
100
AcDbLine
 10
813.5747701920875
 20
562.7746362802319
 30
0.0
 11
813.5922668251863
 21
562.7685029231687
 31
0.0
  0
LINE
  5
604
330
22
100
AcDbEntity
  8
_4-7_
  6
Continuous
 62
     7
100
AcDbLine
 10
813.5922668251863
 20
562.7685029231687
 30
0.0
 11
813.6106685731835
 21
562.7652262678988
 31
0.0
  0
LINE
  5
605
330
22
100
AcDbEntity
  8
_4-7_
  6
Continuous
 62
     7
100
AcDbLine
 10
813.6106685731835
 20
562.7652262678988
 30
0.0
 11
813.629416308278
 21
562.7649058739344
 31
0.0
  0
LINE
  5
606
330
22
100
AcDbEntity
  8
_4-7_
  6
Continuous
 62
     7
100
AcDbLine
 10
813.629416308278
 20
562.7649058739344
 30
0.0
 11
813.6479403900258
 21
562.7675514762841
 31
0.0
  0
LINE
  5
607
330
22
100
AcDbEntity
  8
_4-7_
  6
Continuous
 62
     7
100
AcDbLine
 10
813.6479403900258
 20
562.7675514762841
 30
0.0
 11
813.6656779735764
 21
562.7730826896593
 31
0.0
  0
LINE
  5
608
330
22
100
AcDbEntity
  8
_4-7_
  6
Continuous
 62
     7
100
AcDbLine
 10
813.6656779735764
 20
562.7730826896593
 30
0.0
 11
813.6820901114296
 21
562.7813314509403
 31
0.0
  0
LINE
  5
609
330
22
100
AcDbEntity
  8
_4-7_
  6
Continuous
 62
     7
100
AcDbLine
 10
813.6820901114296
 20
562.7813314509403
 30
0.0
 11
813.6820905124444
 21
562.7813316962637
 31
0.0
  0
LINE
  5
60A
330
22
100
AcDbEntity
  8
_4-7_
  6
Continuous
 62
     7
100
AcDbLine
 10
812.5355689504038
 20
562.9128481930868
 30
0.0
 11
812.5355689504038
 21
562.9128481930868
 31
0.0
  0
LINE
  5
60B
330
22
100
AcDbEntity
  8
_4-7_
  6
Continuous
 62
     7
100
AcDbLine
 10
812.5355689504038
 20
562.9128481930868
 30
0.0
 11
812.543389919316
 21
562.8912711753774
 31
0.0
  0
LINE
  5
60C
330
22
100
AcDbEntity
  8
_4-7_
  6
Continuous
 62
     7
100
AcDbLine
 10
812.543389919316
 20
562.8912711753774
 30
0.0
 11
812.5552113698022
 21
562.8712572514067
 31
0.0
  0
LINE
  5
60D
330
22
100
AcDbEntity
  8
_4-7_
  6
Continuous
 62
     7
100
AcDbLine
 10
812.5552113698022
 20
562.8712572514067
 30
0.0
 11
812.5706741130718
 21
562.853414534127
 31
0.0
  0
LINE
  5
60E
330
22
100
AcDbEntity
  8
_4-7_
  6
Continuous
 62
     7
100
AcDbLine
 10
812.5706741130718
 20
562.853414534127
 30
0.0
 11
812.589308321495
 21
562.8382851654739
 31
0.0
  0
LINE
  5
60F
330
22
100
AcDbEntity
  8
_4-7_
  6
Continuous
 62
     7
100
AcDbLine
 10
812.589308321495
 20
562.8382851654739
 30
0.0
 11
812.6105478040782
 21
562.8263288436583
 31
0.0
  0
LINE
  5
610
330
22
100
AcDbEntity
  8
_4-7_
  6
Continuous
 62
     7
100
AcDbLine
 10
812.6105478040782
 20
562.8263288436583
 30
0.0
 11
812.633747209891
 21
562.8179088554682
 31
0.0
  0
LINE
  5
611
330
22
100
AcDbEntity
  8
_4-7_
  6
Continuous
 62
     7
100
AcDbLine
 10
812.633747209891
 20
562.8179088554682
 30
0.0
 11
812.6582016367272
 21
562.8132810379839
 31
0.0
  0
LINE
  5
612
330
22
100
AcDbEntity
  8
_4-7_
  6
Continuous
 62
     7
100
AcDbLine
 10
812.6582016367272
 20
562.8132810379839
 30
0.0
 11
812.6831680492015
 21
562.8125860050983
 31
0.0
  0
LINE
  5
613
330
22
100
AcDbEntity
  8
_4-7_
  6
Continuous
 62
     7
100
AcDbLine
 10
812.6831680492015
 20
562.8125860050983
 30
0.0
 11
812.6901742134663
 21
562.8131045995113
 31
0.0
  0
LINE
  5
614
330
22
100
AcDbEntity
  8
_4-7_
  6
Continuous
 62
     7
100
AcDbLine
 10
811.5564022843404
 20
562.9128481930868
 30
0.0
 11
811.5564022843404
 21
562.9128481930868
 31
0.0
  0
LINE
  5
615
330
22
100
AcDbEntity
  8
_4-7_
  6
Continuous
 62
     7
100
AcDbLine
 10
811.5564022843404
 20
562.9128481930868
 30
0.0
 11
811.5642232532524
 21
562.8912711753774
 31
0.0
  0
LINE
  5
616
330
22
100
AcDbEntity
  8
_4-7_
  6
Continuous
 62
     7
100
AcDbLine
 10
811.5642232532524
 20
562.8912711753774
 30
0.0
 11
811.5760447037386
 21
562.8712572514067
 31
0.0
  0
LINE
  5
617
330
22
100
AcDbEntity
  8
_4-7_
  6
Continuous
 62
     7
100
AcDbLine
 10
811.5760447037386
 20
562.8712572514067
 30
0.0
 11
811.5915074470082
 21
562.853414534127
 31
0.0
  0
LINE
  5
618
330
22
100
AcDbEntity
  8
_4-7_
  6
Continuous
 62
     7
100
AcDbLine
 10
811.5915074470082
 20
562.853414534127
 30
0.0
 11
811.6101416554315
 21
562.8382851654739
 31
0.0
  0
LINE
  5
619
330
22
100
AcDbEntity
  8
_4-7_
  6
Continuous
 62
     7
100
AcDbLine
 10
811.6101416554315
 20
562.8382851654739
 30
0.0
 11
811.6313811380146
 21
562.8263288436583
 31
0.0
  0
LINE
  5
61A
330
22
100
AcDbEntity
  8
_4-7_
  6
Continuous
 62
     7
100
AcDbLine
 10
811.6313811380146
 20
562.8263288436583
 30
0.0
 11
811.6545805438276
 21
562.8179088554682
 31
0.0
  0
LINE
  5
61B
330
22
100
AcDbEntity
  8
_4-7_
  6
Continuous
 62
     7
100
AcDbLine
 10
811.6545805438276
 20
562.8179088554682
 30
0.0
 11
811.6790349706635
 21
562.8132810379839
 31
0.0
  0
LINE
  5
61C
330
22
100
AcDbEntity
  8
_4-7_
  6
Continuous
 62
     7
100
AcDbLine
 10
811.6790349706635
 20
562.8132810379839
 30
0.0
 11
811.7040013831378
 21
562.8125860050983
 31
0.0
  0
LINE
  5
61D
330
22
100
AcDbEntity
  8
_4-7_
  6
Continuous
 62
     7
100
AcDbLine
 10
811.7040013831378
 20
562.8125860050983
 30
0.0
 11
811.7110075474027
 21
562.8131045995113
 31
0.0
  0
LINE
  5
61E
330
22
100
AcDbEntity
  8
_4-7_
  6
Continuous
 62
     7
100
AcDbLine
 10
810.5772356182779
 20
562.9484649802114
 30
0.0
 11
810.5772356182779
 21
562.9484649802114
 31
0.0
  0
LINE
  5
61F
330
22
100
AcDbEntity
  8
_4-7_
  6
Continuous
 62
     7
100
AcDbLine
 10
810.5772356182779
 20
562.9484649802114
 30
0.0
 11
810.5850565871898
 21
562.926887962502
 31
0.0
  0
LINE
  5
620
330
22
100
AcDbEntity
  8
_4-7_
  6
Continuous
 62
     7
100
AcDbLine
 10
810.5850565871898
 20
562.926887962502
 30
0.0
 11
810.5968780376764
 21
562.9068740385312
 31
0.0
  0
LINE
  5
621
330
22
100
AcDbEntity
  8
_4-7_
  6
Continuous
 62
     7
100
AcDbLine
 10
810.5968780376764
 20
562.9068740385312
 30
0.0
 11
810.6123407809459
 21
562.8890313212516
 31
0.0
  0
LINE
  5
622
330
22
100
AcDbEntity
  8
_4-7_
  6
Continuous
 62
     7
100
AcDbLine
 10
810.6123407809459
 20
562.8890313212516
 30
0.0
 11
810.6309749893691
 21
562.8739019525985
 31
0.0
  0
LINE
  5
623
330
22
100
AcDbEntity
  8
_4-7_
  6
Continuous
 62
     7
100
AcDbLine
 10
810.6309749893691
 20
562.8739019525985
 30
0.0
 11
810.6522144719523
 21
562.8619456307829
 31
0.0
  0
LINE
  5
624
330
22
100
AcDbEntity
  8
_4-7_
  6
Continuous
 62
     7
100
AcDbLine
 10
810.6522144719523
 20
562.8619456307829
 30
0.0
 11
810.6754138777652
 21
562.8535256425928
 31
0.0
  0
LINE
  5
625
330
22
100
AcDbEntity
  8
_4-7_
  6
Continuous
 62
     7
100
AcDbLine
 10
810.6754138777652
 20
562.8535256425928
 30
0.0
 11
810.6998683046013
 21
562.8488978251085
 31
0.0
  0
LINE
  5
626
330
22
100
AcDbEntity
  8
_4-7_
  6
Continuous
 62
     7
100
AcDbLine
 10
810.6998683046013
 20
562.8488978251085
 30
0.0
 11
810.7248347170754
 21
562.8482027922228
 31
0.0
  0
LINE
  5
627
330
22
100
AcDbEntity
  8
_4-7_
  6
Continuous
 62
     7
100
AcDbLine
 10
810.7248347170754
 20
562.8482027922228
 30
0.0
 11
810.7318408813405
 21
562.8487213866359
 31
0.0
  0
LINE
  5
628
330
22
100
AcDbEntity
  8
_4-7_
  6
Continuous
 62
     7
100
AcDbLine
 10
808.6189022861532
 20
562.9128481930868
 30
0.0
 11
808.6189022861532
 21
562.9128481930868
 31
0.0
  0
LINE
  5
629
330
22
100
AcDbEntity
  8
_4-7_
  6
Continuous
 62
     7
100
AcDbLine
 10
808.6189022861532
 20
562.9128481930868
 30
0.0
 11
808.6267232550651
 21
562.8912711753774
 31
0.0
  0
LINE
  5
62A
330
22
100
AcDbEntity
  8
_4-7_
  6
Continuous
 62
     7
100
AcDbLine
 10
808.6267232550651
 20
562.8912711753774
 30
0.0
 11
808.6385447055514
 21
562.8712572514067
 31
0.0
  0
LINE
  5
62B
330
22
100
AcDbEntity
  8
_4-7_
  6
Continuous
 62
     7
100
AcDbLine
 10
808.6385447055514
 20
562.8712572514067
 30
0.0
 11
808.654007448821
 21
562.853414534127
 31
0.0
  0
LINE
  5
62C
330
22
100
AcDbEntity
  8
_4-7_
  6
Continuous
 62
     7
100
AcDbLine
 10
808.654007448821
 20
562.853414534127
 30
0.0
 11
808.6726416572444
 21
562.8382851654739
 31
0.0
  0
LINE
  5
62D
330
22
100
AcDbEntity
  8
_4-7_
  6
Continuous
 62
     7
100
AcDbLine
 10
808.6726416572444
 20
562.8382851654739
 30
0.0
 11
808.6938811398276
 21
562.8263288436583
 31
0.0
  0
LINE
  5
62E
330
22
100
AcDbEntity
  8
_4-7_
  6
Continuous
 62
     7
100
AcDbLine
 10
808.6938811398276
 20
562.8263288436583
 30
0.0
 11
808.7170805456404
 21
562.8179088554682
 31
0.0
  0
LINE
  5
62F
330
22
100
AcDbEntity
  8
_4-7_
  6
Continuous
 62
     7
100
AcDbLine
 10
808.7170805456404
 20
562.8179088554682
 30
0.0
 11
808.7415349724764
 21
562.8132810379839
 31
0.0
  0
LINE
  5
630
330
22
100
AcDbEntity
  8
_4-7_
  6
Continuous
 62
     7
100
AcDbLine
 10
808.7415349724764
 20
562.8132810379839
 30
0.0
 11
808.7665013849507
 21
562.8125860050983
 31
0.0
  0
LINE
  5
631
330
22
100
AcDbEntity
  8
_4-7_
  6
Continuous
 62
     7
100
AcDbLine
 10
808.7665013849507
 20
562.8125860050983
 30
0.0
 11
808.7735075492156
 21
562.8131045995113
 31
0.0
  0
LINE
  5
632
330
22
100
AcDbEntity
  8
_4-7_
  6
Continuous
 62
     7
100
AcDbLine
 10
807.639735620091
 20
562.9128481930868
 30
0.0
 11
807.639735620091
 21
562.9128481930868
 31
0.0
  0
LINE
  5
633
330
22
100
AcDbEntity
  8
_4-7_
  6
Continuous
 62
     7
100
AcDbLine
 10
807.639735620091
 20
562.9128481930868
 30
0.0
 11
807.6475565890026
 21
562.8912711753774
 31
0.0
  0
LINE
  5
634
330
22
100
AcDbEntity
  8
_4-7_
  6
Continuous
 62
     7
100
AcDbLine
 10
807.6475565890026
 20
562.8912711753774
 30
0.0
 11
807.6593780394892
 21
562.8712572514067
 31
0.0
  0
LINE
  5
635
330
22
100
AcDbEntity
  8
_4-7_
  6
Continuous
 62
     7
100
AcDbLine
 10
807.6593780394892
 20
562.8712572514067
 30
0.0
 11
807.6748407827588
 21
562.853414534127
 31
0.0
  0
LINE
  5
636
330
22
100
AcDbEntity
  8
_4-7_
  6
Continuous
 62
     7
100
AcDbLine
 10
807.6748407827588
 20
562.853414534127
 30
0.0
 11
807.6934749911821
 21
562.8382851654739
 31
0.0
  0
LINE
  5
637
330
22
100
AcDbEntity
  8
_4-7_
  6
Continuous
 62
     7
100
AcDbLine
 10
807.6934749911821
 20
562.8382851654739
 30
0.0
 11
807.7147144737653
 21
562.8263288436583
 31
0.0
  0
LINE
  5
638
330
22
100
AcDbEntity
  8
_4-7_
  6
Continuous
 62
     7
100
AcDbLine
 10
807.7147144737653
 20
562.8263288436583
 30
0.0
 11
807.7379138795778
 21
562.8179088554682
 31
0.0
  0
LINE
  5
639
330
22
100
AcDbEntity
  8
_4-7_
  6
Continuous
 62
     7
100
AcDbLine
 10
807.7379138795778
 20
562.8179088554682
 30
0.0
 11
807.7623683064141
 21
562.8132810379839
 31
0.0
  0
LINE
  5
63A
330
22
100
AcDbEntity
  8
_4-7_
  6
Continuous
 62
     7
100
AcDbLine
 10
807.7623683064141
 20
562.8132810379839
 30
0.0
 11
807.7873347188884
 21
562.8125860050983
 31
0.0
  0
LINE
  5
63B
330
22
100
AcDbEntity
  8
_4-7_
  6
Continuous
 62
     7
100
AcDbLine
 10
807.7873347188884
 20
562.8125860050983
 30
0.0
 11
807.7943408831533
 21
562.8131045995113
 31
0.0
  0
LINE
  5
63C
330
22
100
AcDbEntity
  8
_4-7_
  6
Continuous
 62
     7
100
AcDbLine
 10
806.6605689540285
 20
562.9128481930868
 30
0.0
 11
806.6605689540285
 21
562.9128481930868
 31
0.0
  0
LINE
  5
63D
330
22
100
AcDbEntity
  8
_4-7_
  6
Continuous
 62
     7
100
AcDbLine
 10
806.6605689540285
 20
562.9128481930868
 30
0.0
 11
806.6683899229404
 21
562.8912711753774
 31
0.0
  0
LINE
  5
63E
330
22
100
AcDbEntity
  8
_4-7_
  6
Continuous
 62
     7
100
AcDbLine
 10
806.6683899229404
 20
562.8912711753774
 30
0.0
 11
806.6802113734267
 21
562.8712572514067
 31
0.0
  0
LINE
  5
63F
330
22
100
AcDbEntity
  8
_4-7_
  6
Continuous
 62
     7
100
AcDbLine
 10
806.6802113734267
 20
562.8712572514067
 30
0.0
 11
806.6956741166963
 21
562.853414534127
 31
0.0
  0
LINE
  5
640
330
22
100
AcDbEntity
  8
_4-7_
  6
Continuous
 62
     7
100
AcDbLine
 10
806.6956741166963
 20
562.853414534127
 30
0.0
 11
806.7143083251195
 21
562.8382851654739
 31
0.0
  0
LINE
  5
641
330
22
100
AcDbEntity
  8
_4-7_
  6
Continuous
 62
     7
100
AcDbLine
 10
806.7143083251195
 20
562.8382851654739
 30
0.0
 11
806.7355478077029
 21
562.8263288436583
 31
0.0
  0
LINE
  5
642
330
22
100
AcDbEntity
  8
_4-7_
  6
Continuous
 62
     7
100
AcDbLine
 10
806.7355478077029
 20
562.8263288436583
 30
0.0
 11
806.7587472135155
 21
562.8179088554682
 31
0.0
  0
LINE
  5
643
330
22
100
AcDbEntity
  8
_4-7_
  6
Continuous
 62
     7
100
AcDbLine
 10
806.7587472135155
 20
562.8179088554682
 30
0.0
 11
806.7832016403515
 21
562.8132810379839
 31
0.0
  0
LINE
  5
644
330
22
100
AcDbEntity
  8
_4-7_
  6
Continuous
 62
     7
100
AcDbLine
 10
806.7832016403515
 20
562.8132810379839
 30
0.0
 11
806.808168052826
 21
562.8125860050983
 31
0.0
  0
LINE
  5
645
330
22
100
AcDbEntity
  8
_4-7_
  6
Continuous
 62
     7
100
AcDbLine
 10
806.808168052826
 20
562.8125860050983
 30
0.0
 11
806.8151742170911
 21
562.8131045995113
 31
0.0
  0
LINE
  5
646
330
22
100
AcDbEntity
  8
_4-7_
  6
Continuous
 62
     7
100
AcDbLine
 10
805.6814022879661
 20
562.9486479253196
 30
0.0
 11
805.6814022879661
 21
562.9486479253196
 31
0.0
  0
LINE
  5
647
330
22
100
AcDbEntity
  8
_4-7_
  6
Continuous
 62
     7
100
AcDbLine
 10
805.6814022879661
 20
562.9486479253196
 30
0.0
 11
805.6892232568781
 21
562.9270709076102
 31
0.0
  0
LINE
  5
648
330
22
100
AcDbEntity
  8
_4-7_
  6
Continuous
 62
     7
100
AcDbLine
 10
805.6892232568781
 20
562.9270709076102
 30
0.0
 11
805.7010447073645
 21
562.9070569836395
 31
0.0
  0
LINE
  5
649
330
22
100
AcDbEntity
  8
_4-7_
  6
Continuous
 62
     7
100
AcDbLine
 10
805.7010447073645
 20
562.9070569836395
 30
0.0
 11
805.7165074506338
 21
562.8892142663598
 31
0.0
  0
LINE
  5
64A
330
22
100
AcDbEntity
  8
_4-7_
  6
Continuous
 62
     7
100
AcDbLine
 10
805.7165074506338
 20
562.8892142663598
 30
0.0
 11
805.7351416590572
 21
562.8740848977067
 31
0.0
  0
LINE
  5
64B
330
22
100
AcDbEntity
  8
_4-7_
  6
Continuous
 62
     7
100
AcDbLine
 10
805.7351416590572
 20
562.8740848977067
 30
0.0
 11
805.7563811416404
 21
562.8621285758911
 31
0.0
  0
LINE
  5
64C
330
22
100
AcDbEntity
  8
_4-7_
  6
Continuous
 62
     7
100
AcDbLine
 10
805.7563811416404
 20
562.8621285758911
 30
0.0
 11
805.7795805474533
 21
562.8537085877009
 31
0.0
  0
LINE
  5
64D
330
22
100
AcDbEntity
  8
_4-7_
  6
Continuous
 62
     7
100
AcDbLine
 10
805.7795805474533
 20
562.8537085877009
 30
0.0
 11
805.8040349742892
 21
562.8490807702168
 31
0.0
  0
LINE
  5
64E
330
22
100
AcDbEntity
  8
_4-7_
  6
Continuous
 62
     7
100
AcDbLine
 10
805.8040349742892
 20
562.8490807702168
 30
0.0
 11
805.8290013867635
 21
562.8483857373311
 31
0.0
  0
LINE
  5
64F
330
22
100
AcDbEntity
  8
_4-7_
  6
Continuous
 62
     7
100
AcDbLine
 10
805.8290013867635
 20
562.8483857373311
 30
0.0
 11
805.8360075510286
 21
562.8489043317442
 31
0.0
  0
LINE
  5
650
330
22
100
AcDbEntity
  8
_4-7_
  6
Continuous
 62
     7
100
AcDbLine
 10
803.7230689558411
 20
562.9128481930868
 30
0.0
 11
803.7230689558411
 21
562.9128481930868
 31
0.0
  0
LINE
  5
651
330
22
100
AcDbEntity
  8
_4-7_
  6
Continuous
 62
     7
100
AcDbLine
 10
803.7230689558411
 20
562.9128481930868
 30
0.0
 11
803.7308899247532
 21
562.8912711753774
 31
0.0
  0
LINE
  5
652
330
22
100
AcDbEntity
  8
_4-7_
  6
Continuous
 62
     7
100
AcDbLine
 10
803.7308899247532
 20
562.8912711753774
 30
0.0
 11
803.7427113752395
 21
562.8712572514067
 31
0.0
  0
LINE
  5
653
330
22
100
AcDbEntity
  8
_4-7_
  6
Continuous
 62
     7
100
AcDbLine
 10
803.7427113752395
 20
562.8712572514067
 30
0.0
 11
803.7581741185089
 21
562.853414534127
 31
0.0
  0
LINE
  5
654
330
22
100
AcDbEntity
  8
_4-7_
  6
Continuous
 62
     7
100
AcDbLine
 10
803.7581741185089
 20
562.853414534127
 30
0.0
 11
803.7768083269325
 21
562.8382851654739
 31
0.0
  0
LINE
  5
655
330
22
100
AcDbEntity
  8
_4-7_
  6
Continuous
 62
     7
100
AcDbLine
 10
803.7768083269325
 20
562.8382851654739
 30
0.0
 11
803.7980478095157
 21
562.8263288436583
 31
0.0
  0
LINE
  5
656
330
22
100
AcDbEntity
  8
_4-7_
  6
Continuous
 62
     7
100
AcDbLine
 10
803.7980478095157
 20
562.8263288436583
 30
0.0
 11
803.8212472153285
 21
562.8179088554682
 31
0.0
  0
LINE
  5
657
330
22
100
AcDbEntity
  8
_4-7_
  6
Continuous
 62
     7
100
AcDbLine
 10
803.8212472153285
 20
562.8179088554682
 30
0.0
 11
803.8457016421645
 21
562.8132810379839
 31
0.0
  0
LINE
  5
658
330
22
100
AcDbEntity
  8
_4-7_
  6
Continuous
 62
     7
100
AcDbLine
 10
803.8457016421645
 20
562.8132810379839
 30
0.0
 11
803.8706680546388
 21
562.8125860050983
 31
0.0
  0
LINE
  5
659
330
22
100
AcDbEntity
  8
_4-7_
  6
Continuous
 62
     7
100
AcDbLine
 10
803.8706680546388
 20
562.8125860050983
 30
0.0
 11
803.8776742189039
 21
562.8131045995113
 31
0.0
  0
LINE
  5
65A
330
22
100
AcDbEntity
  8
_4-7_
  6
Continuous
 62
     7
100
AcDbLine
 10
802.7439022897777
 20
562.9330232250199
 30
0.0
 11
802.7439022897777
 21
562.9330232250199
 31
0.0
  0
LINE
  5
65B
330
22
100
AcDbEntity
  8
_4-7_
  6
Continuous
 62
     7
100
AcDbLine
 10
802.7439022897777
 20
562.9330232250199
 30
0.0
 11
802.7517232586896
 21
562.9114462073105
 31
0.0
  0
LINE
  5
65C
330
22
100
AcDbEntity
  8
_4-7_
  6
Continuous
 62
     7
100
AcDbLine
 10
802.7517232586896
 20
562.9114462073105
 30
0.0
 11
802.7635447091761
 21
562.8914322833399
 31
0.0
  0
LINE
  5
65D
330
22
100
AcDbEntity
  8
_4-7_
  6
Continuous
 62
     7
100
AcDbLine
 10
802.7635447091761
 20
562.8914322833399
 30
0.0
 11
802.7790074524457
 21
562.8735895660602
 31
0.0
  0
LINE
  5
65E
330
22
100
AcDbEntity
  8
_4-7_
  6
Continuous
 62
     7
100
AcDbLine
 10
802.7790074524457
 20
562.8735895660602
 30
0.0
 11
802.7976416608691
 21
562.8584601974071
 31
0.0
  0
LINE
  5
65F
330
22
100
AcDbEntity
  8
_4-7_
  6
Continuous
 62
     7
100
AcDbLine
 10
802.7976416608691
 20
562.8584601974071
 30
0.0
 11
802.8188811434521
 21
562.8465038755914
 31
0.0
  0
LINE
  5
660
330
22
100
AcDbEntity
  8
_4-7_
  6
Continuous
 62
     7
100
AcDbLine
 10
802.8188811434521
 20
562.8465038755914
 30
0.0
 11
802.842080549265
 21
562.8380838874013
 31
0.0
  0
LINE
  5
661
330
22
100
AcDbEntity
  8
_4-7_
  6
Continuous
 62
     7
100
AcDbLine
 10
802.842080549265
 20
562.8380838874013
 30
0.0
 11
802.8665349761011
 21
562.8334560699171
 31
0.0
  0
LINE
  5
662
330
22
100
AcDbEntity
  8
_4-7_
  6
Continuous
 62
     7
100
AcDbLine
 10
802.8665349761011
 20
562.8334560699171
 30
0.0
 11
802.8915013885754
 21
562.8327610370314
 31
0.0
  0
LINE
  5
663
330
22
100
AcDbEntity
  8
_4-7_
  6
Continuous
 62
     7
100
AcDbLine
 10
802.8915013885754
 20
562.8327610370314
 30
0.0
 11
802.8985075528405
 21
562.8332796314444
 31
0.0
  0
LINE
  5
664
330
22
100
AcDbEntity
  8
_4-7_
  6
Continuous
 62
     7
100
AcDbLine
 10
801.7647356237153
 20
562.9530875705247
 30
0.0
 11
801.7647356237153
 21
562.9530875705247
 31
0.0
  0
LINE
  5
665
330
22
100
AcDbEntity
  8
_4-7_
  6
Continuous
 62
     7
100
AcDbLine
 10
801.7647356237153
 20
562.9530875705247
 30
0.0
 11
801.7725565926275
 21
562.9315105528154
 31
0.0
  0
LINE
  5
666
330
22
100
AcDbEntity
  8
_4-7_
  6
Continuous
 62
     7
100
AcDbLine
 10
801.7725565926275
 20
562.9315105528154
 30
0.0
 11
801.7843780431137
 21
562.9114966288446
 31
0.0
  0
LINE
  5
667
330
22
100
AcDbEntity
  8
_4-7_
  6
Continuous
 62
     7
100
AcDbLine
 10
801.7843780431137
 20
562.9114966288446
 30
0.0
 11
801.7998407863833
 21
562.8936539115649
 31
0.0
  0
LINE
  5
668
330
22
100
AcDbEntity
  8
_4-7_
  6
Continuous
 62
     7
100
AcDbLine
 10
801.7998407863833
 20
562.8936539115649
 30
0.0
 11
801.8184749948067
 21
562.8785245429119
 31
0.0
  0
LINE
  5
669
330
22
100
AcDbEntity
  8
_4-7_
  6
Continuous
 62
     7
100
AcDbLine
 10
801.8184749948067
 20
562.8785245429119
 30
0.0
 11
801.8397144773896
 21
562.8665682210963
 31
0.0
  0
LINE
  5
66A
330
22
100
AcDbEntity
  8
_4-7_
  6
Continuous
 62
     7
100
AcDbLine
 10
801.8397144773896
 20
562.8665682210963
 30
0.0
 11
801.8629138832025
 21
562.8581482329061
 31
0.0
  0
LINE
  5
66B
330
22
100
AcDbEntity
  8
_4-7_
  6
Continuous
 62
     7
100
AcDbLine
 10
801.8629138832025
 20
562.8581482329061
 30
0.0
 11
801.8873683100386
 21
562.8535204154219
 31
0.0
  0
LINE
  5
66C
330
22
100
AcDbEntity
  8
_4-7_
  6
Continuous
 62
     7
100
AcDbLine
 10
801.8873683100386
 20
562.8535204154219
 30
0.0
 11
801.9123347225129
 21
562.8528253825362
 31
0.0
  0
LINE
  5
66D
330
22
100
AcDbEntity
  8
_4-7_
  6
Continuous
 62
     7
100
AcDbLine
 10
801.9123347225129
 20
562.8528253825362
 30
0.0
 11
801.9193408867778
 21
562.8533439769492
 31
0.0
  0
LINE
  5
66E
330
22
100
AcDbEntity
  8
_4-7_
  6
Continuous
 62
     7
100
AcDbLine
 10
800.785568957654
 20
562.9670344024182
 30
0.0
 11
800.785568957654
 21
562.9670344024182
 31
0.0
  0
LINE
  5
66F
330
22
100
AcDbEntity
  8
_4-7_
  6
Continuous
 62
     7
100
AcDbLine
 10
800.785568957654
 20
562.9670344024182
 30
0.0
 11
800.7933899265662
 21
562.9454573847088
 31
0.0
  0
LINE
  5
670
330
22
100
AcDbEntity
  8
_4-7_
  6
Continuous
 62
     7
100
AcDbLine
 10
800.7933899265662
 20
562.9454573847088
 30
0.0
 11
800.8052113770524
 21
562.9254434607381
 31
0.0
  0
LINE
  5
671
330
22
100
AcDbEntity
  8
_4-7_
  6
Continuous
 62
     7
100
AcDbLine
 10
800.8052113770524
 20
562.9254434607381
 30
0.0
 11
800.820674120322
 21
562.9076007434584
 31
0.0
  0
LINE
  5
672
330
22
100
AcDbEntity
  8
_4-7_
  6
Continuous
 62
     7
100
AcDbLine
 10
800.820674120322
 20
562.9076007434584
 30
0.0
 11
800.8393083287453
 21
562.8924713748054
 31
0.0
  0
LINE
  5
673
330
22
100
AcDbEntity
  8
_4-7_
  6
Continuous
 62
     7
100
AcDbLine
 10
800.8393083287453
 20
562.8924713748054
 30
0.0
 11
800.8605478113286
 21
562.8805150529895
 31
0.0
  0
LINE
  5
674
330
22
100
AcDbEntity
  8
_4-7_
  6
Continuous
 62
     7
100
AcDbLine
 10
800.8605478113286
 20
562.8805150529895
 30
0.0
 11
800.8837472171416
 21
562.8720950647996
 31
0.0
  0
LINE
  5
675
330
22
100
AcDbEntity
  8
_4-7_
  6
Continuous
 62
     7
100
AcDbLine
 10
800.8837472171416
 20
562.8720950647996
 30
0.0
 11
800.9082016439773
 21
562.8674672473153
 31
0.0
  0
LINE
  5
676
330
22
100
AcDbEntity
  8
_4-7_
  6
Continuous
 62
     7
100
AcDbLine
 10
800.9082016439773
 20
562.8674672473153
 30
0.0
 11
800.9331680564516
 21
562.8667722144297
 31
0.0
  0
LINE
  5
677
330
22
100
AcDbEntity
  8
_4-7_
  6
Continuous
 62
     7
100
AcDbLine
 10
800.9331680564516
 20
562.8667722144297
 30
0.0
 11
800.9401742207167
 21
562.8672908088429
 31
0.0
  0
LINE
  5
678
330
22
100
AcDbEntity
  8
_4-7_
  6
Continuous
 62
     7
100
AcDbLine
 10
799.806402291591
 20
562.9612949118365
 30
0.0
 11
799.806402291591
 21
562.9612949118365
 31
0.0
  0
LINE
  5
679
330
22
100
AcDbEntity
  8
_4-7_
  6
Continuous
 62
     7
100
AcDbLine
 10
799.806402291591
 20
562.9612949118365
 30
0.0
 11
799.8095871783714
 21
562.9443287018744
 31
0.0
  0
LINE
  5
67A
330
22
100
AcDbEntity
  8
_4-7_
  6
Continuous
 62
     7
100
AcDbLine
 10
799.8095871783714
 20
562.9443287018744
 30
0.0
 11
799.8159627232537
 21
562.9281232867297
 31
0.0
  0
LINE
  5
67B
330
22
100
AcDbEntity
  8
_4-7_
  6
Continuous
 62
     7
100
AcDbLine
 10
799.8159627232537
 20
562.9281232867297
 30
0.0
 11
799.8253352085327
 21
562.9131710597407
 31
0.0
  0
LINE
  5
67C
330
22
100
AcDbEntity
  8
_4-7_
  6
Continuous
 62
     7
100
AcDbLine
 10
799.8253352085327
 20
562.9131710597407
 30
0.0
 11
799.8374198559859
 21
562.8999263367583
 31
0.0
  0
LINE
  5
67D
330
22
100
AcDbEntity
  8
_4-7_
  6
Continuous
 62
     7
100
AcDbLine
 10
799.8374198559859
 20
562.8999263367583
 30
0.0
 11
799.8518494797155
 21
562.8887915519881
 31
0.0
  0
LINE
  5
67E
330
22
100
AcDbEntity
  8
_4-7_
  6
Continuous
 62
     7
100
AcDbLine
 10
799.8518494797155
 20
562.8887915519881
 30
0.0
 11
799.8681856429064
 21
562.8801050302312
 31
0.0
  0
LINE
  5
67F
330
22
100
AcDbEntity
  8
_4-7_
  6
Continuous
 62
     7
100
AcDbLine
 10
799.8681856429064
 20
562.8801050302312
 30
0.0
 11
799.8859319795065
 21
562.8741307070553
 31
0.0
  0
LINE
  5
680
330
22
100
AcDbEntity
  8
_4-7_
  6
Continuous
 62
     7
100
AcDbLine
 10
799.8859319795065
 20
562.8741307070553
 30
0.0
 11
799.9045492760582
 21
562.8710501092473
 31
0.0
  0
LINE
  5
681
330
22
100
AcDbEntity
  8
_4-7_
  6
Continuous
 62
     7
100
AcDbLine
 10
799.9045492760582
 20
562.8710501092473
 30
0.0
 11
799.9234718554264
 21
562.8709568392123
 31
0.0
  0
LINE
  5
682
330
22
100
AcDbEntity
  8
_4-7_
  6
Continuous
 62
     7
100
AcDbLine
 10
799.9234718554264
 20
562.8709568392123
 30
0.0
 11
799.942124764613
 21
562.8738537309131
 31
0.0
  0
LINE
  5
683
330
22
100
AcDbEntity
  8
_4-7_
  6
Continuous
 62
     7
100
AcDbLine
 10
799.942124764613
 20
562.8738537309131
 30
0.0
 11
799.9599412444104
 21
562.8796527637619
 31
0.0
  0
LINE
  5
684
330
22
100
AcDbEntity
  8
_4-7_
  6
Continuous
 62
     7
100
AcDbLine
 10
799.9599412444104
 20
562.8796527637619
 30
0.0
 11
799.9763799500958
 21
562.8881777370794
 31
0.0
  0
LINE
  5
685
330
22
100
AcDbEntity
  8
_4-7_
  6
Continuous
 62
     7
100
AcDbLine
 10
799.9763799500958
 20
562.8881777370794
 30
0.0
 11
799.9764627552596
 21
562.8882299206777
 31
0.0
  0
LINE
  5
686
330
22
100
AcDbEntity
  8
_4-7_
  6
Continuous
 62
     7
100
AcDbLine
 10
804.7022356219036
 20
563.1507378805856
 30
0.0
 11
804.7022356219036
 21
563.1507378805856
 31
0.0
  0
LINE
  5
687
330
22
100
AcDbEntity
  8
_4-7_
  6
Continuous
 62
     7
100
AcDbLine
 10
804.7022356219036
 20
563.1507378805856
 30
0.0
 11
804.7098980948083
 21
563.0980342363397
 31
0.0
  0
LINE
  5
688
330
22
100
AcDbEntity
  8
_4-7_
  6
Continuous
 62
     7
100
AcDbLine
 10
804.7098980948083
 20
563.0980342363397
 30
0.0
 11
804.7275058865004
 21
563.0473415354281
 31
0.0
  0
LINE
  5
689
330
22
100
AcDbEntity
  8
_4-7_
  6
Continuous
 62
     7
100
AcDbLine
 10
804.7275058865004
 20
563.0473415354281
 30
0.0
 11
804.7545239931388
 21
563.0002000499167
 31
0.0
  0
LINE
  5
68A
330
22
100
AcDbEntity
  8
_4-7_
  6
Continuous
 62
     7
100
AcDbLine
 10
804.7545239931388
 20
563.0002000499167
 30
0.0
 11
804.7901314832255
 21
562.958042149988
 31
0.0
  0
LINE
  5
68B
330
22
100
AcDbEntity
  8
_4-7_
  6
Continuous
 62
     7
100
AcDbLine
 10
804.7901314832255
 20
562.958042149988
 30
0.0
 11
804.833246441192
 21
562.9221487820984
 31
0.0
  0
LINE
  5
68C
330
22
100
AcDbEntity
  8
_4-7_
  6
Continuous
 62
     7
100
AcDbLine
 10
804.833246441192
 20
562.9221487820984
 30
0.0
 11
804.8825588408583
 21
562.8936105480683
 31
0.0
  0
LINE
  5
68D
330
22
100
AcDbEntity
  8
_4-7_
  6
Continuous
 62
     7
100
AcDbLine
 10
804.8825588408583
 20
562.8936105480683
 30
0.0
 11
804.936570349913
 21
562.8732945676976
 31
0.0
  0
LINE
  5
68E
330
22
100
AcDbEntity
  8
_4-7_
  6
Continuous
 62
     7
100
AcDbLine
 10
804.936570349913
 20
562.8732945676976
 30
0.0
 11
804.9936398559859
 21
562.8618181317693
 31
0.0
  0
LINE
  5
68F
330
22
100
AcDbEntity
  8
_4-7_
  6
Continuous
 62
     7
100
AcDbLine
 10
804.9936398559859
 20
562.8618181317693
 30
0.0
 11
805.0520333310126
 21
562.8595299459821
 31
0.0
  0
LINE
  5
690
330
22
100
AcDbEntity
  8
_4-7_
  6
Continuous
 62
     7
100
AcDbLine
 10
805.0520333310126
 20
562.8595299459821
 30
0.0
 11
805.1099765188029
 21
562.866499535703
 31
0.0
  0
LINE
  5
691
330
22
100
AcDbEntity
  8
_4-7_
  6
Continuous
 62
     7
100
AcDbLine
 10
805.1099765188029
 20
562.866499535703
 30
0.0
 11
805.1657088449166
 21
562.8825151334752
 31
0.0
  0
LINE
  5
692
330
22
100
AcDbEntity
  8
_4-7_
  6
Continuous
 62
     7
100
AcDbLine
 10
805.1657088449166
 20
562.8825151334752
 30
0.0
 11
805.2175369108269
 21
562.9070901134647
 31
0.0
  0
LINE
  5
693
330
22
100
AcDbEntity
  8
_4-7_
  6
Continuous
 62
     7
100
AcDbLine
 10
805.2175369108269
 20
562.9070901134647
 30
0.0
 11
805.2638859469771
 21
562.9394777773401
 31
0.0
  0
LINE
  5
694
330
22
100
AcDbEntity
  8
_4-7_
  6
Continuous
 62
     7
100
AcDbLine
 10
805.2638859469771
 20
562.9394777773401
 30
0.0
 11
805.3033476613581
 21
562.9786940423233
 31
0.0
  0
LINE
  5
695
330
22
100
AcDbEntity
  8
_4-7_
  6
Continuous
 62
     7
100
AcDbLine
 10
805.3033476613581
 20
562.9786940423233
 30
0.0
 11
805.3347230297461
 21
563.0235473420473
 31
0.0
  0
LINE
  5
696
330
22
100
AcDbEntity
  8
_4-7_
  6
Continuous
 62
     7
100
AcDbLine
 10
805.3347230297461
 20
563.0235473420473
 30
0.0
 11
805.3570587274498
 21
563.072674831697
 31
0.0
  0
LINE
  5
697
330
22
100
AcDbEntity
  8
_4-7_
  6
Continuous
 62
     7
100
AcDbLine
 10
805.3570587274498
 20
563.072674831697
 30
0.0
 11
805.3696760955968
 21
563.1245837973588
 31
0.0
  0
LINE
  5
698
330
22
100
AcDbEntity
  8
_4-7_
  6
Continuous
 62
     7
100
AcDbLine
 10
805.3696760955968
 20
563.1245837973588
 30
0.0
 11
805.372191761841
 21
563.1507378805856
 31
0.0
  0
LINE
  5
699
330
22
100
AcDbEntity
  8
_4-7_
  6
Continuous
 62
     7
100
AcDbLine
 10
809.5980689522166
 20
563.1507378805856
 30
0.0
 11
809.5980689522166
 21
563.1507378805856
 31
0.0
  0
LINE
  5
69A
330
22
100
AcDbEntity
  8
_4-7_
  6
Continuous
 62
     7
100
AcDbLine
 10
809.5980689522166
 20
563.1507378805856
 30
0.0
 11
809.6057314251215
 21
563.0980342363397
 31
0.0
  0
LINE
  5
69B
330
22
100
AcDbEntity
  8
_4-7_
  6
Continuous
 62
     7
100
AcDbLine
 10
809.6057314251215
 20
563.0980342363397
 30
0.0
 11
809.6233392168135
 21
563.0473415354281
 31
0.0
  0
LINE
  5
69C
330
22
100
AcDbEntity
  8
_4-7_
  6
Continuous
 62
     7
100
AcDbLine
 10
809.6233392168135
 20
563.0473415354281
 30
0.0
 11
809.6503573234519
 21
563.0002000499167
 31
0.0
  0
LINE
  5
69D
330
22
100
AcDbEntity
  8
_4-7_
  6
Continuous
 62
     7
100
AcDbLine
 10
809.6503573234519
 20
563.0002000499167
 30
0.0
 11
809.6859648135385
 21
562.958042149988
 31
0.0
  0
LINE
  5
69E
330
22
100
AcDbEntity
  8
_4-7_
  6
Continuous
 62
     7
100
AcDbLine
 10
809.6859648135385
 20
562.958042149988
 30
0.0
 11
809.729079771505
 21
562.9221487820984
 31
0.0
  0
LINE
  5
69F
330
22
100
AcDbEntity
  8
_4-7_
  6
Continuous
 62
     7
100
AcDbLine
 10
809.729079771505
 20
562.9221487820984
 30
0.0
 11
809.7783921711712
 21
562.8936105480683
 31
0.0
  0
LINE
  5
6A0
330
22
100
AcDbEntity
  8
_4-7_
  6
Continuous
 62
     7
100
AcDbLine
 10
809.7783921711712
 20
562.8936105480683
 30
0.0
 11
809.8324036802264
 21
562.8732945676976
 31
0.0
  0
LINE
  5
6A1
330
22
100
AcDbEntity
  8
_4-7_
  6
Continuous
 62
     7
100
AcDbLine
 10
809.8324036802264
 20
562.8732945676976
 30
0.0
 11
809.8894731862991
 21
562.8618181317693
 31
0.0
  0
LINE
  5
6A2
330
22
100
AcDbEntity
  8
_4-7_
  6
Continuous
 62
     7
100
AcDbLine
 10
809.8894731862991
 20
562.8618181317693
 30
0.0
 11
809.9478666613254
 21
562.8595299459821
 31
0.0
  0
LINE
  5
6A3
330
22
100
AcDbEntity
  8
_4-7_
  6
Continuous
 62
     7
100
AcDbLine
 10
809.9478666613254
 20
562.8595299459821
 30
0.0
 11
810.0058098491158
 21
562.866499535703
 31
0.0
  0
LINE
  5
6A4
330
22
100
AcDbEntity
  8
_4-7_
  6
Continuous
 62
     7
100
AcDbLine
 10
810.0058098491158
 20
562.866499535703
 30
0.0
 11
810.0615421752298
 21
562.8825151334752
 31
0.0
  0
LINE
  5
6A5
330
22
100
AcDbEntity
  8
_4-7_
  6
Continuous
 62
     7
100
AcDbLine
 10
810.0615421752298
 20
562.8825151334752
 30
0.0
 11
810.1133702411399
 21
562.9070901134647
 31
0.0
  0
LINE
  5
6A6
330
22
100
AcDbEntity
  8
_4-7_
  6
Continuous
 62
     7
100
AcDbLine
 10
810.1133702411399
 20
562.9070901134647
 30
0.0
 11
810.1597192772901
 21
562.9394777773401
 31
0.0
  0
LINE
  5
6A7
330
22
100
AcDbEntity
  8
_4-7_
  6
Continuous
 62
     7
100
AcDbLine
 10
810.1597192772901
 20
562.9394777773401
 30
0.0
 11
810.1991809916709
 21
562.9786940423233
 31
0.0
  0
LINE
  5
6A8
330
22
100
AcDbEntity
  8
_4-7_
  6
Continuous
 62
     7
100
AcDbLine
 10
810.1991809916709
 20
562.9786940423233
 30
0.0
 11
810.2305563600591
 21
563.0235473420473
 31
0.0
  0
LINE
  5
6A9
330
22
100
AcDbEntity
  8
_4-7_
  6
Continuous
 62
     7
100
AcDbLine
 10
810.2305563600591
 20
563.0235473420473
 30
0.0
 11
810.2528920577629
 21
563.072674831697
 31
0.0
  0
LINE
  5
6AA
330
22
100
AcDbEntity
  8
_4-7_
  6
Continuous
 62
     7
100
AcDbLine
 10
810.2528920577629
 20
563.072674831697
 30
0.0
 11
810.2655094259102
 21
563.1245837973588
 31
0.0
  0
LINE
  5
6AB
330
22
100
AcDbEntity
  8
_4-7_
  6
Continuous
 62
     7
100
AcDbLine
 10
810.2655094259102
 20
563.1245837973588
 30
0.0
 11
810.2680250921542
 21
563.1507378805856
 31
0.0
  0
LINE
  5
6AC
330
22
100
AcDbEntity
  8
_4-7_
  6
Continuous
 62
     7
100
AcDbLine
 10
798.1057443979033
 20
562.9160552906551
 30
0.0
 11
798.1057443979033
 21
562.9160552906551
 31
0.0
  0
LINE
  5
6AD
330
22
100
AcDbEntity
  8
_4-7_
  6
Continuous
 62
     7
100
AcDbLine
 10
798.1057443979033
 20
562.9160552906551
 30
0.0
 11
798.1927791616002
 21
562.9194327434216
 31
0.0
  0
LINE
  5
6AE
330
22
100
AcDbEntity
  8
_4-7_
  6
Continuous
 62
     7
100
AcDbLine
 10
798.1927791616002
 20
562.9194327434216
 30
0.0
 11
798.277846877277
 21
562.9365056734336
 31
0.0
  0
LINE
  5
6AF
330
22
100
AcDbEntity
  8
_4-7_
  6
Continuous
 62
     7
100
AcDbLine
 10
798.277846877277
 20
562.9365056734336
 30
0.0
 11
798.3118847486531
 21
562.9474773738352
 31
0.0
  0
LINE
  5
6B0
330
22
100
AcDbEntity
  8
_4-7_
  6
Continuous
 62
     7
100
AcDbLine
 10
796.8561647369328
 20
562.2342392868367
 30
0.0
 11
796.8561647369328
 21
562.2342392868367
 31
0.0
  0
LINE
  5
6B1
330
22
100
AcDbEntity
  8
_4-7_
  6
Continuous
 62
     7
100
AcDbLine
 10
796.8561647369328
 20
562.2342392868367
 30
0.0
 11
796.8910648585229
 21
562.2360029273571
 31
0.0
  0
LINE
  5
6B2
330
22
100
AcDbEntity
  8
_4-7_
  6
Continuous
 62
     7
100
AcDbLine
 10
796.8910648585229
 20
562.2360029273571
 30
0.0
 11
796.9250980696824
 21
562.2432521070376
 31
0.0
  0
LINE
  5
6B3
330
22
100
AcDbEntity
  8
_4-7_
  6
Continuous
 62
     7
100
AcDbLine
 10
796.9250980696824
 20
562.2432521070376
 30
0.0
 11
796.9572302885126
 21
562.2557665632219
 31
0.0
  0
LINE
  5
6B4
330
22
100
AcDbEntity
  8
_4-7_
  6
Continuous
 62
     7
100
AcDbLine
 10
796.9572302885126
 20
562.2557665632219
 30
0.0
 11
796.9864851938035
 21
562.2731660504911
 31
0.0
  0
LINE
  5
6B5
330
22
100
AcDbEntity
  8
_4-7_
  6
Continuous
 62
     7
100
AcDbLine
 10
796.9864851938035
 20
562.2731660504911
 30
0.0
 11
797.0119738900615
 21
562.2949218942296
 31
0.0
  0
LINE
  5
6B6
330
22
100
AcDbEntity
  8
_4-7_
  6
Continuous
 62
     7
100
AcDbLine
 10
797.0119738900615
 20
562.2949218942296
 30
0.0
 11
797.032921916149
 21
562.3203730541339
 31
0.0
  0
LINE
  5
6B7
330
22
100
AcDbEntity
  8
_4-7_
  6
Continuous
 62
     7
100
AcDbLine
 10
797.032921916149
 20
562.3203730541339
 30
0.0
 11
797.0486927768932
 21
562.3487462095896
 31
0.0
  0
LINE
  5
6B8
330
22
100
AcDbEntity
  8
_4-7_
  6
Continuous
 62
     7
100
AcDbLine
 10
797.0486927768932
 20
562.3487462095896
 30
0.0
 11
797.0588072826711
 21
562.3791792566255
 31
0.0
  0
LINE
  5
6B9
330
22
100
AcDbEntity
  8
_4-7_
  6
Continuous
 62
     7
100
AcDbLine
 10
797.0588072826711
 20
562.3791792566255
 30
0.0
 11
797.0629581093428
 21
562.4107475025074
 31
0.0
  0
LINE
  5
6BA
330
22
100
AcDbEntity
  8
_4-7_
  6
Continuous
 62
     7
100
AcDbLine
 10
797.0629581093428
 20
562.4107475025074
 30
0.0
 11
797.0610191361401
 21
562.4424917620585
 31
0.0
  0
LINE
  5
6BB
330
22
100
AcDbEntity
  8
_4-7_
  6
Continuous
 62
     7
100
AcDbLine
 10
797.0610191361401
 20
562.4424917620585
 30
0.0
 11
797.0530492777827
 21
562.4734475020151
 31
0.0
  0
LINE
  5
6BC
330
22
100
AcDbEntity
  8
_4-7_
  6
Continuous
 62
     7
100
AcDbLine
 10
797.0530492777827
 20
562.4734475020151
 30
0.0
 11
797.0392906943841
 21
562.502674147884
 31
0.0
  0
LINE
  5
6BD
330
22
100
AcDbEntity
  8
_4-7_
  6
Continuous
 62
     7
100
AcDbLine
 10
797.0392906943841
 20
562.502674147884
 30
0.0
 11
797.0201614335382
 21
562.5292836628191
 31
0.0
  0
LINE
  5
6BE
330
22
100
AcDbEntity
  8
_4-7_
  6
Continuous
 62
     7
100
AcDbLine
 10
797.0201614335382
 20
562.5292836628191
 30
0.0
 11
796.9962427281566
 21
562.5524675301745
 31
0.0
  0
LINE
  5
6BF
330
22
100
AcDbEntity
  8
_4-7_
  6
Continuous
 62
     7
100
AcDbLine
 10
796.9962427281566
 20
562.5524675301745
 30
0.0
 11
796.9682613359982
 21
562.5715213198722
 31
0.0
  0
LINE
  5
6C0
330
22
100
AcDbEntity
  8
_4-7_
  6
Continuous
 62
     7
100
AcDbLine
 10
796.9682613359982
 20
562.5715213198722
 30
0.0
 11
796.9370674575046
 21
562.5858660921537
 31
0.0
  0
LINE
  5
6C1
330
22
100
AcDbEntity
  8
_4-7_
  6
Continuous
 62
     7
100
AcDbLine
 10
796.9370674575046
 20
562.5858660921537
 30
0.0
 11
796.9036089028896
 21
562.5950659883723
 31
0.0
  0
LINE
  5
6C2
330
22
100
AcDbEntity
  8
_4-7_
  6
Continuous
 62
     7
100
AcDbLine
 10
796.9036089028896
 20
562.5950659883723
 30
0.0
 11
796.8689022934035
 21
562.5988414743366
 31
0.0
  0
LINE
  5
6C3
330
22
100
AcDbEntity
  8
_4-7_
  6
Continuous
 62
     7
100
AcDbLine
 10
796.8689022934035
 20
562.5988414743366
 30
0.0
 11
796.8689022934035
 21
562.5988414743366
 31
0.0
  0
TEXT
  5
6C4
330
22
100
AcDbEntity
  8
_2-A_MOJI
 62
     7
100
AcDbText
 10
1117.778078018389
 20
171.0386814803351
 30
0.0
 40
15.0
  1
※国土交通省　公共建築工事標準仕様書より
100
AcDbText
  0
ENDSEC
  0
SECTION
  2
OBJECTS
  0
DICTIONARY
  5
C
330
0
100
AcDbDictionary
281
     1
  3
ACAD_COLOR
350
1B
  3
ACAD_GROUP
350
D
  3
ACAD_LAYOUT
350
19
  3
ACAD_MATERIAL
350
1A
  3
ACAD_MLINESTYLE
350
16
  3
ACAD_PLOTSETTINGS
350
18
  3
ACAD_PLOTSTYLENAME
350
E
  3
ACAD_TABLESTYLE
350
1C
  3
ACDBHEADERROUNDTRIPXREC
350
6CC
  3
AcDbVariableDictionary
350
6C7
  0
DICTIONARY
  5
1B
102
{ACAD_REACTORS
330
C
102
}
330
C
100
AcDbDictionary
281
     1
  0
DICTIONARY
  5
D
102
{ACAD_REACTORS
330
C
102
}
330
C
100
AcDbDictionary
281
     1
  0
DICTIONARY
  5
19
102
{ACAD_REACTORS
330
C
102
}
330
C
100
AcDbDictionary
281
     1
  3
Model
350
25
  3
レイアウト1
350
21
  0
DICTIONARY
  5
1A
102
{ACAD_REACTORS
330
C
102
}
330
C
100
AcDbDictionary
281
     1
  0
DICTIONARY
  5
16
102
{ACAD_REACTORS
330
C
102
}
330
C
100
AcDbDictionary
281
     1
  3
Standard
350
17
  0
DICTIONARY
  5
18
102
{ACAD_REACTORS
330
C
102
}
330
C
100
AcDbDictionary
281
     1
  0
ACDBDICTIONARYWDFLT
  5
E
102
{ACAD_REACTORS
330
C
102
}
330
C
100
AcDbDictionary
281
     1
  3
Normal
350
F
100
AcDbDictionaryWithDefault
340
F
  0
DICTIONARY
  5
1C
102
{ACAD_REACTORS
330
C
102
}
330
C
100
AcDbDictionary
281
     1
  3
Standard
350
1D
  0
DICTIONARY
  5
6CC
102
{ACAD_REACTORS
330
C
102
}
330
C
100
AcDbDictionary
281
     1
  0
DICTIONARY
  5
6C7
102
{ACAD_REACTORS
330
C
102
}
330
C
100
AcDbDictionary
281
     1
  3
CTABLESTYLE
350
6C8
  3
DIMASSOC
350
6C9
  3
PROJECTNAME
350
6CA
  0
LAYOUT
  5
25
102
{ACAD_XDICTIONARY
360
6CF
102
}
102
{ACAD_REACTORS
330
19
102
}
330
19
100
AcDbPlotSettings
  1

  2
PC1665
  4

  6

 40
0.0
 41
0.0
 42
0.0
 43
0.0
 44
0.0
 45
0.0
 46
0.0
 47
0.0
 48
0.0
 49
0.0
140
0.0
141
0.0
142
1.0
143
1.0
 70
  1712
 72
     0
 73
     0
 74
     0
  7

 75
     0
147
1.0
148
0.0
149
0.0
100
AcDbLayout
  1
Model
 70
     1
 71
     0
 10
0.0
 20
0.0
 11
12.0
 21
9.0
 12
0.0
 22
0.0
 32
0.0
 14
0.0
 24
0.0
 34
0.0
 15
0.0
 25
0.0
 35
0.0
146
0.0
 13
0.0
 23
0.0
 33
0.0
 16
1.0
 26
0.0
 36
0.0
 17
0.0
 27
1.0
 37
0.0
 76
     0
330
22
  0
LAYOUT
  5
21
102
{ACAD_XDICTIONARY
360
6CD
102
}
102
{ACAD_REACTORS
330
19
102
}
330
19
100
AcDbPlotSettings
  1

  2
PC1665
  4

  6

 40
0.0
 41
0.0
 42
0.0
 43
0.0
 44
0.0
 45
0.0
 46
0.0
 47
0.0
 48
0.0
 49
0.0
140
0.0
141
0.0
142
1.0
143
1.0
 70
   688
 72
     0
 73
     0
 74
     5
  7

 75
    16
147
1.0
148
0.0
149
0.0
100
AcDbLayout
  1
レイアウト1
 70
     1
 71
     1
 10
0.0
 20
0.0
 11
12.0
 21
9.0
 12
0.0
 22
0.0
 32
0.0
 14
1.000000000000000E+20
 24
1.000000000000000E+20
 34
1.000000000000000E+20
 15
-1.000000000000000E+20
 25
-1.000000000000000E+20
 35
-1.000000000000000E+20
146
0.0
 13
0.0
 23
0.0
 33
0.0
 16
1.0
 26
0.0
 36
0.0
 17
0.0
 27
1.0
 37
0.0
 76
     0
330
1E
  0
MLINESTYLE
  5
17
102
{ACAD_REACTORS
330
16
102
}
330
16
100
AcDbMlineStyle
  2
STANDARD
 70
     0
  3

 62
   256
 51
90.0
 52
90.0
 71
     2
 49
0.5
 62
   256
  6
BYLAYER
 49
-0.5
 62
   256
  6
BYLAYER
  0
ACDBPLACEHOLDER
  5
F
102
{ACAD_REACTORS
330
E
102
}
330
E
  0
TABLESTYLE
  5
1D
102
{ACAD_REACTORS
330
1C
102
}
330
1C
100
AcDbTableStyle
  3
Standard
 70
     0
 71
     0
 40
0.06
 41
0.06
280
     0
281
     0
  7
STANDARD
140
0.18
170
     2
 62
     0
 63
     7
283
     0
274
    -2
284
     1
 64
     0
275
    -2
285
     1
 65
     0
276
    -2
286
     1
 66
     0
277
    -2
287
     1
 67
     0
278
    -2
288
     1
 68
     0
279
    -2
289
     1
 69
     0
  7
STANDARD
140
0.25
170
     5
 62
     0
 63
     7
283
     0
274
    -2
284
     1
 64
     0
275
    -2
285
     1
 65
     0
276
    -2
286
     1
 66
     0
277
    -2
287
     1
 67
     0
278
    -2
288
     1
 68
     0
279
    -2
289
     1
 69
     0
  7
STANDARD
140
0.18
170
     5
 62
     0
 63
     7
283
     0
274
    -2
284
     1
 64
     0
275
    -2
285
     1
 65
     0
276
    -2
286
     1
 66
     0
277
    -2
287
     1
 67
     0
278
    -2
288
     1
 68
     0
279
    -2
289
     1
 69
     0
  0
DICTIONARYVAR
  5
6C8
102
{ACAD_REACTORS
330
6C7
102
}
330
6C7
100
DictionaryVariables
280
     0
  1
STANDARD
  0
DICTIONARYVAR
  5
6C9
102
{ACAD_REACTORS
330
6C7
102
}
330
6C7
100
DictionaryVariables
280
     0
  1
1
  0
DICTIONARYVAR
  5
6CA
102
{ACAD_REACTORS
330
6C7
102
}
330
6C7
100
DictionaryVariables
280
     0
  1

  0
DICTIONARY
  5
6CF
330
25
100
AcDbDictionary
280
     1
281
     1
  3
ACAD_XREC_ROUNDTRIP
360
6D0
  0
DICTIONARY
  5
6CD
330
21
100
AcDbDictionary
280
     1
281
     1
  3
ACAD_XREC_ROUNDTRIP
360
6CE
  0
XRECORD
  5
6D0
102
{ACAD_REACTORS
330
6CF
102
}
330
6CF
100
AcDbXrecord
280
     1
102
SHADEPLOT
 70
     0
102
SHADEPLOTRESLEVEL
 70
     2
102
SHADEPLOTCUSTOMDPI
 70
   300
  0
XRECORD
  5
6CE
102
{ACAD_REACTORS
330
6CD
102
}
330
6CD
100
AcDbXrecord
280
     1
102
SHADEPLOT
 70
     0
102
SHADEPLOTRESLEVEL
 70
     2
102
SHADEPLOTCUSTOMDPI
 70
   300
  0
ENDSEC
  0
EOF
