  0
SECTION
  2
HEADER
  9
$ACADVER
  1
AC1015
  9
$ACADMAINTVER
 70
    20
  9
$DWGCODEPAGE
  3
ANSI_932
  9
$INSBASE
 10
0.0
 20
0.0
 30
0.0
  9
$EXTMIN
 10
551.0833795544267
 20
19.66827740621283
 30
-0.0015258207003583
  9
$EXTMAX
 10
1551.159672219259
 20
1449.696811277765
 30
0.0000000349246037
  9
$LIMMIN
 10
0.0
 20
0.0
  9
$LIMMAX
 10
2100.0
 20
1485.0
  9
$ORTHOMODE
 70
     0
  9
$REGENMODE
 70
     1
  9
$FILLMODE
 70
     1
  9
$QTEXTMODE
 70
     0
  9
$MIRRTEXT
 70
     0
  9
$LTSCALE
 40
5.0
  9
$ATTMODE
 70
     1
  9
$TEXTSIZE
 40
0.2
  9
$TRACEWID
 40
0.05
  9
$TEXTSTYLE
  7
STANDARD
  9
$CLAYER
  8
0
  9
$CELTYPE
  6
CONTINUOUS
  9
$CECOLOR
 62
   256
  9
$CELTSCALE
 40
1.0
  9
$DISPSILH
 70
     0
  9
$DIMSCALE
 40
1.0
  9
$DIMASZ
 40
0.18
  9
$DIMEXO
 40
0.0625
  9
$DIMDLI
 40
0.38
  9
$DIMRND
 40
0.0
  9
$DIMDLE
 40
0.0
  9
$DIMEXE
 40
0.18
  9
$DIMTP
 40
0.0
  9
$DIMTM
 40
0.0
  9
$DIMTXT
 40
0.18
  9
$DIMCEN
 40
0.09
  9
$DIMTSZ
 40
0.0
  9
$DIMTOL
 70
     0
  9
$DIMLIM
 70
     0
  9
$DIMTIH
 70
     1
  9
$DIMTOH
 70
     1
  9
$DIMSE1
 70
     0
  9
$DIMSE2
 70
     0
  9
$DIMTAD
 70
     0
  9
$DIMZIN
 70
     0
  9
$DIMBLK
  1

  9
$DIMASO
 70
     1
  9
$DIMSHO
 70
     1
  9
$DIMPOST
  1

  9
$DIMAPOST
  1

  9
$DIMALT
 70
     0
  9
$DIMALTD
 70
     2
  9
$DIMALTF
 40
25.4
  9
$DIMLFAC
 40
1.0
  9
$DIMTOFL
 70
     0
  9
$DIMTVP
 40
0.0
  9
$DIMTIX
 70
     0
  9
$DIMSOXD
 70
     0
  9
$DIMSAH
 70
     0
  9
$DIMBLK1
  1

  9
$DIMBLK2
  1

  9
$DIMSTYLE
  2
Standard
  9
$DIMCLRD
 70
     0
  9
$DIMCLRE
 70
     0
  9
$DIMCLRT
 70
     0
  9
$DIMTFAC
 40
1.0
  9
$DIMGAP
 40
0.09
  9
$DIMJUST
 70
     0
  9
$DIMSD1
 70
     0
  9
$DIMSD2
 70
     0
  9
$DIMTOLJ
 70
     1
  9
$DIMTZIN
 70
     0
  9
$DIMALTZ
 70
     0
  9
$DIMALTTZ
 70
     0
  9
$DIMUPT
 70
     0
  9
$DIMDEC
 70
     4
  9
$DIMTDEC
 70
     4
  9
$DIMALTU
 70
     2
  9
$DIMALTTD
 70
     2
  9
$DIMTXSTY
  7
STANDARD
  9
$DIMAUNIT
 70
     0
  9
$DIMADEC
 70
     0
  9
$DIMALTRND
 40
0.0
  9
$DIMAZIN
 70
     0
  9
$DIMDSEP
 70
    46
  9
$DIMATFIT
 70
     3
  9
$DIMFRAC
 70
     0
  9
$DIMLDRBLK
  1

  9
$DIMLUNIT
 70
     2
  9
$DIMLWD
 70
    -2
  9
$DIMLWE
 70
    -2
  9
$DIMTMOVE
 70
     0
  9
$LUNITS
 70
     2
  9
$LUPREC
 70
     4
  9
$SKETCHINC
 40
0.1
  9
$FILLETRAD
 40
0.0
  9
$AUNITS
 70
     0
  9
$AUPREC
 70
     0
  9
$MENU
  1
.
  9
$ELEVATION
 40
0.0
  9
$PELEVATION
 40
0.0
  9
$THICKNESS
 40
0.0
  9
$LIMCHECK
 70
     0
  9
$CHAMFERA
 40
0.0
  9
$CHAMFERB
 40
0.0
  9
$CHAMFERC
 40
0.0
  9
$CHAMFERD
 40
0.0
  9
$SKPOLY
 70
     0
  9
$TDCREATE
 40
2454846.609644850
  9
$TDUCREATE
 40
2454846.234644850
  9
$TDUPDATE
 40
2454846.617170753
  9
$TDUUPDATE
 40
2454846.242170753
  9
$TDINDWG
 40
0.0075282523
  9
$TDUSRTIMER
 40
0.0075282523
  9
$USRTIMER
 70
     1
  9
$ANGBASE
 50
0.0
  9
$ANGDIR
 70
     0
  9
$PDMODE
 70
     0
  9
$PDSIZE
 40
0.0
  9
$PLINEWID
 40
0.0
  9
$SPLFRAME
 70
     0
  9
$SPLINETYPE
 70
     6
  9
$SPLINESEGS
 70
     8
  9
$HANDSEED
  5
38F
  9
$SURFTAB1
 70
     6
  9
$SURFTAB2
 70
     6
  9
$SURFTYPE
 70
     6
  9
$SURFU
 70
     6
  9
$SURFV
 70
     6
  9
$UCSBASE
  2

  9
$UCSNAME
  2

  9
$UCSORG
 10
0.0
 20
0.0
 30
0.0
  9
$UCSXDIR
 10
1.0
 20
0.0
 30
0.0
  9
$UCSYDIR
 10
0.0
 20
1.0
 30
0.0
  9
$UCSORTHOREF
  2

  9
$UCSORTHOVIEW
 70
     0
  9
$UCSORGTOP
 10
0.0
 20
0.0
 30
0.0
  9
$UCSORGBOTTOM
 10
0.0
 20
0.0
 30
0.0
  9
$UCSORGLEFT
 10
0.0
 20
0.0
 30
0.0
  9
$UCSORGRIGHT
 10
0.0
 20
0.0
 30
0.0
  9
$UCSORGFRONT
 10
0.0
 20
0.0
 30
0.0
  9
$UCSORGBACK
 10
0.0
 20
0.0
 30
0.0
  9
$PUCSBASE
  2

  9
$PUCSNAME
  2

  9
$PUCSORG
 10
0.0
 20
0.0
 30
0.0
  9
$PUCSXDIR
 10
1.0
 20
0.0
 30
0.0
  9
$PUCSYDIR
 10
0.0
 20
1.0
 30
0.0
  9
$PUCSORTHOREF
  2

  9
$PUCSORTHOVIEW
 70
     0
  9
$PUCSORGTOP
 10
0.0
 20
0.0
 30
0.0
  9
$PUCSORGBOTTOM
 10
0.0
 20
0.0
 30
0.0
  9
$PUCSORGLEFT
 10
0.0
 20
0.0
 30
0.0
  9
$PUCSORGRIGHT
 10
0.0
 20
0.0
 30
0.0
  9
$PUCSORGFRONT
 10
0.0
 20
0.0
 30
0.0
  9
$PUCSORGBACK
 10
0.0
 20
0.0
 30
0.0
  9
$USERI1
 70
     0
  9
$USERI2
 70
     0
  9
$USERI3
 70
     0
  9
$USERI4
 70
     0
  9
$USERI5
 70
     0
  9
$USERR1
 40
0.0
  9
$USERR2
 40
0.0
  9
$USERR3
 40
0.0
  9
$USERR4
 40
0.0
  9
$USERR5
 40
0.0
  9
$WORLDVIEW
 70
     1
  9
$SHADEDGE
 70
     3
  9
$SHADEDIF
 70
    70
  9
$TILEMODE
 70
     1
  9
$MAXACTVP
 70
    64
  9
$PINSBASE
 10
0.0
 20
0.0
 30
0.0
  9
$PLIMCHECK
 70
     0
  9
$PEXTMIN
 10
1.000000000000000E+20
 20
1.000000000000000E+20
 30
1.000000000000000E+20
  9
$PEXTMAX
 10
-1.000000000000000E+20
 20
-1.000000000000000E+20
 30
-1.000000000000000E+20
  9
$PLIMMIN
 10
0.0
 20
0.0
  9
$PLIMMAX
 10
12.0
 20
9.0
  9
$UNITMODE
 70
     0
  9
$VISRETAIN
 70
     1
  9
$PLINEGEN
 70
     0
  9
$PSLTSCALE
 70
     1
  9
$TREEDEPTH
 70
  3020
  9
$CMLSTYLE
  2
Standard
  9
$CMLJUST
 70
     0
  9
$CMLSCALE
 40
1.0
  9
$PROXYGRAPHICS
 70
     1
  9
$MEASUREMENT
 70
     0
  9
$CELWEIGHT
370
    -1
  9
$ENDCAPS
280
     0
  9
$JOINSTYLE
280
     0
  9
$LWDISPLAY
290
     0
  9
$INSUNITS
 70
     0
  9
$HYPERLINKBASE
  1

  9
$STYLESHEET
  1

  9
$XEDIT
290
     1
  9
$CEPSNTYPE
380
     0
  9
$PSTYLEMODE
290
     1
  9
$FINGERPRINTGUID
  2
{BC8C3571-319D-44B5-89E9-3B5B304B9C23}
  9
$VERSIONGUID
  2
{7D99A342-A967-45D1-BBDD-9514A8C62B27}
  9
$EXTNAMES
290
     1
  9
$PSVPSCALE
 40
0.0
  9
$OLESTARTUP
290
     0
  0
ENDSEC
  0
SECTION
  2
CLASSES
  0
CLASS
  1
ACDBDICTIONARYWDFLT
  2
AcDbDictionaryWithDefault
  3
ObjectDBX Classes
 90
        0
280
     0
281
     0
  0
CLASS
  1
TABLESTYLE
  2
AcDbTableStyle
  3
ObjectDBX Classes
 90
     2047
280
     0
281
     0
  0
CLASS
  1
DICTIONARYVAR
  2
AcDbDictionaryVar
  3
ObjectDBX Classes
 90
        0
280
     0
281
     0
  0
CLASS
  1
ACDBPLACEHOLDER
  2
AcDbPlaceHolder
  3
ObjectDBX Classes
 90
        0
280
     0
281
     0
  0
CLASS
  1
LAYOUT
  2
AcDbLayout
  3
ObjectDBX Classes
 90
        0
280
     0
281
     0
  0
ENDSEC
  0
SECTION
  2
TABLES
  0
TABLE
  2
VPORT
  5
8
330
0
100
AcDbSymbolTable
 70
     2
  0
VPORT
  5
389
330
8
100
AcDbSymbolTableRecord
100
AcDbViewportTableRecord
  2
*Active
 70
     0
 10
0.0
 20
0.0
 11
1.0
 21
1.0
 12
1051.121525886843
 22
734.682544341989
 13
0.0
 23
0.0
 14
1.0
 24
1.0
 15
0.0
 25
0.0
 16
0.0
 26
0.0
 36
1.0
 17
0.0
 27
0.0
 37
0.0
 40
1443.009125706997
 41
2.069696969696969
 42
50.0
 43
0.0
 44
0.0
 50
0.0
 51
0.0
 71
     0
 72
   100
 73
     1
 74
     1
 75
     0
 76
     0
 77
     0
 78
     0
281
     0
 65
     1
110
0.0
120
0.0
130
0.0
111
1.0
121
0.0
131
0.0
112
0.0
122
1.0
132
0.0
 79
     0
146
0.0
  0
ENDTAB
  0
TABLE
  2
LTYPE
  5
5
330
0
100
AcDbSymbolTable
 70
    35
  0
LTYPE
  5
13
330
5
100
AcDbSymbolTableRecord
100
AcDbLinetypeTableRecord
  2
ByBlock
 70
     0
  3

 72
    65
 73
     0
 40
0.0
  0
LTYPE
  5
14
330
5
100
AcDbSymbolTableRecord
100
AcDbLinetypeTableRecord
  2
ByLayer
 70
     0
  3

 72
    65
 73
     0
 40
0.0
  0
LTYPE
  5
15
330
5
100
AcDbSymbolTableRecord
100
AcDbLinetypeTableRecord
  2
CONTINUOUS
 70
     0
  3
実線
 72
    65
 73
     0
 40
0.0
  0
LTYPE
  5
26
330
5
100
AcDbSymbolTableRecord
100
AcDbLinetypeTableRecord
  2
DASHED1
 70
     0
  3
--  --  --  --  --  --  --  --  
 72
    65
 73
     2
 40
2.5
 49
1.25
 74
     0
 49
-1.25
 74
     0
  0
LTYPE
  5
27
330
5
100
AcDbSymbolTableRecord
100
AcDbLinetypeTableRecord
  2
DASHED2
 70
     0
  3
----    ----    ----    ----    
 72
    65
 73
     2
 40
5.0
 49
2.5
 74
     0
 49
-2.5
 74
     0
  0
LTYPE
  5
28
330
5
100
AcDbSymbolTableRecord
100
AcDbLinetypeTableRecord
  2
DASHED3
 70
     0
  3
------  ------  ------  ------  
 72
    65
 73
     2
 40
5.0
 49
3.75
 74
     0
 49
-1.25
 74
     0
  0
LTYPE
  5
29
330
5
100
AcDbSymbolTableRecord
100
AcDbLinetypeTableRecord
  2
CENTER1
 70
     0
  3
----- - ----- - ----- - ----- - 
 72
    65
 73
     4
 40
10.0
 49
6.25
 74
     0
 49
-1.25
 74
     0
 49
1.25
 74
     0
 49
-1.25
 74
     0
  0
LTYPE
  5
2A
330
5
100
AcDbSymbolTableRecord
100
AcDbLinetypeTableRecord
  2
CENTER2
 70
     0
  3
----------  --  ----------  --  
 72
    65
 73
     4
 40
20.0
 49
12.5
 74
     0
 49
-2.5
 74
     0
 49
2.5
 74
     0
 49
-2.5
 74
     0
  0
LTYPE
  5
2B
330
5
100
AcDbSymbolTableRecord
100
AcDbLinetypeTableRecord
  2
PHANTOM1
 70
     0
  3
--- - - --- - - --- - - --- - - 
 72
    65
 73
     6
 40
10.0
 49
3.25
 74
     0
 49
-1.25
 74
     0
 49
1.25
 74
     0
 49
-1.25
 74
     0
 49
1.25
 74
     0
 49
-1.25
 74
     0
  0
LTYPE
  5
2C
330
5
100
AcDbSymbolTableRecord
100
AcDbLinetypeTableRecord
  2
PHANTOM2
 70
     0
  3
--------  -  -  --------  -  -  
 72
    65
 73
     6
 40
20.0
 49
10.0
 74
     0
 49
-2.5
 74
     0
 49
1.25
 74
     0
 49
-2.5
 74
     0
 49
1.25
 74
     0
 49
-2.5
 74
     0
  0
LTYPE
  5
2D
330
5
100
AcDbSymbolTableRecord
100
AcDbLinetypeTableRecord
  2
DOT
 70
     0
  3
-   -   -   -   -   -   -   -   
 72
    65
 73
     2
 40
2.5
 49
0.625
 74
     0
 49
-1.875
 74
     0
  0
LTYPE
  5
2E
330
5
100
AcDbSymbolTableRecord
100
AcDbLinetypeTableRecord
  2
DUMMY
 70
     0
  3
ダミー
 72
    65
 73
     0
 40
0.0
  0
LTYPE
  5
2F
330
5
100
AcDbSymbolTableRecord
100
AcDbLinetypeTableRecord
  2
RAND1
 70
     0
  3
ランダム線1
 72
    65
 73
     4
 40
10.0
 49
1.0
 74
     0
 49
-2.0
 74
     0
 49
3.0
 74
     0
 49
-4.0
 74
     0
  0
LTYPE
  5
30
330
5
100
AcDbSymbolTableRecord
100
AcDbLinetypeTableRecord
  2
RAND2
 70
     0
  3
ランダム線2
 72
    65
 73
     4
 40
14.0
 49
2.0
 74
     0
 49
-3.0
 74
     0
 49
4.0
 74
     0
 49
-5.0
 74
     0
  0
LTYPE
  5
31
330
5
100
AcDbSymbolTableRecord
100
AcDbLinetypeTableRecord
  2
RAND3
 70
     0
  3
ランダム線3
 72
    65
 73
     4
 40
18.0
 49
3.0
 74
     0
 49
-4.0
 74
     0
 49
5.0
 74
     0
 49
-6.0
 74
     0
  0
LTYPE
  5
32
330
5
100
AcDbSymbolTableRecord
100
AcDbLinetypeTableRecord
  2
RAND4
 70
     0
  3
ランダム線4
 72
    65
 73
     4
 40
22.0
 49
4.0
 74
     0
 49
-5.0
 74
     0
 49
6.0
 74
     0
 49
-7.0
 74
     0
  0
LTYPE
  5
33
330
5
100
AcDbSymbolTableRecord
100
AcDbLinetypeTableRecord
  2
RAND5
 70
     0
  3
ランダム線5
 72
    65
 73
     4
 40
26.0
 49
5.0
 74
     0
 49
-6.0
 74
     0
 49
7.0
 74
     0
 49
-8.0
 74
     0
  0
LTYPE
  5
34
330
5
100
AcDbSymbolTableRecord
100
AcDbLinetypeTableRecord
  2
LONG1
 70
     0
  3
----------  --  ----------  --  
 72
    65
 73
     4
 40
40.0
 49
32.5
 74
     0
 49
-2.5
 74
     0
 49
2.5
 74
     0
 49
-2.5
 74
     0
  0
LTYPE
  5
35
330
5
100
AcDbSymbolTableRecord
100
AcDbLinetypeTableRecord
  2
LONG2
 70
     0
  3
--------  -  -  --------  -  -  
 72
    65
 73
     6
 40
40.0
 49
30.0
 74
     0
 49
-2.5
 74
     0
 49
1.25
 74
     0
 49
-2.5
 74
     0
 49
1.25
 74
     0
 49
-2.5
 74
     0
  0
LTYPE
  5
36
330
5
100
AcDbSymbolTableRecord
100
AcDbLinetypeTableRecord
  2
LONG3
 70
     0
  3
+++++++++++++++..+++++++++++++++
 72
    65
 73
     2
 40
40.0
 49
37.5
 74
     0
 49
-2.5
 74
     0
  0
LTYPE
  5
37
330
5
100
AcDbSymbolTableRecord
100
AcDbLinetypeTableRecord
  2
LONG4
 70
     0
  3
+++++++++++++++..+++++++++++++++
 72
    65
 73
     2
 40
80.0
 49
75.0
 74
     0
 49
-5.0
 74
     0
  0
LTYPE
  5
38
330
5
100
AcDbSymbolTableRecord
100
AcDbLinetypeTableRecord
  2
LONG5
 70
     0
  3
----------  --  ----------  --  
 72
    65
 73
     4
 40
60.0
 49
37.5
 74
     0
 49
-7.5
 74
     0
 49
7.5
 74
     0
 49
-7.5
 74
     0
  0
LTYPE
  5
39
330
5
100
AcDbSymbolTableRecord
100
AcDbLinetypeTableRecord
  2
DASHED
 70
     0
  3
-------   -------------   ------
 72
    65
 73
     2
 40
7.5
 49
6.0
 74
     0
 49
-1.5
 74
     0
  0
LTYPE
  5
3A
330
5
100
AcDbSymbolTableRecord
100
AcDbLinetypeTableRecord
  2
DASHED_SPACED
 70
     0
  3
----        --------        ----
 72
    65
 73
     2
 40
12.0
 49
6.0
 74
     0
 49
-6.0
 74
     0
  0
LTYPE
  5
3B
330
5
100
AcDbSymbolTableRecord
100
AcDbLinetypeTableRecord
  2
LONG_DASHED_DOTTED
 70
     0
  3
------------- --- --------------
 72
    65
 73
     4
 40
15.25
 49
12.0
 74
     0
 49
-1.5
 74
     0
 49
0.25
 74
     0
 49
-1.5
 74
     0
  0
LTYPE
  5
3C
330
5
100
AcDbSymbolTableRecord
100
AcDbLinetypeTableRecord
  2
LONG_DASHED_DOUBLE-DOTTED
 70
     0
  3
----------- --- --- ------------
 72
    65
 73
     6
 40
17.0
 49
12.0
 74
     0
 49
-1.5
 74
     0
 49
0.25
 74
     0
 49
-1.5
 74
     0
 49
0.25
 74
     0
 49
-1.5
 74
     0
  0
LTYPE
  5
3D
330
5
100
AcDbSymbolTableRecord
100
AcDbLinetypeTableRecord
  2
LONG_DASHED_TRIPLICATE-DOTTED
 70
     0
  3
--------- --- --- --- ----------
 72
    65
 73
     8
 40
18.75
 49
12.0
 74
     0
 49
-1.5
 74
     0
 49
0.25
 74
     0
 49
-1.5
 74
     0
 49
0.25
 74
     0
 49
-1.5
 74
     0
 49
0.25
 74
     0
 49
-1.5
 74
     0
  0
LTYPE
  5
3E
330
5
100
AcDbSymbolTableRecord
100
AcDbLinetypeTableRecord
  2
DOTTED
 70
     0
  3
   -       -       -       -    
 72
    65
 73
     2
 40
1.75
 49
0.25
 74
     0
 49
-1.5
 74
     0
  0
LTYPE
  5
3F
330
5
100
AcDbSymbolTableRecord
100
AcDbLinetypeTableRecord
  2
CHAIN
 70
     0
  3
-------------- -- --------------
 72
    65
 73
     4
 40
18.5
 49
12.0
 74
     0
 49
-1.5
 74
     0
 49
3.5
 74
     0
 49
-1.5
 74
     0
  0
LTYPE
  5
40
330
5
100
AcDbSymbolTableRecord
100
AcDbLinetypeTableRecord
  2
CHAIN_DOUBLE_DASH
 70
     0
  3
------------ -- -- -------------
 72
    65
 73
     6
 40
23.5
 49
12.0
 74
     0
 49
-1.5
 74
     0
 49
3.5
 74
     0
 49
-1.5
 74
     0
 49
3.5
 74
     0
 49
-1.5
 74
     0
  0
LTYPE
  5
41
330
5
100
AcDbSymbolTableRecord
100
AcDbLinetypeTableRecord
  2
DASHED_DOTTED
 70
     0
  3
-----------     -     ----------
 72
    65
 73
     4
 40
9.25
 49
6.0
 74
     0
 49
-1.5
 74
     0
 49
0.25
 74
     0
 49
-1.5
 74
     0
  0
LTYPE
  5
42
330
5
100
AcDbSymbolTableRecord
100
AcDbLinetypeTableRecord
  2
DOUBLE-DASHED_DOTTED
 70
     0
  3
------   -----------   -   -----
 72
    65
 73
     6
 40
16.75
 49
6.0
 74
     0
 49
-1.5
 74
     0
 49
6.0
 74
     0
 49
-1.5
 74
     0
 49
0.25
 74
     0
 49
-1.5
 74
     0
  0
LTYPE
  5
43
330
5
100
AcDbSymbolTableRecord
100
AcDbLinetypeTableRecord
  2
DASHED_DOUBLE-DOTTED
 70
     0
  3
---------    -    -    ---------
 72
    65
 73
     6
 40
11.0
 49
6.0
 74
     0
 49
-1.5
 74
     0
 49
0.25
 74
     0
 49
-1.5
 74
     0
 49
0.25
 74
     0
 49
-1.5
 74
     0
  0
LTYPE
  5
44
330
5
100
AcDbSymbolTableRecord
100
AcDbLinetypeTableRecord
  2
DOUBLE-DASHED_DOUBLE-DOTTED
 70
     0
  3
-----   ---------   -   -   ----
 72
    65
 73
     8
 40
18.5
 49
6.0
 74
     0
 49
-1.5
 74
     0
 49
6.0
 74
     0
 49
-1.5
 74
     0
 49
0.25
 74
     0
 49
-1.5
 74
     0
 49
0.25
 74
     0
 49
-1.5
 74
     0
  0
LTYPE
  5
45
330
5
100
AcDbSymbolTableRecord
100
AcDbLinetypeTableRecord
  2
DASHED_TRIPLICATE-DOTTED
 70
     0
  3
-------    -    -    -    ------
 72
    65
 73
     8
 40
12.75
 49
6.0
 74
     0
 49
-1.5
 74
     0
 49
0.25
 74
     0
 49
-1.5
 74
     0
 49
0.25
 74
     0
 49
-1.5
 74
     0
 49
0.25
 74
     0
 49
-1.5
 74
     0
  0
LTYPE
  5
46
330
5
100
AcDbSymbolTableRecord
100
AcDbLinetypeTableRecord
  2
DOUBLE-DASHED_TRIPLICATE-DOTTED
 70
     0
  3
-----  ---------  -  -  -  -----
 72
    65
 73
    10
 40
20.25
 49
6.0
 74
     0
 49
-1.5
 74
     0
 49
6.0
 74
     0
 49
-1.5
 74
     0
 49
0.25
 74
     0
 49
-1.5
 74
     0
 49
0.25
 74
     0
 49
-1.5
 74
     0
 49
0.25
 74
     0
 49
-1.5
 74
     0
  0
LTYPE
  5
47
330
5
100
AcDbSymbolTableRecord
100
AcDbLinetypeTableRecord
  2
UNDEFINED
 70
     0
  3
--------------------------------
 72
    65
 73
     0
 40
0.0
  0
ENDTAB
  0
TABLE
  2
LAYER
  5
2
330
0
100
AcDbSymbolTable
 70
    17
  0
LAYER
  5
10
330
2
100
AcDbSymbolTableRecord
100
AcDbLayerTableRecord
  2
0
 70
     0
 62
     7
  6
CONTINUOUS
370
    -3
390
F
  0
LAYER
  5
49
330
2
100
AcDbSymbolTableRecord
100
AcDbLayerTableRecord
  2
_2-1_
 70
     0
 62
     7
  6
CONTINUOUS
370
    -3
390
F
  0
LAYER
  5
4A
330
2
100
AcDbSymbolTableRecord
100
AcDbLayerTableRecord
  2
_2-2_IN_LINE
 70
     0
 62
     7
  6
CONTINUOUS
370
    -3
390
F
  0
LAYER
  5
4B
330
2
100
AcDbSymbolTableRecord
100
AcDbLayerTableRecord
  2
_2-3_
 70
     0
 62
     7
  6
CONTINUOUS
370
    -3
390
F
  0
LAYER
  5
4C
330
2
100
AcDbSymbolTableRecord
100
AcDbLayerTableRecord
  2
_2-4_OUT_LINE
 70
     0
 62
     7
  6
CONTINUOUS
370
    -3
390
F
  0
LAYER
  5
4D
330
2
100
AcDbSymbolTableRecord
100
AcDbLayerTableRecord
  2
_2-7_ビス
 70
     0
 62
     7
  6
CONTINUOUS
370
    -3
390
F
  0
LAYER
  5
4E
330
2
100
AcDbSymbolTableRecord
100
AcDbLayerTableRecord
  2
_2-8_DRAIN他
 70
     0
 62
     7
  6
CONTINUOUS
370
    -3
390
F
  0
LAYER
  5
4F
330
2
100
AcDbSymbolTableRecord
100
AcDbLayerTableRecord
  2
_2-9_STRAINER他
 70
     0
 62
     7
  6
CONTINUOUS
370
    -3
390
F
  0
LAYER
  5
50
330
2
100
AcDbSymbolTableRecord
100
AcDbLayerTableRecord
  2
_2-A_MOJI
 70
     0
 62
     7
  6
CONTINUOUS
370
    -3
390
F
  0
LAYER
  5
51
330
2
100
AcDbSymbolTableRecord
100
AcDbLayerTableRecord
  2
_2-D_ハッチ他
 70
     0
 62
     7
  6
CONTINUOUS
370
    -3
390
F
  0
LAYER
  5
52
330
2
100
AcDbSymbolTableRecord
100
AcDbLayerTableRecord
  2
_2-E_CON他
 70
     0
 62
     7
  6
CONTINUOUS
370
    -3
390
F
  0
LAYER
  5
53
330
2
100
AcDbSymbolTableRecord
100
AcDbLayerTableRecord
  2
_F-2_
 70
     0
 62
     7
  6
CONTINUOUS
370
    -3
390
F
  0
LAYER
  5
54
330
2
100
AcDbSymbolTableRecord
100
AcDbLayerTableRecord
  2
_F-5_
 70
     0
 62
     7
  6
CONTINUOUS
370
    -3
390
F
  0
LAYER
  5
55
330
2
100
AcDbSymbolTableRecord
100
AcDbLayerTableRecord
  2
_F-7_
 70
     0
 62
     7
  6
CONTINUOUS
370
    -3
390
F
  0
LAYER
  5
56
330
2
100
AcDbSymbolTableRecord
100
AcDbLayerTableRecord
  2
_F-8_
 70
     0
 62
     7
  6
CONTINUOUS
370
    -3
390
F
  0
LAYER
  5
57
330
2
100
AcDbSymbolTableRecord
100
AcDbLayerTableRecord
  2
_F-A_
 70
     0
 62
     7
  6
CONTINUOUS
370
    -3
390
F
  0
LAYER
  5
58
330
2
100
AcDbSymbolTableRecord
100
AcDbLayerTableRecord
  2
ADD_LINE
 70
     0
 62
     7
  6
CONTINUOUS
370
    -3
390
F
  0
ENDTAB
  0
TABLE
  2
STYLE
  5
3
330
0
100
AcDbSymbolTable
 70
     2
  0
STYLE
  5
11
330
3
100
AcDbSymbolTableRecord
100
AcDbTextStyleTableRecord
  2
STANDARD
 70
     0
 40
0.0
 41
1.0
 50
0.0
 71
     0
 42
0.2
  3
txt
  4
bigfont.shx
  0
STYLE
  5
48
330
3
100
AcDbSymbolTableRecord
100
AcDbTextStyleTableRecord
  2
TATEGAKI
 70
     4
 40
0.0
 41
1.0
 50
0.0
 71
     0
 42
1.0
  3
txt
  4
bigfont.shx
  0
ENDTAB
  0
TABLE
  2
VIEW
  5
6
330
0
100
AcDbSymbolTable
 70
     0
  0
ENDTAB
  0
TABLE
  2
UCS
  5
7
330
0
100
AcDbSymbolTable
 70
     0
  0
ENDTAB
  0
TABLE
  2
APPID
  5
9
330
0
100
AcDbSymbolTable
 70
     1
  0
APPID
  5
12
330
9
100
AcDbSymbolTableRecord
100
AcDbRegAppTableRecord
  2
ACAD
 70
     0
  0
ENDTAB
  0
TABLE
  2
DIMSTYLE
  5
A
330
0
100
AcDbSymbolTable
 70
     1
100
AcDbDimStyleTable
 71
     0
  0
DIMSTYLE
105
383
330
A
100
AcDbSymbolTableRecord
100
AcDbDimStyleTableRecord
  2
Standard
 70
     0
340
11
  0
ENDTAB
  0
TABLE
  2
BLOCK_RECORD
  5
1
330
0
100
AcDbSymbolTable
 70
     0
  0
BLOCK_RECORD
  5
22
330
1
100
AcDbSymbolTableRecord
100
AcDbBlockTableRecord
  2
*Model_Space
340
25
  0
BLOCK_RECORD
  5
1E
330
1
100
AcDbSymbolTableRecord
100
AcDbBlockTableRecord
  2
*Paper_Space
340
21
  0
ENDTAB
  0
ENDSEC
  0
SECTION
  2
BLOCKS
  0
BLOCK
  5
23
330
22
100
AcDbEntity
  8
0
100
AcDbBlockBegin
  2
*Model_Space
 70
     0
 10
0.0
 20
0.0
 30
0.0
  3
*Model_Space
  1

  0
ENDBLK
  5
24
330
22
100
AcDbEntity
  8
0
100
AcDbBlockEnd
  0
BLOCK
  5
1F
330
1E
100
AcDbEntity
 67
     1
  8
0
100
AcDbBlockBegin
  2
*Paper_Space
 70
     0
 10
0.0
 20
0.0
 30
0.0
  3
*Paper_Space
  1

  0
ENDBLK
  5
20
330
1E
100
AcDbEntity
 67
     1
  8
0
100
AcDbBlockEnd
  0
ENDSEC
  0
SECTION
  2
ENTITIES
  0
LINE
  5
5C
330
22
100
AcDbEntity
  8
ADD_LINE
  6
DOT
 62
   136
100
AcDbLine
 10
651.0840295565509
 20
779.6738356378596
 30
0.0
 11
1451.08402955655
 21
779.6738356378596
 31
0.0
  0
LINE
  5
5D
330
22
100
AcDbEntity
  8
ADD_LINE
  6
DOT
 62
   136
100
AcDbLine
 10
671.0840295565509
 20
799.6738356378596
 30
0.0
 11
671.0840295565509
 21
759.6738356378596
 31
0.0
  0
LINE
  5
5E
330
22
100
AcDbEntity
  8
ADD_LINE
  6
DOT
 62
   136
100
AcDbLine
 10
956.0840295565506
 20
799.6738356378596
 30
0.0
 11
956.0840295565506
 21
759.6738356378596
 31
0.0
  0
LINE
  5
5F
330
22
100
AcDbEntity
  8
ADD_LINE
  6
DOT
 62
   136
100
AcDbLine
 10
806.0840295565508
 20
799.6738356378596
 30
0.0
 11
806.0840295565508
 21
759.6738356378596
 31
0.0
  0
LINE
  5
60
330
22
100
AcDbEntity
  8
ADD_LINE
  6
DOT
 62
   136
100
AcDbLine
 10
651.0840295565509
 20
139.6738356378591
 30
0.0
 11
1451.08402955655
 21
139.6738356378591
 31
0.0
  0
LINE
  5
61
330
22
100
AcDbEntity
  8
ADD_LINE
  6
DOT
 62
   136
100
AcDbLine
 10
671.0840295565509
 20
159.6738356378591
 30
0.0
 11
671.0840295565509
 21
119.6738356378591
 31
0.0
  0
LINE
  5
62
330
22
100
AcDbEntity
  8
ADD_LINE
  6
DOT
 62
   136
100
AcDbLine
 10
956.0840295565506
 20
159.6738356378591
 30
0.0
 11
956.0840295565506
 21
119.6738356378591
 31
0.0
  0
LINE
  5
63
330
22
100
AcDbEntity
  8
ADD_LINE
  6
DOT
 62
   136
100
AcDbLine
 10
806.0840295565508
 20
159.6738356378591
 30
0.0
 11
806.0840295565508
 21
119.6738356378591
 31
0.0
  0
LINE
  5
64
330
22
100
AcDbEntity
  8
ADD_LINE
  6
DOT
 62
   136
100
AcDbLine
 10
1551.08402955655
 20
1449.673835637859
 30
0.0
 11
1551.08402955655
 21
19.67383563785916
 31
0.0
  0
LINE
  5
65
330
22
100
AcDbEntity
  8
ADD_LINE
  6
DOT
 62
   136
100
AcDbLine
 10
551.0840295565509
 20
1449.673835637859
 30
0.0
 11
1551.08402955655
 21
1449.673835637859
 31
0.0
  0
LINE
  5
66
330
22
100
AcDbEntity
  8
ADD_LINE
  6
DOT
 62
   136
100
AcDbLine
 10
551.0840295565509
 20
1449.673835637859
 30
0.0
 11
551.0840295565509
 21
19.67383563785916
 31
0.0
  0
LINE
  5
67
330
22
100
AcDbEntity
  8
ADD_LINE
  6
DOT
 62
   136
100
AcDbLine
 10
1551.08402955655
 20
19.67383563785916
 30
0.0
 11
551.0840295565464
 21
19.67383563785916
 31
0.0
  0
LINE
  5
68
330
22
100
AcDbEntity
  8
ADD_LINE
  6
DOT
 62
   136
100
AcDbLine
 10
1336.084029556551
 20
799.6738356378596
 30
0.0
 11
1336.084029556551
 21
759.6738356378596
 31
0.0
  0
LINE
  5
69
330
22
100
AcDbEntity
  8
ADD_LINE
  6
DOT
 62
   136
100
AcDbLine
 10
1231.084029556551
 20
799.6738356378596
 30
0.0
 11
1231.084029556551
 21
759.6738356378596
 31
0.0
  0
LINE
  5
6A
330
22
100
AcDbEntity
  8
ADD_LINE
  6
DOT
 62
   136
100
AcDbLine
 10
1336.084029556551
 20
159.6738356378591
 30
0.0
 11
1336.084029556551
 21
119.6738356378591
 31
0.0
  0
LINE
  5
6B
330
22
100
AcDbEntity
  8
ADD_LINE
  6
DOT
 62
   136
100
AcDbLine
 10
1231.084029556551
 20
159.6738356378591
 30
0.0
 11
1231.084029556551
 21
119.6738356378591
 31
0.0
  0
LINE
  5
6C
330
22
100
AcDbEntity
  8
_F-7_
  6
Continuous
 62
     1
100
AcDbLine
 10
651.0840295565509
 20
759.6738356378596
 30
0.0
 11
1451.08402955655
 21
759.6738356378596
 31
0.0
  0
LINE
  5
6D
330
22
100
AcDbEntity
  8
_F-7_
  6
Continuous
 62
     1
100
AcDbLine
 10
651.0840295565509
 20
709.6738356378596
 30
0.0
 11
1451.08402955655
 21
709.6738356378596
 31
0.0
  0
LINE
  5
6E
330
22
100
AcDbEntity
  8
_F-5_
  6
Continuous
 62
     6
100
AcDbLine
 10
651.0840295565509
 20
799.6738356378596
 30
0.0
 11
1451.08402955655
 21
799.6738356378596
 31
0.0
  0
LINE
  5
6F
330
22
100
AcDbEntity
  8
_F-2_
  6
Continuous
 62
     7
100
AcDbLine
 10
941.0840295565506
 20
799.6738356378596
 30
0.0
 11
941.0840295565506
 21
759.6738356378596
 31
0.0
  0
TEXT
  5
70
330
22
100
AcDbEntity
  8
_F-A_
 62
     7
100
AcDbText
 10
806.0840295565508
 20
769.6738356378596
 30
0.0
 40
17.5
  1
下地：ＲＣ
100
AcDbText
  0
TEXT
  5
71
330
22
100
AcDbEntity
  8
_F-A_
 62
     7
100
AcDbText
 10
671.0840295565509
 20
769.6738356378596
 30
0.0
 40
20.0
  1
１１０仕様
100
AcDbText
  0
LINE
  5
72
330
22
100
AcDbEntity
  8
_F-7_
  6
Continuous
 62
     1
100
AcDbLine
 10
651.0840295565509
 20
119.6738356378591
 30
0.0
 11
1451.08402955655
 21
119.6738356378591
 31
0.0
  0
LINE
  5
73
330
22
100
AcDbEntity
  8
_F-5_
  6
Continuous
 62
     6
100
AcDbLine
 10
651.0840295565509
 20
159.6738356378591
 30
0.0
 11
1451.08402955655
 21
159.6738356378591
 31
0.0
  0
LINE
  5
74
330
22
100
AcDbEntity
  8
_F-2_
  6
Continuous
 62
     7
100
AcDbLine
 10
941.0840295565506
 20
159.6738356378591
 30
0.0
 11
941.0840295565506
 21
119.6738356378591
 31
0.0
  0
TEXT
  5
75
330
22
100
AcDbEntity
  8
_F-A_
 62
     7
100
AcDbText
 10
671.0840295565509
 20
129.6738356378591
 30
0.0
 40
20.0
  1
１１０仕様
100
AcDbText
  0
LINE
  5
76
330
22
100
AcDbEntity
  8
_F-7_
  6
Continuous
 62
     1
100
AcDbLine
 10
651.0840295565509
 20
1349.673835637859
 30
0.0
 11
1451.08402955655
 21
1349.673835637859
 31
0.0
  0
LINE
  5
77
330
22
100
AcDbEntity
  8
_F-7_
  6
Continuous
 62
     1
100
AcDbLine
 10
1451.08402955655
 20
1349.673835637859
 30
0.0
 11
1451.08402955655
 21
759.6738356378596
 31
0.0
  0
LINE
  5
78
330
22
100
AcDbEntity
  8
_F-7_
  6
Continuous
 62
     1
100
AcDbLine
 10
651.0840295565509
 20
1349.673835637859
 30
0.0
 11
651.0840295565509
 21
759.6738356378596
 31
0.0
  0
LINE
  5
79
330
22
100
AcDbEntity
  8
_F-7_
  6
Continuous
 62
     1
100
AcDbLine
 10
651.0840295565509
 20
709.6738356378596
 30
0.0
 11
651.0840295565509
 21
119.6738356378591
 31
0.0
  0
LINE
  5
7A
330
22
100
AcDbEntity
  8
_F-7_
  6
Continuous
 62
     1
100
AcDbLine
 10
1451.08402955655
 20
709.6738356378596
 30
0.0
 11
1451.08402955655
 21
119.6738356378591
 31
0.0
  0
TEXT
  5
7B
330
22
100
AcDbEntity
  8
_F-A_
 62
     7
100
AcDbText
 10
956.0840295565506
 20
129.6738356378591
 30
0.0
 40
17.5
  1
部位：ドレイン廻り
100
AcDbText
  0
LINE
  5
7C
330
22
100
AcDbEntity
  8
_F-5_
  6
Continuous
 62
     6
100
AcDbLine
 10
791.0840295565509
 20
799.6738356378596
 30
0.0
 11
791.0840295565509
 21
759.6738356378596
 31
0.0
  0
LINE
  5
7D
330
22
100
AcDbEntity
  8
_F-5_
  6
Continuous
 62
     6
100
AcDbLine
 10
791.0840295565509
 20
159.6738356378591
 30
0.0
 11
791.0840295565509
 21
119.6738356378591
 31
0.0
  0
LINE
  5
7E
330
22
100
AcDbEntity
  8
_F-5_
  6
Continuous
 62
     6
100
AcDbLine
 10
788.5840295565509
 20
799.6738356378596
 30
0.0
 11
788.5840295565509
 21
759.6738356378596
 31
0.0
  0
LINE
  5
7F
330
22
100
AcDbEntity
  8
_F-5_
  6
Continuous
 62
     6
100
AcDbLine
 10
788.5840295565509
 20
159.6738356378591
 30
0.0
 11
788.5840295565509
 21
119.6738356378591
 31
0.0
  0
TEXT
  5
80
330
22
100
AcDbEntity
  8
_F-A_
 62
     7
100
AcDbText
 10
806.0840295565508
 20
129.6738356378591
 30
0.0
 40
17.5
  1
下地：ＲＣ
100
AcDbText
  0
TEXT
  5
81
330
22
100
AcDbEntity
  8
_F-A_
 62
     7
100
AcDbText
 10
956.0840295565506
 20
769.6738356378596
 30
0.0
 40
17.5
  1
部位：ドレイン廻り
100
AcDbText
  0
LINE
  5
82
330
22
100
AcDbEntity
  8
_F-2_
  6
Continuous
 62
     7
100
AcDbLine
 10
1321.084029556551
 20
799.6738356378596
 30
0.0
 11
1321.084029556551
 21
759.6738356378596
 31
0.0
  0
LINE
  5
83
330
22
100
AcDbEntity
  8
_F-2_
  6
Continuous
 62
     7
100
AcDbLine
 10
1216.084029556551
 20
799.6738356378596
 30
0.0
 11
1216.084029556551
 21
759.6738356378596
 31
0.0
  0
TEXT
  5
84
330
22
100
AcDbEntity
  8
_F-A_
 62
     7
100
AcDbText
 10
1336.084029556551
 20
769.6738356378596
 30
0.0
 40
15.0
  1
図番
100
AcDbText
  0
LINE
  5
85
330
22
100
AcDbEntity
  8
_F-2_
  6
Continuous
 62
     7
100
AcDbLine
 10
1321.084029556551
 20
159.6738356378591
 30
0.0
 11
1321.084029556551
 21
119.6738356378591
 31
0.0
  0
LINE
  5
86
330
22
100
AcDbEntity
  8
_F-2_
  6
Continuous
 62
     7
100
AcDbLine
 10
1216.084029556551
 20
159.6738356378591
 30
0.0
 11
1216.084029556551
 21
119.6738356378591
 31
0.0
  0
TEXT
  5
87
330
22
100
AcDbEntity
  8
_F-A_
 62
     7
100
AcDbText
 10
1336.084029556551
 20
129.6738356378591
 30
0.0
 40
15.0
  1
図番
100
AcDbText
  0
TEXT
  5
88
330
22
100
AcDbEntity
  8
_F-A_
 62
     7
100
AcDbText
 10
1231.084029556551
 20
769.6738356378596
 30
0.0
 40
15.0
  1
Ｓ＝１：５
100
AcDbText
  0
TEXT
  5
89
330
22
100
AcDbEntity
  8
_F-A_
 62
     7
100
AcDbText
 10
1231.084029556551
 20
129.6738356378591
 30
0.0
 40
15.0
  1
Ｓ＝１：５
100
AcDbText
  0
TEXT
  5
8A
330
22
100
AcDbEntity
  8
_F-A_
 62
     7
100
AcDbText
 10
1382.501698280657
 20
769.6738356378596
 30
0.0
 40
15.0
  1
１－１０
100
AcDbText
  0
TEXT
  5
8B
330
22
100
AcDbEntity
  8
_F-A_
 62
     7
100
AcDbText
 10
1382.501698280657
 20
129.6738356378591
 30
0.0
 40
15.0
  1
１－１１
100
AcDbText
  0
LINE
  5
8C
330
22
100
AcDbEntity
  8
_2-7_ビス
  6
Continuous
 62
     7
100
AcDbLine
 10
917.0838543200584
 20
1028.190266327754
 30
0.0
 11
913.4383807809177
 21
1028.190266327754
 31
0.0
  0
LINE
  5
8D
330
22
100
AcDbEntity
  8
_2-D_ハッチ他
  6
Continuous
 62
     4
100
AcDbLine
 10
779.0223137793199
 20
369.0870816337883
 30
0.0
 11
779.1937837077608
 21
369.258551562225
 31
0.0
  0
LINE
  5
8E
330
22
100
AcDbEntity
  8
_2-E_CON他
  6
Continuous
 62
     4
100
AcDbLine
 10
778.9635217830761
 20
614.5828478620342
 30
0.0
 11
824.0545095589009
 21
659.6738356378592
 31
0.0
  0
LINE
  5
8F
330
22
100
AcDbEntity
  8
_2-E_CON他
  6
Continuous
 62
     4
100
AcDbLine
 10
778.9635217830761
 20
607.5117800501697
 30
0.0
 11
831.1255773707678
 21
659.6738356378592
 31
0.0
  0
LINE
  5
90
330
22
100
AcDbEntity
  8
_2-E_CON他
  6
Continuous
 62
     4
100
AcDbLine
 10
778.9635217830761
 20
621.6539156739009
 30
0.0
 11
816.9834417470388
 21
659.6738356378592
 31
0.0
  0
LINE
  5
91
330
22
100
AcDbEntity
  8
_2-E_CON他
  6
Continuous
 62
     4
100
AcDbLine
 10
866.6681487048622
 20
495.216406971956
 30
0.0
 11
928.9635217830761
 21
557.5117800501697
 31
0.0
  0
LINE
  5
92
330
22
100
AcDbEntity
  8
_2-E_CON他
  6
Continuous
 62
     4
100
AcDbLine
 10
859.4500714708335
 20
495.0693975497916
 30
0.0
 11
928.9635217830761
 21
564.5828478620342
 31
0.0
  0
LINE
  5
93
330
22
100
AcDbEntity
  8
_2-E_CON他
  6
Continuous
 62
     4
100
AcDbLine
 10
852.2319942368046
 20
494.9223881276294
 30
0.0
 11
928.9635217830761
 21
571.6539156739009
 31
0.0
  0
LINE
  5
94
330
22
100
AcDbEntity
  8
_2-E_CON他
  6
Continuous
 62
     4
100
AcDbLine
 10
1194.329204819924
 20
234.6738356378592
 30
0.0
 11
1344.329204819924
 21
384.6738356378592
 31
0.0
  0
LINE
  5
95
330
22
100
AcDbEntity
  8
_2-E_CON他
  6
Continuous
 62
     4
100
AcDbLine
 10
1201.400272631791
 20
234.6738356378592
 30
0.0
 11
1351.400272631791
 21
384.6738356378592
 31
0.0
  0
LINE
  5
96
330
22
100
AcDbEntity
  8
_2-E_CON他
  6
Continuous
 62
     4
100
AcDbLine
 10
1208.471340443653
 20
234.6738356378592
 30
0.0
 11
1358.471340443655
 21
384.6738356378592
 31
0.0
  0
LINE
  5
97
330
22
100
AcDbEntity
  8
_2-E_CON他
  6
Continuous
 62
     4
100
AcDbLine
 10
958.4713404436529
 20
184.6738356378592
 30
0.0
 11
1158.471340443653
 21
384.6738356378592
 31
0.0
  0
LINE
  5
98
330
22
100
AcDbEntity
  8
_2-E_CON他
  6
Continuous
 62
     4
100
AcDbLine
 10
951.4002726317908
 20
184.6738356378592
 30
0.0
 11
1151.400272631791
 21
384.6738356378592
 31
0.0
  0
LINE
  5
99
330
22
100
AcDbEntity
  8
_2-E_CON他
  6
Continuous
 62
     4
100
AcDbLine
 10
944.3292048199241
 20
184.6738356378592
 30
0.0
 11
1144.329204819924
 21
384.6738356378592
 31
0.0
  0
LINE
  5
9A
330
22
100
AcDbEntity
  8
_2-E_CON他
  6
Continuous
 62
     4
100
AcDbLine
 10
778.9635217830761
 20
212.2370847891466
 30
0.0
 11
934.9141071745004
 21
368.1876701805732
 31
0.0
  0
LINE
  5
9B
330
22
100
AcDbEntity
  8
_2-E_CON他
  6
Continuous
 62
     4
100
AcDbLine
 10
778.9635217830761
 20
205.1660169772822
 30
0.0
 11
946.1267307866645
 21
372.3292259808727
 31
0.0
  0
LINE
  5
9C
330
22
100
AcDbEntity
  8
_2-E_CON他
  6
Continuous
 62
     4
100
AcDbLine
 10
778.9635217830761
 20
219.3081526010133
 30
0.0
 11
925.0330856064243
 21
365.3777164243593
 31
0.0
  0
LINE
  5
9D
330
22
100
AcDbEntity
  8
_2-E_CON他
  6
Continuous
 62
     4
100
AcDbLine
 10
726.0840295565509
 20
978.6390923311712
 30
0.0
 11
789.1316696035395
 21
1041.68673237816
 31
0.0
  0
LINE
  5
9E
330
22
100
AcDbEntity
  8
_2-E_CON他
  6
Continuous
 62
     4
100
AcDbLine
 10
726.0840295565509
 20
971.568024519307
 30
0.0
 11
796.2027374154018
 21
1041.68673237816
 31
0.0
  0
LINE
  5
9F
330
22
100
AcDbEntity
  8
_2-E_CON他
  6
Continuous
 62
     4
100
AcDbLine
 10
726.0840295565509
 20
985.7101601430354
 30
0.0
 11
782.060601791673
 21
1041.68673237816
 31
0.0
  0
LINE
  5
A0
330
22
100
AcDbEntity
  8
_2-E_CON他
  6
Continuous
 62
     4
100
AcDbLine
 10
1246.202737415402
 20
891.68673237816
 30
0.0
 11
1376.08402955655
 21
1021.568024519307
 31
0.0
  0
LINE
  5
A1
330
22
100
AcDbEntity
  8
_2-E_CON他
  6
Continuous
 62
     4
100
AcDbLine
 10
1232.060601791673
 20
891.68673237816
 30
0.0
 11
1376.08402955655
 21
1035.710160143035
 31
0.0
  0
LINE
  5
A2
330
22
100
AcDbEntity
  8
_2-E_CON他
  6
Continuous
 62
     4
100
AcDbLine
 10
1239.131669603539
 20
891.68673237816
 30
0.0
 11
1376.08402955655
 21
1028.639092331169
 31
0.0
  0
LINE
  5
A3
330
22
100
AcDbEntity
  8
_2-A_MOJI
  6
Continuous
 62
     7
100
AcDbLine
 10
1118.30314872047
 20
389.62027248087
 30
0.0
 11
1143.743909284554
 21
433.6849623610556
 31
0.0
  0
LINE
  5
A4
330
22
100
AcDbEntity
  8
_2-A_MOJI
  6
Continuous
 62
     7
100
AcDbLine
 10
933.1743549246089
 20
574.8770944882084
 30
0.0
 11
952.6933365417249
 21
608.6849623610556
 31
0.0
  0
LINE
  5
A5
330
22
100
AcDbEntity
  8
_2-A_MOJI
  6
Continuous
 62
     7
100
AcDbLine
 10
1172.991168300914
 20
433.6849623610556
 30
0.0
 11
1143.743909284554
 21
433.6849623610556
 31
0.0
  0
LINE
  5
A6
330
22
100
AcDbEntity
  8
_2-A_MOJI
  6
Continuous
 62
     7
100
AcDbLine
 10
991.3978777718062
 20
608.6849623610556
 30
0.0
 11
952.6933365417249
 21
608.6849623610556
 31
0.0
  0
TEXT
  5
A7
330
22
100
AcDbEntity
  8
_2-A_MOJI
 62
     7
100
AcDbText
 10
1216.223927351989
 20
1083.197859101356
 30
0.0
 40
15.0
  1
塩ビシート 接着工法
100
AcDbText
  0
TEXT
  5
A8
330
22
100
AcDbEntity
  8
_2-A_MOJI
 62
     7
100
AcDbText
 10
1216.223927351989
 20
1108.197859101356
 30
0.0
 40
15.0
  1
ロンシーラントＬ
100
AcDbText
  0
TEXT
  5
A9
330
22
100
AcDbEntity
  8
_2-A_MOJI
 62
     7
100
AcDbText
 10
1078.545354140381
 20
1208.197859101356
 30
0.0
 40
15.0
  1
ＥＳＰ－３
100
AcDbText
  0
TEXT
  5
AA
330
22
100
AcDbEntity
  8
_2-A_MOJI
 62
     7
100
AcDbText
 10
1182.991168300914
 20
426.1849623610556
 30
0.0
 40
15.0
  1
塩ビシート 接着工法
100
AcDbText
  0
TEXT
  5
AB
330
22
100
AcDbEntity
  8
_2-A_MOJI
 62
     7
100
AcDbText
 10
1182.991168300914
 20
451.1849623610556
 30
0.0
 40
15.0
  1
ロンシーラントＬ
100
AcDbText
  0
TEXT
  5
AC
330
22
100
AcDbEntity
  8
_2-A_MOJI
 62
     7
100
AcDbText
 10
1001.397877771806
 20
601.1849623610555
 30
0.0
 40
15.0
  1
塩ビシート 接着工法
100
AcDbText
  0
LINE
  5
AD
330
22
100
AcDbEntity
  8
_2-3_
  6
Continuous
 62
     3
100
AcDbLine
 10
778.9635217830761
 20
359.6215136550723
 30
0.0
 11
778.9635217830761
 21
184.6738356378592
 31
0.0
  0
LINE
  5
AE
330
22
100
AcDbEntity
  8
_2-3_
  6
Continuous
 62
     3
100
AcDbLine
 10
778.9635217830761
 20
659.6738356378592
 30
0.0
 11
778.9635217830761
 21
493.5932347078641
 31
0.0
  0
LINE
  5
AF
330
22
100
AcDbEntity
  8
_2-3_
  6
Continuous
 62
     3
100
AcDbLine
 10
1078.963521783076
 20
234.6738356378592
 30
0.0
 11
1376.08402955655
 21
234.6738356378592
 31
0.0
  0
LINE
  5
B0
330
22
100
AcDbEntity
  8
_2-3_
  6
Continuous
 62
     3
100
AcDbLine
 10
1078.963521783076
 20
234.6738356378592
 30
0.0
 11
1078.963521783076
 21
184.6738356378592
 31
0.0
  0
ARC
  5
B1
330
22
100
AcDbEntity
  8
_2-7_ビス
  6
Continuous
 62
     7
100
AcDbCircle
 10
911.0246426480131
 20
1026.408560567166
 30
0.0
 40
3.000000366315418
100
AcDbArc
 50
36.43096923828126
 51
74.99990844726562
  0
LINE
  5
B2
330
22
100
AcDbEntity
  8
_2-7_ビス
  6
Continuous
 62
     7
100
AcDbLine
 10
1037.79516280305
 20
1022.160411181383
 30
0.0
 11
1038.152457732581
 21
1026.646881054053
 31
0.0
  0
LINE
  5
B3
330
22
100
AcDbEntity
  8
_2-7_ビス
  6
Continuous
 62
     7
100
AcDbLine
 10
863.5838158932399
 20
1033.690217605674
 30
0.0
 11
866.5838794027974
 21
1033.690217605674
 31
0.0
  0
LINE
  5
B4
330
22
100
AcDbEntity
  8
_2-7_ビス
  6
Continuous
 62
     7
100
AcDbLine
 10
890.5986322068798
 20
1031.88175653055
 30
0.0
 11
895.5691750851341
 21
1030.5499364292
 31
0.0
  0
LINE
  5
B5
330
22
100
AcDbEntity
  8
_2-7_ビス
  6
Continuous
 62
     7
100
AcDbLine
 10
880.337287812709
 20
1037.736958929256
 30
0.0
 11
883.2351608848018
 21
1036.960559338922
 31
0.0
  0
LINE
  5
B6
330
22
100
AcDbEntity
  8
_2-7_ビス
  6
Continuous
 62
     7
100
AcDbLine
 10
888.4337432725994
 20
1035.567548842289
 30
0.0
 11
886.1328481560944
 21
1036.184159748587
 31
0.0
  0
LINE
  5
B7
330
22
100
AcDbEntity
  8
_2-7_ビス
  6
Continuous
 62
     7
100
AcDbLine
 10
889.1545264915116
 20
1034.802297299678
 30
0.0
 11
889.5172096441141
 21
1033.030005446058
 31
0.0
  0
LINE
  5
B8
330
22
100
AcDbEntity
  8
_2-7_ビス
  6
Continuous
 62
     7
100
AcDbLine
 10
898.279822889072
 20
1032.357158832354
 30
0.0
 11
897.0797355516522
 21
1031.003538104342
 31
0.0
  0
LINE
  5
B9
330
22
100
AcDbEntity
  8
_2-7_ビス
  6
Continuous
 62
     7
100
AcDbLine
 10
901.587820250184
 20
1032.043031620949
 30
0.0
 11
899.2868632000824
 21
1032.659642527246
 31
0.0
  0
LINE
  5
BA
330
22
100
AcDbEntity
  8
_2-7_ビス
  6
Continuous
 62
     7
100
AcDbLine
 10
884.4135714627606
 20
1032.503817593513
 30
0.0
 11
875.2258459979481
 21
1034.965554265228
 31
0.0
  0
LINE
  5
BB
330
22
100
AcDbEntity
  8
_2-7_ビス
  6
Continuous
 62
     7
100
AcDbLine
 10
886.0941396570574
 20
1029.805990044461
 30
0.0
 11
885.8553237013806
 21
1030.972819039505
 31
0.0
  0
LINE
  5
BC
330
22
100
AcDbEntity
  8
_2-7_ビス
  6
DASHED1
 62
     7
100
AcDbLine
 10
896.9218668091714
 20
1026.046372883352
 30
0.0
 11
887.1755002862213
 21
1028.657741128952
 31
0.0
  0
LINE
  5
BD
330
22
100
AcDbEntity
  8
_2-7_ビス
  6
DASHED1
 62
     7
100
AcDbLine
 10
898.4323653420876
 20
1026.499974558497
 30
0.0
 11
899.2224522576822
 21
1027.391075173184
 31
0.0
  0
LINE
  5
BE
330
22
100
AcDbEntity
  8
_2-7_ビス
  6
Continuous
 62
     7
100
AcDbLine
 10
911.0670671629627
 20
1001.690118217346
 30
0.0
 11
906.083889830616
 21
1001.690118217346
 31
0.0
  0
LINE
  5
BF
330
22
100
AcDbEntity
  8
_2-7_ビス
  6
Continuous
 62
     7
100
AcDbLine
 10
904.7754806294831
 20
1010.4125984905
 30
0.0
 11
906.083889830616
 21
1001.690118217346
 31
0.0
  0
LINE
  5
C0
330
22
100
AcDbEntity
  8
_2-7_ビス
  6
DASHED1
 62
     7
100
AcDbLine
 10
908.7145194253395
 20
1023.92601420637
 30
0.0
 11
910.4858203413828
 21
1001.690118217346
 31
0.0
  0
LINE
  5
C1
330
22
100
AcDbEntity
  8
_2-7_ビス
  6
DASHED1
 62
     7
100
AcDbLine
 10
906.5004552138823
 20
1026.58569065877
 30
0.0
 11
901.2365328797027
 21
1027.996042562972
 31
0.0
  0
LINE
  5
C2
330
22
100
AcDbEntity
  8
_2-7_ビス
  6
Continuous
 62
     7
100
AcDbLine
 10
911.8011041719457
 20
1029.30630977206
 30
0.0
 11
904.4855075214815
 21
1031.266632030615
 31
0.0
  0
LINE
  5
C3
330
22
100
AcDbEntity
  8
_2-7_ビス
  6
DASHED1
 62
     7
100
AcDbLine
 10
914.3725871801377
 20
1022.160411181383
 30
0.0
 11
914.0152303170047
 21
1026.646881054053
 31
0.0
  0
LINE
  5
C4
330
22
100
AcDbEntity
  8
_2-7_ビス
  6
DASHED1
 62
     7
100
AcDbLine
 10
922.4561604515436
 20
1018.815253661192
 30
0.0
 11
917.0323255661337
 21
1019.417000503859
 31
0.0
  0
LINE
  5
C5
330
22
100
AcDbEntity
  8
_2-7_ビス
  6
DASHED1
 62
     7
100
AcDbLine
 10
923.7703914109312
 20
1017.571131535262
 30
0.0
 11
924.4172259132808
 21
1013.69012452117
 31
0.0
  0
LINE
  5
C6
330
22
100
AcDbEntity
  8
_2-7_ビス
  6
Continuous
 62
     7
100
AcDbLine
 10
918.5838241412337
 20
1013.69012452117
 30
0.0
 11
1033.583863908348
 21
1013.69012452117
 31
0.0
  0
LINE
  5
C7
330
22
100
AcDbEntity
  8
_2-7_ビス
  6
Continuous
 62
     7
100
AcDbLine
 10
1088.583934089943
 20
1033.690217605674
 30
0.0
 11
1085.583808646789
 21
1033.690217605674
 31
0.0
  0
LINE
  5
C8
330
22
100
AcDbEntity
  8
_2-7_ビス
  6
Continuous
 62
     7
100
AcDbLine
 10
1071.830400236877
 20
1037.736958929256
 30
0.0
 11
1068.932589098381
 21
1036.960559338922
 31
0.0
  0
LINE
  5
C9
330
22
100
AcDbEntity
  8
_2-7_ビス
  6
Continuous
 62
     7
100
AcDbLine
 10
1067.754178520427
 20
1032.503817593513
 30
0.0
 11
1076.941842051638
 21
1034.965554265228
 31
0.0
  0
LINE
  5
CA
330
22
100
AcDbEntity
  8
_2-7_ビス
  6
Continuous
 62
     7
100
AcDbLine
 10
1066.073548392528
 20
1029.805990044461
 30
0.0
 11
1066.312364348205
 21
1030.972819039505
 31
0.0
  0
LINE
  5
CB
330
22
100
AcDbEntity
  8
_2-7_ビス
  6
Continuous
 62
     7
100
AcDbLine
 10
1055.245821240414
 20
1026.046372883352
 30
0.0
 11
1064.992249696961
 21
1028.657741128952
 31
0.0
  0
LINE
  5
CC
330
22
100
AcDbEntity
  8
_2-7_ビス
  6
Continuous
 62
     7
100
AcDbLine
 10
1053.735322707499
 20
1026.499974558497
 30
0.0
 11
1052.945297725501
 21
1027.391075173184
 31
0.0
  0
LINE
  5
CD
330
22
100
AcDbEntity
  8
_2-7_ビス
  6
PHANTOM1
 62
     7
100
AcDbLine
 10
1047.392207420098
 20
1010.4125984905
 30
0.0
 11
1046.083922086164
 21
1001.690118217346
 31
0.0
  0
LINE
  5
CE
330
22
100
AcDbEntity
  8
_2-7_ビス
  6
PHANTOM1
 62
     7
100
AcDbLine
 10
1062.273612458826
 20
1012.970208372633
 30
0.0
 11
1064.412117680158
 21
1027.390331970003
 31
0.0
  0
LINE
  5
CF
330
22
100
AcDbEntity
  8
_2-7_ビス
  6
Continuous
 62
     7
100
AcDbLine
 10
1043.453230557843
 20
1023.92601420637
 30
0.0
 11
1041.6819296418
 21
1001.690118217346
 31
0.0
  0
LINE
  5
D0
330
22
100
AcDbEntity
  8
_2-7_ビス
  6
Continuous
 62
     7
100
AcDbLine
 10
1045.667232835704
 20
1026.58569065877
 30
0.0
 11
1050.93121710348
 21
1027.996042562972
 31
0.0
  0
LINE
  5
D1
330
22
100
AcDbEntity
  8
_2-7_ビス
  6
Continuous
 62
     7
100
AcDbLine
 10
1033.583863908348
 20
1013.69012452117
 30
0.0
 11
1033.583863908348
 21
1002.690221965329
 31
0.0
  0
LINE
  5
D2
330
22
100
AcDbEntity
  8
_2-7_ビス
  6
PHANTOM1
 62
     7
100
AcDbLine
 10
1060.789993107637
 20
1011.690164759598
 30
0.0
 11
1048.875640970491
 21
1011.690164759598
 31
0.0
  0
LINE
  5
D3
330
22
100
AcDbEntity
  8
_2-7_ビス
  6
Continuous
 62
     7
100
AcDbLine
 10
1041.100682820225
 20
1001.690118217346
 30
0.0
 11
1041.6819296418
 21
1001.690118217346
 31
0.0
  0
LINE
  5
D4
330
22
100
AcDbEntity
  8
_2-7_ビス
  6
PHANTOM1
 62
     7
100
AcDbLine
 10
1041.6819296418
 20
1001.690118217346
 30
0.0
 11
1046.083922086164
 21
1001.690118217346
 31
0.0
  0
LINE
  5
D5
330
22
100
AcDbEntity
  8
_2-7_ビス
  6
Continuous
 62
     7
100
AcDbLine
 10
1063.73388284339
 20
1035.567548842289
 30
0.0
 11
1066.034839893491
 21
1036.184159748587
 31
0.0
  0
LINE
  5
D6
330
22
100
AcDbEntity
  8
_2-7_ビス
  6
Continuous
 62
     7
100
AcDbLine
 10
1063.013223491671
 20
1034.802049565285
 30
0.0
 11
1062.650478405472
 21
1033.030005446058
 31
0.0
  0
LINE
  5
D7
330
22
100
AcDbEntity
  8
_2-7_ビス
  6
Continuous
 62
     7
100
AcDbLine
 10
1061.569055842706
 20
1031.88175653055
 30
0.0
 11
1056.598574898049
 21
1030.5499364292
 31
0.0
  0
LINE
  5
D8
330
22
100
AcDbEntity
  8
_2-7_ビス
  6
Continuous
 62
     7
100
AcDbLine
 10
1053.887927094111
 20
1032.357158832354
 30
0.0
 11
1055.087952497934
 21
1031.003538104342
 31
0.0
  0
LINE
  5
D9
330
22
100
AcDbEntity
  8
_2-7_ビス
  6
Continuous
 62
     7
100
AcDbLine
 10
1050.579867799402
 20
1032.043031620949
 30
0.0
 11
1052.880824849504
 21
1032.659642527246
 31
0.0
  0
LINE
  5
DA
330
22
100
AcDbEntity
  8
_2-7_ビス
  6
Continuous
 62
     7
100
AcDbLine
 10
1040.36658387764
 20
1029.30630977206
 30
0.0
 11
1047.682242461702
 21
1031.266632030615
 31
0.0
  0
LINE
  5
DB
330
22
100
AcDbEntity
  8
_2-7_ビス
  6
Continuous
 62
     7
100
AcDbLine
 10
1028.397420505848
 20
1017.571131535262
 30
0.0
 11
1027.750462136306
 21
1013.69012452117
 31
0.0
  0
LINE
  5
DC
330
22
100
AcDbEntity
  8
_2-7_ビス
  6
Continuous
 62
     7
100
AcDbLine
 10
1029.711527598043
 20
1018.815253661192
 30
0.0
 11
1035.135424417049
 21
1019.417000503859
 31
0.0
  0
LINE
  5
DD
330
22
100
AcDbEntity
  8
_2-7_ビス
  6
Continuous
 62
     7
100
AcDbLine
 10
1041.583950689028
 20
1001.690365951738
 30
0.0
 11
1046.083922086164
 21
1001.690365951738
 31
0.0
  0
LINE
  5
DE
330
22
100
AcDbEntity
  8
_2-7_ビス
  6
Continuous
 62
     7
100
AcDbLine
 10
910.5837992941548
 20
1001.690365951738
 30
0.0
 11
906.083889830616
 21
1001.690365951738
 31
0.0
  0
LINE
  5
DF
330
22
100
AcDbEntity
  8
_2-7_ビス
  6
DASHED1
 62
     7
100
AcDbLine
 10
903.2920470790946
 20
1011.690164759598
 30
0.0
 11
908.3040235347247
 21
1011.690164759598
 31
0.0
  0
LINE
  5
E0
330
22
100
AcDbEntity
  8
_2-7_ビス
  6
Continuous
 62
     7
100
AcDbLine
 10
889.8940755907604
 20
1012.970208372633
 30
0.0
 11
887.7555703694275
 21
1027.390331970003
 31
0.0
  0
LINE
  5
E1
330
22
100
AcDbEntity
  8
_2-7_ビス
  6
Continuous
 62
     7
100
AcDbLine
 10
882.0840010901664
 20
994.6901351846468
 30
0.0
 11
882.0840010901664
 21
988.6902558999331
 31
0.0
  0
LINE
  5
E2
330
22
100
AcDbEntity
  8
_2-7_ビス
  6
Continuous
 62
     7
100
AcDbLine
 10
898.2589512663894
 20
1018.890317182529
 30
0.0
 11
891.9089613495641
 21
1018.890317182529
 31
0.0
  0
LINE
  5
E3
330
22
100
AcDbEntity
  8
_2-7_ビス
  6
Continuous
 62
     7
100
AcDbLine
 10
898.2589512663894
 20
1018.890317182529
 30
0.0
 11
897.4439051106134
 21
1019.690251540279
 31
0.0
  0
LINE
  5
E4
330
22
100
AcDbEntity
  8
_2-7_ビス
  6
Continuous
 62
     7
100
AcDbLine
 10
892.7238836381418
 20
1019.690251540279
 30
0.0
 11
891.9089613495641
 21
1018.890317182529
 31
0.0
  0
LINE
  5
E5
330
22
100
AcDbEntity
  8
_2-7_ビス
  6
Continuous
 62
     7
100
AcDbLine
 10
897.4439051106134
 20
1019.690251540279
 30
0.0
 11
892.7238836381418
 21
1019.690251540279
 31
0.0
  0
LINE
  5
E6
330
22
100
AcDbEntity
  8
_2-7_ビス
  6
Continuous
 62
     7
100
AcDbLine
 10
890.0840259372493
 20
994.6901351846468
 30
0.0
 11
882.0840010901664
 21
994.6901351846468
 31
0.0
  0
LINE
  5
E7
330
22
100
AcDbEntity
  8
_2-7_ビス
  6
Continuous
 62
     7
100
AcDbLine
 10
898.084050784328
 20
996.6900949462189
 30
0.0
 11
898.084050784328
 21
1009.690204998026
 31
0.0
  0
LINE
  5
E8
330
22
100
AcDbEntity
  8
_2-7_ビス
  6
Continuous
 62
     7
100
AcDbLine
 10
890.0840259372493
 20
988.6902558999331
 30
0.0
 11
882.0840010901664
 21
988.6902558999331
 31
0.0
  0
LINE
  5
E9
330
22
100
AcDbEntity
  8
_2-7_ビス
  6
Continuous
 62
     7
100
AcDbLine
 10
892.084047632416
 20
996.6900949462189
 30
0.0
 11
892.084047632416
 21
1009.690204998026
 31
0.0
  0
LINE
  5
EA
330
22
100
AcDbEntity
  8
_2-7_ビス
  6
Continuous
 62
     7
100
AcDbLine
 10
892.7238836381418
 20
1009.690204998026
 30
0.0
 11
892.7238836381418
 21
1019.690251540279
 31
0.0
  0
LINE
  5
EB
330
22
100
AcDbEntity
  8
_2-7_ビス
  6
Continuous
 62
     7
100
AcDbLine
 10
897.4439051106134
 20
1009.690204998026
 30
0.0
 11
897.4439051106134
 21
1019.690251540279
 31
0.0
  0
LINE
  5
EC
330
22
100
AcDbEntity
  8
_2-7_ビス
  6
Continuous
 62
     7
100
AcDbLine
 10
898.2589512663894
 20
1009.690204998026
 30
0.0
 11
898.2589512663894
 21
1018.890317182529
 31
0.0
  0
LINE
  5
ED
330
22
100
AcDbEntity
  8
_2-7_ビス
  6
Continuous
 62
     7
100
AcDbLine
 10
891.9089613495641
 20
1009.690204998026
 30
0.0
 11
891.9089613495641
 21
1018.890317182529
 31
0.0
  0
LINE
  5
EE
330
22
100
AcDbEntity
  8
_2-7_ビス
  6
Continuous
 62
     7
100
AcDbLine
 10
898.2589512663894
 20
1009.690204998026
 30
0.0
 11
891.9089613495641
 21
1009.690204998026
 31
0.0
  0
LINE
  5
EF
330
22
100
AcDbEntity
  8
_2-7_ビス
  6
Continuous
 62
     7
100
AcDbLine
 10
891.3778188091423
 20
1011.690164759598
 30
0.0
 11
891.9089613495641
 21
1011.690164759598
 31
0.0
  0
LINE
  5
F0
330
22
100
AcDbEntity
  8
_2-7_ビス
  6
Continuous
 62
     7
100
AcDbLine
 10
898.2589512663894
 20
1011.690164759598
 30
0.0
 11
903.2920470790946
 21
1011.690164759598
 31
0.0
  0
LINE
  5
F1
330
22
100
AcDbEntity
  8
_2-7_ビス
  6
Continuous
 62
     7
100
AcDbLine
 10
1033.583863908348
 20
1002.690221965329
 30
0.0
 11
1031.721396735366
 21
1002.690221965329
 31
0.0
  0
LINE
  5
F2
330
22
100
AcDbEntity
  8
_2-7_ビス
  6
Continuous
 62
     7
100
AcDbLine
 10
1032.377645144679
 20
981.6902728672339
 30
0.0
 11
1036.736841472512
 21
981.6902728672339
 31
0.0
  0
LINE
  5
F3
330
22
100
AcDbEntity
  8
_2-7_ビス
  6
Continuous
 62
     7
100
AcDbLine
 10
920.4463532478172
 20
1002.690221965329
 30
0.0
 11
918.5838241412337
 21
1002.690221965329
 31
0.0
  0
LINE
  5
F4
330
22
100
AcDbEntity
  8
_2-7_ビス
  6
Continuous
 62
     7
100
AcDbLine
 10
918.5838241412337
 20
1013.69012452117
 30
0.0
 11
918.5838241412337
 21
1002.690221965329
 31
0.0
  0
LINE
  5
F5
330
22
100
AcDbEntity
  8
_2-7_ビス
  6
Continuous
 62
     7
100
AcDbLine
 10
915.6223452635236
 20
981.6902728672339
 30
0.0
 11
919.7901048385034
 21
981.6902728672339
 31
0.0
  0
LINE
  5
F6
330
22
100
AcDbEntity
  8
_2-7_ビス
  6
Continuous
 62
     7
100
AcDbLine
 10
913.4370801753501
 20
983.5314348823459
 30
0.0
 11
912.0640122974242
 21
1000.76953720979
 31
0.0
  0
LINE
  5
F7
330
22
100
AcDbEntity
  8
_2-7_ビス
  6
Continuous
 62
     7
100
AcDbLine
 10
1038.730607874236
 20
983.5314348823459
 30
0.0
 11
1040.103737685763
 21
1000.76953720979
 31
0.0
  0
LINE
  5
F8
330
22
100
AcDbEntity
  8
_2-7_ビス
  6
Continuous
 62
     7
100
AcDbLine
 10
1087.693824412832
 20
1040.810599553784
 30
0.0
 11
1088.583934089943
 21
1033.690217605674
 31
0.0
  0
LINE
  5
F9
330
22
100
AcDbEntity
  8
_2-7_ビス
  6
Continuous
 62
     7
100
AcDbLine
 10
864.4738636367543
 20
1040.810599553784
 30
0.0
 11
863.5838158932399
 21
1033.690217605674
 31
0.0
  0
ARC
  5
FA
330
22
100
AcDbEntity
  8
_2-7_ビス
  6
Continuous
 62
     7
100
AcDbCircle
 10
872.3787584765982
 20
1024.340473847286
 30
0.0
 40
11.00000126251383
100
AcDbArc
 50
74.99996948242188
 51
121.7902069091796
  0
ARC
  5
FB
330
22
100
AcDbEntity
  8
_2-7_ビス
  6
Continuous
 62
     7
100
AcDbCircle
 10
895.9573129467029
 20
1031.998934898843
 30
0.0
 40
1.500000183157709
100
AcDbArc
 50
254.9999084472656
 51
318.4355773925781
  0
ARC
  5
FC
330
22
100
AcDbEntity
  8
_2-7_ビス
  6
Continuous
 62
     7
100
AcDbCircle
 10
890.9868939356426
 20
1033.330755000193
 30
0.0
 40
1.500000183157709
100
AcDbArc
 50
191.5648956298828
 51
254.9999084472656
  0
ARC
  5
FD
330
22
100
AcDbEntity
  8
_2-7_ビス
  6
Continuous
 62
     7
100
AcDbCircle
 10
884.8457441128363
 20
1037.176088261574
 30
0.0
 40
1.625007950200997
100
AcDbArc
 50
187.6205902099609
 51
322.37890625
  0
ARC
  5
FE
330
22
100
AcDbEntity
  8
_2-7_ビス
  6
Continuous
 62
     7
100
AcDbCircle
 10
888.1749846982216
 20
1034.601632440659
 30
0.0
 40
1.000000142265815
100
AcDbArc
 50
11.56640625
 51
75.00077819824219
  0
ARC
  5
FF
330
22
100
AcDbEntity
  8
_2-7_ビス
  6
Continuous
 62
     7
100
AcDbCircle
 10
899.0281046257045
 20
1031.693726125616
 30
0.0
 40
1.000000142265815
100
AcDbArc
 50
75.00022888183593
 51
138.4349822998047
  0
ARC
  5
100
330
22
100
AcDbEntity
  8
_2-7_ビス
  6
Continuous
 62
     7
100
AcDbCircle
 10
879.0501218358491
 20
1038.728887442242
 30
0.0
 40
1.625007950200997
100
AcDbArc
 50
187.6192932128906
 51
322.3796997070313
  0
ARC
  5
101
330
22
100
AcDbEntity
  8
_2-7_ビス
  6
Continuous
 62
     7
100
AcDbCircle
 10
903.1984034782185
 20
1032.258560543601
 30
0.0
 40
1.625007950200997
100
AcDbArc
 50
187.6205902099609
 51
322.3807373046876
  0
ARC
  5
102
330
22
100
AcDbEntity
  8
_2-7_ビス
  6
Continuous
 62
     7
100
AcDbCircle
 10
883.8959304468023
 20
1030.571984790252
 30
0.0
 40
2.000000284531631
100
AcDbArc
 50
11.56620788574219
 51
75.00050354003906
  0
ARC
  5
103
330
22
100
AcDbEntity
  8
_2-7_ビス
  6
DASHED1
 62
     7
100
AcDbCircle
 10
900.7188299301475
 20
1026.064209759711
 30
0.0
 40
2.000000284531631
100
AcDbArc
 50
74.999755859375
 51
138.435073852539
  0
ARC
  5
104
330
22
100
AcDbEntity
  8
_2-7_ビス
  6
DASHED1
 62
     7
100
AcDbCircle
 10
897.3100046707399
 20
1027.495371352998
 30
0.0
 40
1.500000183157709
100
AcDbArc
 50
255.0012817382813
 51
318.436508178711
  0
ARC
  5
105
330
22
100
AcDbEntity
  8
_2-7_ビス
  6
Continuous
 62
     7
100
AcDbCircle
 10
911.0670671629627
 20
1000.690262203757
 30
0.0
 40
1.000000142265815
100
AcDbArc
 50
4.554550170898438
 51
90.00000000000003
  0
ARC
  5
106
330
22
100
AcDbEntity
  8
_2-7_ビス
  6
Continuous
 62
     7
100
AcDbCircle
 10
903.2920470790946
 20
1010.190133004819
 30
0.0
 40
1.500000183157709
100
AcDbArc
 50
8.53070068359375
 51
90.0
  0
ARC
  5
107
330
22
100
AcDbEntity
  8
_2-7_ビス
  6
DASHED1
 62
     7
100
AcDbCircle
 10
908.3040235347247
 20
1010.190133004819
 30
0.0
 40
1.500000183157709
100
AcDbArc
 50
4.555007934570312
 51
90.0
  0
ARC
  5
108
330
22
100
AcDbEntity
  8
_2-7_ビス
  6
Continuous
 62
     7
100
AcDbCircle
 10
885.7772873673189
 20
1027.097014447682
 30
0.0
 40
2.000000284531631
100
AcDbArc
 50
8.43475341796875
 51
59.30958557128906
  0
ARC
  5
109
330
22
100
AcDbEntity
  8
_2-7_ビス
  6
DASHED1
 62
     7
100
AcDbCircle
 10
905.7239936899492
 20
1023.687693719483
 30
0.0
 40
3.000000366315418
100
AcDbArc
 50
4.554595947265625
 51
74.99990844726565
  0
ARC
  5
10A
330
22
100
AcDbEntity
  8
_2-7_ビス
  6
DASHED1
 62
     7
100
AcDbCircle
 10
917.363112915528
 20
1022.398731668268
 30
0.0
 40
3.000000366315418
100
AcDbArc
 50
184.5545959472656
 51
263.6697540283203
  0
ARC
  5
10B
330
22
100
AcDbEntity
  8
_2-7_ビス
  6
DASHED1
 62
     7
100
AcDbCircle
 10
922.2907977436495
 20
1017.324388078987
 30
0.0
 40
1.500000183157709
100
AcDbArc
 50
9.462326049804687
 51
83.67115783691406
  0
ARC
  5
10C
330
22
100
AcDbEntity
  8
_2-7_ビス
  6
Continuous
 62
     7
100
AcDbCircle
 10
1079.788929572988
 20
1024.340473847286
 30
0.0
 40
11.00000126251383
100
AcDbArc
 50
58.20979309082032
 51
105.0000305175781
  0
ARC
  5
10D
330
22
100
AcDbEntity
  8
_2-7_ビス
  6
Continuous
 62
     7
100
AcDbCircle
 10
1056.210375102883
 20
1031.998934898843
 30
0.0
 40
1.500000183157709
100
AcDbArc
 50
221.5644226074219
 51
285.0000915527344
  0
ARC
  5
10E
330
22
100
AcDbEntity
  8
_2-7_ビス
  6
Continuous
 62
     7
100
AcDbCircle
 10
1061.180794113943
 20
1033.330755000193
 30
0.0
 40
1.500000183157709
100
AcDbArc
 50
285.0000915527344
 51
348.4351043701172
  0
ARC
  5
10F
330
22
100
AcDbEntity
  8
_2-7_ビス
  6
Continuous
 62
     7
100
AcDbCircle
 10
1067.322005870351
 20
1037.176088261574
 30
0.0
 40
1.625007950200997
100
AcDbArc
 50
217.62109375
 51
352.379409790039
  0
ARC
  5
110
330
22
100
AcDbEntity
  8
_2-7_ビス
  6
Continuous
 62
     7
100
AcDbCircle
 10
1063.992703351364
 20
1034.601632440659
 30
0.0
 40
1.000000142265815
100
AcDbArc
 50
104.9992218017578
 51
168.4335784912109
  0
ARC
  5
111
330
22
100
AcDbEntity
  8
_2-7_ビス
  6
Continuous
 62
     7
100
AcDbCircle
 10
1053.139645357478
 20
1031.693726125616
 30
0.0
 40
1.000000142265815
100
AcDbArc
 50
41.56501770019532
 51
104.999771118164
  0
ARC
  5
112
330
22
100
AcDbEntity
  8
_2-7_ビス
  6
Continuous
 62
     7
100
AcDbCircle
 10
1073.117566213737
 20
1038.728887442242
 30
0.0
 40
1.625007950200997
100
AcDbArc
 50
217.6203002929689
 51
352.3807067871094
  0
ARC
  5
113
330
22
100
AcDbEntity
  8
_2-7_ビス
  6
Continuous
 62
     7
100
AcDbCircle
 10
1048.969284571367
 20
1032.258560543601
 30
0.0
 40
1.625007950200997
100
AcDbArc
 50
217.6192626953125
 51
352.379409790039
  0
ARC
  5
114
330
22
100
AcDbEntity
  8
_2-7_ビス
  6
Continuous
 62
     7
100
AcDbCircle
 10
1068.27181953638
 20
1030.571984790252
 30
0.0
 40
2.000000284531631
100
AcDbArc
 50
104.9994964599609
 51
168.4337921142578
  0
ARC
  5
115
330
22
100
AcDbEntity
  8
_2-7_ビス
  6
Continuous
 62
     7
100
AcDbCircle
 10
1051.448858119434
 20
1026.064209759711
 30
0.0
 40
2.000000284531631
100
AcDbArc
 50
41.56492614746094
 51
105.000244140625
  0
ARC
  5
116
330
22
100
AcDbEntity
  8
_2-7_ビス
  6
Continuous
 62
     7
100
AcDbCircle
 10
1064.604049901796
 20
1030.106739598596
 30
0.0
 40
1.500000183157709
100
AcDbArc
 50
284.9987182617187
 51
348.4337158203125
  0
ARC
  5
117
330
22
100
AcDbEntity
  8
_2-7_ビス
  6
Continuous
 62
     7
100
AcDbCircle
 10
1054.857745312447
 20
1027.495371352998
 30
0.0
 40
1.500000183157709
100
AcDbArc
 50
221.563491821289
 51
284.9987182617187
  0
ARC
  5
118
330
22
100
AcDbEntity
  8
_2-7_ビス
  6
Continuous
 62
     7
100
AcDbCircle
 10
1041.100682820225
 20
1000.690262203757
 30
0.0
 40
1.000000142265815
100
AcDbArc
 50
90.0
 51
175.4454498291015
  0
ARC
  5
119
330
22
100
AcDbEntity
  8
_2-7_ビス
  6
PHANTOM1
 62
     7
100
AcDbCircle
 10
1048.875640970491
 20
1010.190133004819
 30
0.0
 40
1.500000183157709
100
AcDbArc
 50
90.0
 51
171.4692993164062
  0
ARC
  5
11A
330
22
100
AcDbEntity
  8
_2-7_ビス
  6
PHANTOM1
 62
     7
100
AcDbCircle
 10
1060.789993107637
 20
1013.190196514375
 30
0.0
 40
1.500000183157709
100
AcDbArc
 50
270.0
 51
351.5646362304687
  0
ARC
  5
11B
330
22
100
AcDbEntity
  8
_2-7_ビス
  6
PHANTOM1
 62
     7
100
AcDbCircle
 10
1066.390400682267
 20
1027.097014447682
 30
0.0
 40
2.000000284531631
100
AcDbArc
 50
120.6904144287109
 51
171.5652465820312
  0
ARC
  5
11C
330
22
100
AcDbEntity
  8
_2-7_ビス
  6
Continuous
 62
     7
100
AcDbCircle
 10
1046.443694359637
 20
1023.687693719483
 30
0.0
 40
3.000000366315418
100
AcDbArc
 50
105.0000915527344
 51
175.4454040527344
  0
ARC
  5
11D
330
22
100
AcDbEntity
  8
_2-7_ビス
  6
Continuous
 62
     7
100
AcDbCircle
 10
1034.804575134058
 20
1022.398731668268
 30
0.0
 40
3.000000366315418
100
AcDbArc
 50
276.3302459716797
 51
355.4454040527344
  0
ARC
  5
11E
330
22
100
AcDbEntity
  8
_2-7_ビス
  6
Continuous
 62
     7
100
AcDbCircle
 10
1029.876952239534
 20
1017.324388078987
 30
0.0
 40
1.500000183157709
100
AcDbArc
 50
96.32884216308596
 51
170.5376739501953
  0
ARC
  5
11F
330
22
100
AcDbEntity
  8
_2-7_ビス
  6
Continuous
 62
     7
100
AcDbCircle
 10
1041.143045401573
 20
1026.408560567166
 30
0.0
 40
3.000000366315418
100
AcDbArc
 50
105.0000915527344
 51
175.4457550048828
  0
ARC
  5
120
330
22
100
AcDbEntity
  8
_2-7_ビス
  6
DASHED1
 62
     7
100
AcDbCircle
 10
911.0246426480131
 20
1026.408560567166
 30
0.0
 40
3.000000366315418
100
AcDbArc
 50
4.554244995117188
 51
36.43096923828126
  0
ARC
  5
121
330
22
100
AcDbEntity
  8
_2-7_ビス
  6
DASHED1
 62
     7
100
AcDbCircle
 10
887.5636381477901
 20
1030.106739598596
 30
0.0
 40
1.500000183157709
100
AcDbArc
 50
239.3083190917969
 51
255.0012817382813
  0
ARC
  5
122
330
22
100
AcDbEntity
  8
_2-7_ビス
  6
Continuous
 62
     7
100
AcDbCircle
 10
887.5636381477901
 20
1030.106739598596
 30
0.0
 40
1.500000183157709
100
AcDbArc
 50
191.5662841796875
 51
239.3083190917969
  0
ARC
  5
123
330
22
100
AcDbEntity
  8
_2-7_ビス
  6
Continuous
 62
     7
100
AcDbCircle
 10
891.3778188091423
 20
1013.190196514375
 30
0.0
 40
1.500000183157709
100
AcDbArc
 50
188.4351501464843
 51
270.0
  0
ARC
  5
124
330
22
100
AcDbEntity
  8
_2-7_ビス
  6
Continuous
 62
     7
100
AcDbCircle
 10
890.0840259372493
 20
996.6900949462189
 30
0.0
 40
2.000000284531631
100
AcDbArc
 50
270.0
 51
0.0
  0
ARC
  5
125
330
22
100
AcDbEntity
  8
_2-7_ビス
  6
Continuous
 62
     7
100
AcDbCircle
 10
890.0840259372493
 20
996.6900949462189
 30
0.0
 40
8.000001138126528
100
AcDbArc
 50
270.0
 51
0.0
  0
ARC
  5
126
330
22
100
AcDbEntity
  8
_2-7_ビス
  6
Continuous
 62
     7
100
AcDbCircle
 10
915.4308465770743
 20
983.6902326288061
 30
0.0
 40
2.000000284531631
100
AcDbArc
 50
184.5538787841796
 51
270.0
  0
ARC
  5
127
330
22
100
AcDbEntity
  8
_2-7_ビス
  6
Continuous
 62
     7
100
AcDbCircle
 10
1036.736841472512
 20
983.6902326288061
 30
0.0
 40
2.000000284531631
100
AcDbArc
 50
270.0
 51
355.4461669921875
  0
ARC
  5
128
330
22
100
AcDbEntity
  8
_2-7_ビス
  6
Continuous
 62
     7
100
AcDbCircle
 10
1086.701586231852
 20
1040.686732356858
 30
0.0
 40
1.000000021301756
100
AcDbArc
 50
7.115768432617187
 51
105.0004730224609
  0
ARC
  5
129
330
22
100
AcDbEntity
  8
_2-7_ビス
  6
Continuous
 62
     7
100
AcDbCircle
 10
865.4661637513305
 20
1040.686732356858
 30
0.0
 40
1.000000021301756
100
AcDbArc
 50
74.99781799316406
 51
172.8844451904297
  0
LINE
  5
12A
330
22
100
AcDbEntity
  8
_2-1_
  6
Continuous
 62
     4
100
AcDbLine
 10
1031.408879797523
 20
964.690243292285
 30
0.0
 11
1033.233939077031
 21
962.8654317471664
 31
0.0
  0
LINE
  5
12B
330
22
100
AcDbEntity
  8
_2-1_
  6
Continuous
 62
     4
100
AcDbLine
 10
920.7588082520626
 20
964.690243292285
 30
0.0
 11
918.9339347733501
 21
962.8654317471664
 31
0.0
  0
LINE
  5
12C
330
22
100
AcDbEntity
  8
_2-1_
  6
Continuous
 62
     4
100
AcDbLine
 10
1032.9089115523
 20
964.690243292285
 30
0.0
 11
1033.233939077031
 21
962.8654317471664
 31
0.0
  0
LINE
  5
12D
330
22
100
AcDbEntity
  8
_2-1_
  6
Continuous
 62
     4
100
AcDbLine
 10
1032.9089115523
 20
964.690243292285
 30
0.0
 11
1031.408879797523
 21
964.690243292285
 31
0.0
  0
LINE
  5
12E
330
22
100
AcDbEntity
  8
_2-1_
  6
Continuous
 62
     4
100
AcDbLine
 10
919.2588384308832
 20
964.690243292285
 30
0.0
 11
918.9339347733501
 21
962.8654317471664
 31
0.0
  0
LINE
  5
12F
330
22
100
AcDbEntity
  8
_2-1_
  6
Continuous
 62
     4
100
AcDbLine
 10
919.2588384308832
 20
964.690243292285
 30
0.0
 11
920.7588082520626
 21
964.690243292285
 31
0.0
  0
LINE
  5
130
330
22
100
AcDbEntity
  8
_2-1_
  6
Continuous
 62
     4
100
AcDbLine
 10
920.5838458364047
 20
1007.090232534542
 30
0.0
 11
919.2588384308832
 21
964.690243292285
 31
0.0
  0
LINE
  5
131
330
22
100
AcDbEntity
  8
_2-1_
  6
Continuous
 62
     4
100
AcDbLine
 10
922.0838156575844
 20
1007.090232534542
 30
0.0
 11
920.7588082520626
 21
964.690243292285
 31
0.0
  0
LINE
  5
132
330
22
100
AcDbEntity
  8
_2-1_
  6
Continuous
 62
     4
100
AcDbLine
 10
1030.083872392002
 20
1007.090232534542
 30
0.0
 11
1031.408879797523
 21
964.690243292285
 31
0.0
  0
LINE
  5
133
330
22
100
AcDbEntity
  8
_2-1_
  6
Continuous
 62
     4
100
AcDbLine
 10
1031.583904146778
 20
1007.090232534542
 30
0.0
 11
1032.9089115523
 21
964.690243292285
 31
0.0
  0
LINE
  5
134
330
22
100
AcDbEntity
  8
_2-1_
  6
Continuous
 62
     4
100
AcDbLine
 10
920.5838458364047
 20
1007.090232534542
 30
0.0
 11
1031.583904146778
 21
1007.090232534542
 31
0.0
  0
LINE
  5
135
330
22
100
AcDbEntity
  8
_2-8_DRAIN他
  6
Continuous
 62
     4
100
AcDbLine
 10
895.0838634075767
 20
1046.22281016759
 30
0.0
 11
895.0838634075767
 21
1050.722905431921
 31
0.0
  0
LINE
  5
136
330
22
100
AcDbEntity
  8
_2-8_DRAIN他
  6
Continuous
 62
     4
100
AcDbLine
 10
906.0837659634222
 20
1050.722905431921
 30
0.0
 11
907.5838596517954
 21
1044.723026147206
 31
0.0
  0
LINE
  5
137
330
22
100
AcDbEntity
  8
_2-8_DRAIN他
  6
Continuous
 62
     4
100
AcDbLine
 10
907.5838596517954
 20
1044.723026147206
 30
0.0
 11
910.5838612277516
 21
1046.752466301646
 31
0.0
  0
LINE
  5
138
330
22
100
AcDbEntity
  8
_2-8_DRAIN他
  6
Continuous
 62
     4
100
AcDbLine
 10
895.0838634075767
 20
1050.722905431921
 30
0.0
 11
906.0837659634222
 21
1050.722905431921
 31
0.0
  0
LINE
  5
139
330
22
100
AcDbEntity
  8
_2-8_DRAIN他
  6
Continuous
 62
     4
100
AcDbLine
 10
936.3016641223753
 20
1058.819856360599
 30
0.0
 11
934.8016323675945
 21
1053.241373279827
 31
0.0
  0
LINE
  5
13A
330
22
100
AcDbEntity
  8
_2-8_DRAIN他
  6
Continuous
 62
     4
100
AcDbLine
 10
936.3016641223753
 20
1058.819856360599
 30
0.0
 11
944.1952251136994
 21
1171.703253466638
 31
0.0
  0
LINE
  5
13B
330
22
100
AcDbEntity
  8
_2-8_DRAIN他
  6
Continuous
 62
     4
100
AcDbLine
 10
957.0838546882718
 20
1191.863382969571
 30
0.0
 11
954.083853112316
 21
1179.832657600907
 31
0.0
  0
LINE
  5
13C
330
22
100
AcDbEntity
  8
_2-8_DRAIN他
  6
Continuous
 62
     4
100
AcDbLine
 10
949.4123875810334
 20
1145.962906742175
 30
0.0
 11
1002.75536240215
 21
1145.962906742175
 31
0.0
  0
LINE
  5
13D
330
22
100
AcDbEntity
  8
_2-8_DRAIN他
  6
Continuous
 62
     4
100
AcDbLine
 10
948.6431722881212
 20
1134.963004186334
 30
0.0
 11
1003.524639628659
 21
1134.963004186334
 31
0.0
  0
LINE
  5
13E
330
22
100
AcDbEntity
  8
_2-8_DRAIN他
  6
Continuous
 62
     4
100
AcDbLine
 10
953.7025279465757
 20
1144.874114081192
 30
0.0
 11
949.4123875810334
 21
1145.962906742175
 31
0.0
  0
LINE
  5
13F
330
22
100
AcDbEntity
  8
_2-8_DRAIN他
  6
Continuous
 62
     4
100
AcDbLine
 10
954.8645261209417
 20
1137.918723239389
 30
0.0
 11
955.20559444768
 21
1142.796117985556
 31
0.0
  0
LINE
  5
140
330
22
100
AcDbEntity
  8
_2-8_DRAIN他
  6
Continuous
 62
     4
100
AcDbLine
 10
953.3455426850336
 20
1136.115464586535
 30
0.0
 11
948.6431722881212
 21
1134.963004186334
 31
0.0
  0
LINE
  5
141
330
22
100
AcDbEntity
  8
_2-8_DRAIN他
  6
Continuous
 62
     4
100
AcDbLine
 10
954.501595233947
 20
1144.462874987397
 30
0.0
 11
997.6660928156347
 21
1144.462874987397
 31
0.0
  0
LINE
  5
142
330
22
100
AcDbEntity
  8
_2-8_DRAIN他
  6
Continuous
 62
     4
100
AcDbLine
 10
954.0759256117103
 20
1136.46303594111
 30
0.0
 11
998.0918243714727
 21
1136.46303594111
 31
0.0
  0
LINE
  5
143
330
22
100
AcDbEntity
  8
_2-8_DRAIN他
  6
Continuous
 62
     4
100
AcDbLine
 10
943.0838266892767
 20
1055.460825714352
 30
0.0
 11
943.2937815880686
 21
1058.463118833452
 31
0.0
  0
LINE
  5
144
330
22
100
AcDbEntity
  8
_2-8_DRAIN他
  6
Continuous
 62
     4
100
AcDbLine
 10
943.50355068606
 20
1061.462934608612
 30
0.0
 11
951.1781764068159
 21
1171.214968976353
 31
0.0
  0
LINE
  5
145
330
22
100
AcDbEntity
  8
_2-8_DRAIN他
  6
Continuous
 62
     4
100
AcDbLine
 10
1057.083824642004
 20
1046.22281016759
 30
0.0
 11
1057.083824642004
 21
1050.722905431921
 31
0.0
  0
LINE
  5
146
330
22
100
AcDbEntity
  8
_2-8_DRAIN他
  6
Continuous
 62
     4
100
AcDbLine
 10
1046.083922086164
 20
1050.722905431921
 30
0.0
 11
1044.583890331387
 21
1044.723026147206
 31
0.0
  0
LINE
  5
147
330
22
100
AcDbEntity
  8
_2-8_DRAIN他
  6
Continuous
 62
     4
100
AcDbLine
 10
1044.583890331387
 20
1044.723026147206
 30
0.0
 11
1041.583950689028
 21
1046.752466301646
 31
0.0
  0
LINE
  5
148
330
22
100
AcDbEntity
  8
_2-8_DRAIN他
  6
Continuous
 62
     4
100
AcDbLine
 10
1015.866023927211
 20
1058.819856360599
 30
0.0
 11
1017.366055681987
 21
1053.241373279827
 31
0.0
  0
LINE
  5
149
330
22
100
AcDbEntity
  8
_2-8_DRAIN他
  6
Continuous
 62
     4
100
AcDbLine
 10
1046.083922086164
 20
1050.722905431921
 30
0.0
 11
1015.866023927211
 21
1058.819856360599
 31
0.0
  0
LINE
  5
14A
330
22
100
AcDbEntity
  8
_2-8_DRAIN他
  6
Continuous
 62
     4
100
AcDbLine
 10
1041.583950689028
 20
1046.752466301646
 30
0.0
 11
1009.083861360309
 21
1055.460825714352
 31
0.0
  0
LINE
  5
14B
330
22
100
AcDbEntity
  8
_2-8_DRAIN他
  6
Continuous
 62
     4
100
AcDbLine
 10
1015.866023927211
 20
1058.819856360599
 30
0.0
 11
1007.972586803085
 21
1171.703253466638
 31
0.0
  0
LINE
  5
14C
330
22
100
AcDbEntity
  8
_2-8_DRAIN他
  6
Continuous
 62
     4
100
AcDbLine
 10
995.083895294911
 20
1191.863382969571
 30
0.0
 11
998.0838349372703
 21
1179.832657600907
 31
0.0
  0
LINE
  5
14D
330
22
100
AcDbEntity
  8
_2-8_DRAIN他
  6
Continuous
 62
     4
100
AcDbLine
 10
998.4652220366076
 20
1144.874114081192
 30
0.0
 11
1002.75536240215
 21
1145.962906742175
 31
0.0
  0
LINE
  5
14E
330
22
100
AcDbEntity
  8
_2-8_DRAIN他
  6
Continuous
 62
     4
100
AcDbLine
 10
997.3031619286443
 20
1137.918723239389
 30
0.0
 11
996.9621555355029
 21
1142.796117985556
 31
0.0
  0
LINE
  5
14F
330
22
100
AcDbEntity
  8
_2-8_DRAIN他
  6
Continuous
 62
     4
100
AcDbLine
 10
998.8222072981496
 20
1136.115464586535
 30
0.0
 11
1003.524639628659
 21
1134.963004186334
 31
0.0
  0
LINE
  5
150
330
22
100
AcDbEntity
  8
_2-8_DRAIN他
  6
Continuous
 62
     4
100
AcDbLine
 10
1009.083861360309
 20
1055.460825714352
 30
0.0
 11
1008.873906461518
 21
1058.463118833452
 31
0.0
  0
LINE
  5
151
330
22
100
AcDbEntity
  8
_2-8_DRAIN他
  6
Continuous
 62
     4
100
AcDbLine
 10
1057.083824642004
 20
1050.722905431921
 30
0.0
 11
1056.083906694817
 21
1051.723009179905
 31
0.0
  0
LINE
  5
152
330
22
100
AcDbEntity
  8
_2-8_DRAIN他
  6
Continuous
 62
     4
100
AcDbLine
 10
1046.083922086164
 20
1050.722905431921
 30
0.0
 11
1045.083880271782
 21
1051.723009179905
 31
0.0
  0
LINE
  5
153
330
22
100
AcDbEntity
  8
_2-8_DRAIN他
  6
Continuous
 62
     4
100
AcDbLine
 10
1058.083866456391
 20
1051.723009179905
 30
0.0
 11
1042.351865376377
 21
1051.723009179905
 31
0.0
  0
LINE
  5
154
330
22
100
AcDbEntity
  8
_2-8_DRAIN他
  6
Continuous
 62
     4
100
AcDbLine
 10
1046.083922086164
 20
1054.322981643386
 30
0.0
 11
1046.083922086164
 21
1051.723009179905
 31
0.0
  0
LINE
  5
155
330
22
100
AcDbEntity
  8
_2-8_DRAIN他
  6
Continuous
 62
     4
100
AcDbLine
 10
1058.083866456391
 20
1054.322981643386
 30
0.0
 11
1058.083866456391
 21
1051.723009179905
 31
0.0
  0
LINE
  5
156
330
22
100
AcDbEntity
  8
_2-8_DRAIN他
  6
Continuous
 62
     4
100
AcDbLine
 10
1052.562981622191
 20
1055.690475497454
 30
0.0
 11
1051.604930787562
 21
1055.690475497454
 31
0.0
  0
LINE
  5
157
330
22
100
AcDbEntity
  8
_2-8_DRAIN他
  6
Continuous
 62
     4
100
AcDbLine
 10
1051.604930787562
 20
1056.311545622841
 30
0.0
 11
1051.604930787562
 21
1055.690475497454
 31
0.0
  0
LINE
  5
158
330
22
100
AcDbEntity
  8
_2-8_DRAIN他
  6
Continuous
 62
     4
100
AcDbLine
 10
1052.562981622191
 20
1056.311545622841
 30
0.0
 11
1052.562981622191
 21
1055.690475497454
 31
0.0
  0
LINE
  5
159
330
22
100
AcDbEntity
  8
_2-8_DRAIN他
  6
Continuous
 62
     4
100
AcDbLine
 10
1049.083861728523
 20
1049.723049418333
 30
0.0
 11
1055.083926814032
 21
1049.723049418333
 31
0.0
  0
LINE
  5
15A
330
22
100
AcDbEntity
  8
_2-8_DRAIN他
  6
Continuous
 62
     4
100
AcDbLine
 10
1054.213883622824
 20
1049.723049418333
 30
0.0
 11
1055.265887726319
 21
1051.595425967071
 31
0.0
  0
LINE
  5
15B
330
22
100
AcDbEntity
  8
_2-8_DRAIN他
  6
Continuous
 62
     4
100
AcDbLine
 10
1055.083926814032
 20
1049.723049418333
 30
0.0
 11
1054.642959592975
 21
1050.486566820187
 31
0.0
  0
LINE
  5
15C
330
22
100
AcDbEntity
  8
_2-8_DRAIN他
  6
Continuous
 62
     4
100
AcDbLine
 10
1049.953842986133
 20
1049.723049418333
 30
0.0
 11
1048.901838882639
 21
1051.595425967071
 31
0.0
  0
LINE
  5
15D
330
22
100
AcDbEntity
  8
_2-8_DRAIN他
  6
Continuous
 62
     4
100
AcDbLine
 10
1049.083861728523
 20
1049.723049418333
 30
0.0
 11
1049.524890883176
 21
1050.486566820187
 31
0.0
  0
LINE
  5
15E
330
22
100
AcDbEntity
  8
_2-8_DRAIN他
  6
Continuous
 62
     4
100
AcDbLine
 10
1054.213883622824
 20
1039.723002876081
 30
0.0
 11
1055.083926814032
 21
1040.592798332896
 31
0.0
  0
LINE
  5
15F
330
22
100
AcDbEntity
  8
_2-8_DRAIN他
  6
Continuous
 62
     4
100
AcDbLine
 10
1049.953842986133
 20
1039.723002876081
 30
0.0
 11
1049.083861728523
 21
1040.592798332896
 31
0.0
  0
LINE
  5
160
330
22
100
AcDbEntity
  8
_2-8_DRAIN他
  6
Continuous
 62
     4
100
AcDbLine
 10
1049.953842986133
 20
1049.723049418333
 30
0.0
 11
1049.953842986133
 21
1039.723002876081
 31
0.0
  0
LINE
  5
161
330
22
100
AcDbEntity
  8
_2-8_DRAIN他
  6
Continuous
 62
     4
100
AcDbLine
 10
1054.213883622824
 20
1049.723049418333
 30
0.0
 11
1054.213883622824
 21
1039.723002876081
 31
0.0
  0
LINE
  5
162
330
22
100
AcDbEntity
  8
_2-8_DRAIN他
  6
Continuous
 62
     4
100
AcDbLine
 10
1049.953842986133
 20
1039.723002876081
 30
0.0
 11
1054.213883622824
 21
1039.723002876081
 31
0.0
  0
LINE
  5
163
330
22
100
AcDbEntity
  8
_2-8_DRAIN他
  6
Continuous
 62
     4
100
AcDbLine
 10
1049.083861728523
 20
1040.592798332896
 30
0.0
 11
1055.083926814032
 21
1040.592798332896
 31
0.0
  0
LINE
  5
164
330
22
100
AcDbEntity
  8
_2-8_DRAIN他
  6
Continuous
 62
     4
100
AcDbLine
 10
1049.083861728523
 20
1049.723049418333
 30
0.0
 11
1049.083861728523
 21
1040.592798332896
 31
0.0
  0
LINE
  5
165
330
22
100
AcDbEntity
  8
_2-8_DRAIN他
  6
Continuous
 62
     4
100
AcDbLine
 10
1055.083926814032
 20
1049.723049418333
 30
0.0
 11
1055.083926814032
 21
1040.592798332896
 31
0.0
  0
LINE
  5
166
330
22
100
AcDbEntity
  8
_2-8_DRAIN他
  6
CENTER1
 62
     4
100
AcDbLine
 10
1052.083801370882
 20
1057.767728389906
 30
0.0
 11
1052.083801370882
 21
1038.041134076216
 31
0.0
  0
LINE
  5
167
330
22
100
AcDbEntity
  8
_2-8_DRAIN他
  6
Continuous
 62
     4
100
AcDbLine
 10
1057.083824642004
 20
1050.722905431921
 30
0.0
 11
1054.775683294484
 21
1050.722905431921
 31
0.0
  0
LINE
  5
168
330
22
100
AcDbEntity
  8
_2-8_DRAIN他
  6
Continuous
 62
     4
100
AcDbLine
 10
1049.392043314474
 20
1050.722905431921
 30
0.0
 11
1046.083922086164
 21
1050.722905431921
 31
0.0
  0
LINE
  5
169
330
22
100
AcDbEntity
  8
_2-8_DRAIN他
  6
Continuous
 62
     4
100
AcDbLine
 10
1055.58385482083
 20
1044.723026147206
 30
0.0
 11
1055.083926814032
 21
1044.723026147206
 31
0.0
  0
LINE
  5
16A
330
22
100
AcDbEntity
  8
_2-8_DRAIN他
  6
Continuous
 62
     4
100
AcDbLine
 10
1008.664137363526
 20
1061.462934608612
 30
0.0
 11
1000.989573576367
 21
1171.214968976353
 31
0.0
  0
LINE
  5
16B
330
22
100
AcDbEntity
  8
_2-8_DRAIN他
  6
Continuous
 62
     4
100
AcDbLine
 10
896.5838332287564
 20
1044.723026147206
 30
0.0
 11
913.5838008701107
 21
1044.723026147206
 31
0.0
  0
LINE
  5
16C
330
22
100
AcDbEntity
  8
_2-8_DRAIN他
  6
Continuous
 62
     4
100
AcDbLine
 10
928.583870683488
 20
1044.723026147206
 30
0.0
 11
1049.083861728523
 21
1044.723026147206
 31
0.0
  0
LINE
  5
16D
330
22
100
AcDbEntity
  8
_2-8_DRAIN他
  6
Continuous
 62
     4
100
AcDbLine
 10
943.0838266892767
 20
1055.462807589502
 30
0.0
 11
1009.083861360309
 21
1055.462807589502
 31
0.0
  0
LINE
  5
16E
330
22
100
AcDbEntity
  8
_2-8_DRAIN他
  6
Continuous
 62
     4
100
AcDbLine
 10
943.2937815880686
 20
1058.463118833452
 30
0.0
 11
1008.873906461518
 21
1058.463118833452
 31
0.0
  0
LINE
  5
16F
330
22
100
AcDbEntity
  8
_2-8_DRAIN他
  6
Continuous
 62
     4
100
AcDbLine
 10
943.2937815880686
 20
1061.462934608612
 30
0.0
 11
1008.873906461518
 21
1061.462934608612
 31
0.0
  0
LINE
  5
170
330
22
100
AcDbEntity
  8
_2-8_DRAIN他
  6
Continuous
 62
     4
100
AcDbLine
 10
906.0837659634222
 20
1050.722905431921
 30
0.0
 11
917.0838543200584
 21
1053.67044924998
 31
0.0
  0
LINE
  5
171
330
22
100
AcDbEntity
  8
_2-8_DRAIN他
  6
Continuous
 62
     4
100
AcDbLine
 10
925.0838172335404
 20
1055.570324316434
 30
0.0
 11
936.3016641223753
 21
1058.819856360599
 31
0.0
  0
LINE
  5
172
330
22
100
AcDbEntity
  8
_2-8_DRAIN他
  6
Continuous
 62
     4
100
AcDbLine
 10
910.5838612277516
 20
1046.752466301646
 30
0.0
 11
917.0838543200584
 21
1048.494039090431
 31
0.0
  0
LINE
  5
173
330
22
100
AcDbEntity
  8
_2-8_DRAIN他
  6
Continuous
 62
     4
100
AcDbLine
 10
925.0838172335404
 20
1050.637684800436
 30
0.0
 11
943.0838266892767
 21
1055.460825714352
 31
0.0
  0
LINE
  5
174
330
22
100
AcDbEntity
  8
_2-8_DRAIN他
  6
Continuous
 62
     4
100
AcDbLine
 10
995.1392639319381
 20
1177.670184076969
 30
0.0
 11
996.7944393508657
 21
1146.22302785572
 31
0.0
  0
LINE
  5
175
330
22
100
AcDbEntity
  8
_2-8_DRAIN他
  6
Continuous
 62
     4
100
AcDbLine
 10
998.2143909628309
 20
1176.862817687404
 30
0.0
 11
1000.364601634274
 21
1146.22302785572
 31
0.0
  0
LINE
  5
176
330
22
100
AcDbEntity
  8
_2-8_DRAIN他
  6
Continuous
 62
     4
100
AcDbLine
 10
996.2193239555388
 20
1178.722807516449
 30
0.0
 11
996.1378812735581
 21
1178.722807516449
 31
0.0
  0
LINE
  5
177
330
22
100
AcDbEntity
  8
_2-8_DRAIN他
  6
Continuous
 62
     4
100
AcDbLine
 10
980.606049583776
 20
1176.701047128218
 30
0.0
 11
980.9402432810845
 21
1146.22302785572
 31
0.0
  0
LINE
  5
178
330
22
100
AcDbEntity
  8
_2-8_DRAIN他
  6
Continuous
 62
     4
100
AcDbLine
 10
988.2531767868163
 20
1173.89818019617
 30
0.0
 11
989.2242336771193
 21
1146.22302785572
 31
0.0
  0
LINE
  5
179
330
22
100
AcDbEntity
  8
_2-8_DRAIN他
  6
Continuous
 62
     4
100
AcDbLine
 10
983.2562501956141
 20
1178.722807516449
 30
0.0
 11
982.6059474117489
 21
1178.722807516449
 31
0.0
  0
LINE
  5
17A
330
22
100
AcDbEntity
  8
_2-8_DRAIN他
  6
Continuous
 62
     4
100
AcDbLine
 10
957.0284860512453
 20
1177.670184076969
 30
0.0
 11
955.3733725659142
 21
1146.22302785572
 31
0.0
  0
LINE
  5
17B
330
22
100
AcDbEntity
  8
_2-8_DRAIN他
  6
Continuous
 62
     4
100
AcDbLine
 10
953.9533590203523
 20
1176.862817687404
 30
0.0
 11
951.8031483489092
 21
1146.22302785572
 31
0.0
  0
LINE
  5
17C
330
22
100
AcDbEntity
  8
_2-8_DRAIN他
  6
Continuous
 62
     4
100
AcDbLine
 10
955.9484879612462
 20
1178.722807516449
 30
0.0
 11
956.0298687096253
 21
1178.722807516449
 31
0.0
  0
LINE
  5
17D
330
22
100
AcDbEntity
  8
_2-8_DRAIN他
  6
Continuous
 62
     4
100
AcDbLine
 10
971.5617003994072
 20
1176.701047128218
 30
0.0
 11
971.2275686357005
 21
1146.22302785572
 31
0.0
  0
LINE
  5
17E
330
22
100
AcDbEntity
  8
_2-8_DRAIN他
  6
Continuous
 62
     4
100
AcDbLine
 10
963.9145731963667
 20
1173.89818019617
 30
0.0
 11
962.9435163060639
 21
1146.22302785572
 31
0.0
  0
LINE
  5
17F
330
22
100
AcDbEntity
  8
_2-8_DRAIN他
  6
Continuous
 62
     4
100
AcDbLine
 10
968.9114997875737
 20
1178.722807516449
 30
0.0
 11
969.5618025714344
 21
1178.722807516449
 31
0.0
  0
LINE
  5
180
330
22
100
AcDbEntity
  8
_2-8_DRAIN他
  6
Continuous
 62
     4
100
AcDbLine
 10
990.0124006511585
 20
1064.722871497318
 30
0.0
 11
983.8120423082189
 21
1064.722871497318
 31
0.0
  0
LINE
  5
181
330
22
100
AcDbEntity
  8
_2-8_DRAIN他
  6
Continuous
 62
     4
100
AcDbLine
 10
1002.032597308085
 20
1064.722871497318
 30
0.0
 11
1005.011231792569
 21
1064.722871497318
 31
0.0
  0
LINE
  5
182
330
22
100
AcDbEntity
  8
_2-8_DRAIN他
  6
Continuous
 62
     4
100
AcDbLine
 10
962.1552254648262
 20
1064.722871497318
 30
0.0
 11
968.3555838077662
 21
1064.722871497318
 31
0.0
  0
LINE
  5
183
330
22
100
AcDbEntity
  8
_2-8_DRAIN他
  6
Continuous
 62
     4
100
AcDbLine
 10
950.1350288079043
 20
1064.722871497318
 30
0.0
 11
947.1564562570172
 21
1064.722871497318
 31
0.0
  0
LINE
  5
184
330
22
100
AcDbEntity
  8
_2-8_DRAIN他
  6
Continuous
 62
     4
100
AcDbLine
 10
936.6962430781821
 20
1064.462998118165
 30
0.0
 11
943.7133197840564
 21
1064.462998118165
 31
0.0
  0
LINE
  5
185
330
22
100
AcDbEntity
  8
_2-8_DRAIN他
  6
Continuous
 62
     4
100
AcDbLine
 10
960.1564424416258
 20
1066.792940092348
 30
0.0
 11
962.5483799478713
 21
1134.963004186334
 31
0.0
  0
LINE
  5
186
330
22
100
AcDbEntity
  8
_2-8_DRAIN他
  6
Continuous
 62
     4
100
AcDbLine
 10
970.3555435693401
 20
1066.70103063223
 30
0.0
 11
971.1040111067633
 21
1134.963004186334
 31
0.0
  0
LINE
  5
187
330
22
100
AcDbEntity
  8
_2-8_DRAIN他
  6
Continuous
 62
     4
100
AcDbLine
 10
981.8120825466492
 20
1066.70103063223
 30
0.0
 11
981.0636150092211
 21
1134.963004186334
 31
0.0
  0
LINE
  5
188
330
22
100
AcDbEntity
  8
_2-8_DRAIN他
  6
Continuous
 62
     4
100
AcDbLine
 10
992.0111836743632
 20
1066.792940092348
 30
0.0
 11
989.6192461681181
 21
1134.963004186334
 31
0.0
  0
LINE
  5
189
330
22
100
AcDbEntity
  8
_2-8_DRAIN他
  6
Continuous
 62
     4
100
AcDbLine
 10
1001.033918032863
 20
1065.67020781941
 30
0.0
 11
997.3869580873641
 21
1134.963004186334
 31
0.0
  0
LINE
  5
18A
330
22
100
AcDbEntity
  8
_2-8_DRAIN他
  6
Continuous
 62
     4
100
AcDbLine
 10
1006.008796263014
 20
1065.792836344368
 30
0.0
 11
1001.154688549868
 21
1134.963004186334
 31
0.0
  0
LINE
  5
18B
330
22
100
AcDbEntity
  8
_2-8_DRAIN他
  6
Continuous
 62
     4
100
AcDbLine
 10
951.1336461495245
 20
1065.67020781941
 30
0.0
 11
954.7806680286255
 21
1134.963004186334
 31
0.0
  0
LINE
  5
18C
330
22
100
AcDbEntity
  8
_2-8_DRAIN他
  6
Continuous
 62
     4
100
AcDbLine
 10
946.1588917865681
 20
1065.792836344368
 30
0.0
 11
951.0129375661202
 21
1134.963004186334
 31
0.0
  0
ARC
  5
18D
330
22
100
AcDbEntity
  8
_2-8_DRAIN他
  6
Continuous
 62
     4
100
AcDbCircle
 10
896.5838332287564
 20
1046.22281016759
 30
0.0
 40
1.500000183157709
100
AcDbArc
 50
180.0
 51
270.0
  0
ARC
  5
18E
330
22
100
AcDbEntity
  8
_2-8_DRAIN他
  6
Continuous
 62
     4
100
AcDbCircle
 10
969.1343368748405
 20
1169.959203333915
 30
0.0
 40
18.00000558488617
100
AcDbArc
 50
102.5430908203125
 51
175.9999847412109
  0
ARC
  5
18F
330
22
100
AcDbEntity
  8
_2-8_DRAIN他
  6
Continuous
 62
     4
100
AcDbCircle
 10
976.0838440247933
 20
1138.722869081832
 30
0.0
 40
50.00000820196732
100
AcDbArc
 50
77.45692443847656
 51
102.5430755615234
  0
ARC
  5
190
330
22
100
AcDbEntity
  8
_2-8_DRAIN他
  6
Continuous
 62
     4
100
AcDbCircle
 10
976.0838440247933
 20
1138.722869081832
 30
0.0
 40
57.00001058891473
100
AcDbArc
 50
77.45692443847656
 51
102.5430755615234
  0
ARC
  5
191
330
22
100
AcDbEntity
  8
_2-8_DRAIN他
  6
Continuous
 62
     4
100
AcDbCircle
 10
969.1343368748405
 20
1169.959203333915
 30
0.0
 40
25.00000410098366
100
AcDbArc
 50
102.5430908203125
 51
175.9999847412109
  0
ARC
  5
192
330
22
100
AcDbEntity
  8
_2-8_DRAIN他
  6
Continuous
 62
     4
100
AcDbCircle
 10
953.2104655067865
 20
1142.935592449296
 30
0.0
 40
2.000000284531631
100
AcDbArc
 50
356.0001831054687
 51
75.75796508789062
  0
ARC
  5
193
330
22
100
AcDbEntity
  8
_2-8_DRAIN他
  6
Continuous
 62
     4
100
AcDbCircle
 10
952.8693971800528
 20
1138.058197703126
 30
0.0
 40
2.000000284531631
100
AcDbArc
 50
283.7721710205078
 51
355.9997863769531
  0
ARC
  5
194
330
22
100
AcDbEntity
  8
_2-8_DRAIN他
  6
Continuous
 62
     4
100
AcDbCircle
 10
943.2937815880686
 20
1059.962902853833
 30
0.0
 40
1.500000183157709
100
AcDbArc
 50
90.0
 51
270.0
  0
ARC
  5
195
330
22
100
AcDbEntity
  8
_2-8_DRAIN他
  6
Continuous
 62
     4
100
AcDbCircle
 10
1055.58385482083
 20
1046.22281016759
 30
0.0
 40
1.500000183157709
100
AcDbArc
 50
270.0
 51
0.0
  0
ARC
  5
196
330
22
100
AcDbEntity
  8
_2-8_DRAIN他
  6
Continuous
 62
     4
100
AcDbCircle
 10
983.0334131083423
 20
1169.959203333915
 30
0.0
 40
18.00000558488617
100
AcDbArc
 50
4.000015258789063
 51
77.4569091796875
  0
ARC
  5
197
330
22
100
AcDbEntity
  8
_2-8_DRAIN他
  6
Continuous
 62
     4
100
AcDbCircle
 10
983.0334131083423
 20
1169.959203333915
 30
0.0
 40
25.00000410098366
100
AcDbArc
 50
4.000015258789063
 51
77.4569091796875
  0
ARC
  5
198
330
22
100
AcDbEntity
  8
_2-8_DRAIN他
  6
Continuous
 62
     4
100
AcDbCircle
 10
998.9571606091983
 20
1142.935592449296
 30
0.0
 40
2.000000284531631
100
AcDbArc
 50
104.2420349121093
 51
183.9998168945312
  0
ARC
  5
199
330
22
100
AcDbEntity
  8
_2-8_DRAIN他
  6
Continuous
 62
     4
100
AcDbCircle
 10
999.2982908695337
 20
1138.058197703126
 30
0.0
 40
2.000000284531631
100
AcDbArc
 50
184.0002136230468
 51
256.2278289794921
  0
ARC
  5
19A
330
22
100
AcDbEntity
  8
_2-8_DRAIN他
  6
Continuous
 62
     4
100
AcDbCircle
 10
1008.873906461518
 20
1059.962902853833
 30
0.0
 40
1.500000183157709
100
AcDbArc
 50
270.0
 51
90.0
  0
ARC
  5
19B
330
22
100
AcDbEntity
  8
_2-8_DRAIN他
  6
Continuous
 62
     4
100
AcDbCircle
 10
1052.083801370882
 20
1046.322894862706
 30
0.0
 40
10.00000299519093
100
AcDbArc
 50
92.74569702148435
 51
126.869873046875
  0
ARC
  5
19C
330
22
100
AcDbEntity
  8
_2-8_DRAIN他
  6
Continuous
 62
     4
100
AcDbCircle
 10
1052.083801370882
 20
1046.322894862706
 30
0.0
 40
10.00000299519093
100
AcDbArc
 50
53.13012695312499
 51
87.25408935546875
  0
ARC
  5
19D
330
22
100
AcDbEntity
  8
_2-8_DRAIN他
  6
Continuous
 62
     4
100
AcDbCircle
 10
1055.48389399291
 20
1051.473045176508
 30
0.0
 40
0.250000035566454
100
AcDbArc
 50
90.0
 51
150.6708221435547
  0
ARC
  5
19E
330
22
100
AcDbEntity
  8
_2-8_DRAIN他
  6
Continuous
 62
     4
100
AcDbCircle
 10
1048.683894549649
 20
1051.473045176508
 30
0.0
 40
0.250000035566454
100
AcDbArc
 50
29.32917785644531
 51
90.0
  0
ARC
  5
19F
330
22
100
AcDbEntity
  8
_2-8_DRAIN他
  6
Continuous
 62
     4
100
AcDbCircle
 10
996.1378812735581
 20
1177.72295150286
 30
0.0
 40
1.000000142265815
100
AcDbArc
 50
90.0
 51
183.0127868652344
  0
ARC
  5
1A0
330
22
100
AcDbEntity
  8
_2-8_DRAIN他
  6
Continuous
 62
     4
100
AcDbCircle
 10
996.2193239555388
 20
1176.722847754877
 30
0.0
 40
2.000000284531631
100
AcDbArc
 50
4.014175415039063
 51
90.0
  0
ARC
  5
1A1
330
22
100
AcDbEntity
  8
_2-8_DRAIN他
  6
Continuous
 62
     4
100
AcDbCircle
 10
982.6059474117489
 20
1176.722847754877
 30
0.0
 40
2.000000284531631
100
AcDbArc
 50
90.0
 51
180.6282043457031
  0
ARC
  5
1A2
330
22
100
AcDbEntity
  8
_2-8_DRAIN他
  6
Continuous
 62
     4
100
AcDbCircle
 10
983.2562501956141
 20
1173.722784245322
 30
0.0
 40
5.00000052988299
100
AcDbArc
 50
2.009552001953125
 51
90.0
  0
ARC
  5
1A3
330
22
100
AcDbEntity
  8
_2-8_DRAIN他
  6
Continuous
 62
     4
100
AcDbCircle
 10
956.0298687096253
 20
1177.72295150286
 30
0.0
 40
1.000000142265815
100
AcDbArc
 50
356.9871978759766
 51
90.00000000000005
  0
ARC
  5
1A4
330
22
100
AcDbEntity
  8
_2-8_DRAIN他
  6
Continuous
 62
     4
100
AcDbCircle
 10
955.9484879612462
 20
1176.722847754877
 30
0.0
 40
2.000000284531631
100
AcDbArc
 50
90.0
 51
175.9858093261718
  0
ARC
  5
1A5
330
22
100
AcDbEntity
  8
_2-8_DRAIN他
  6
Continuous
 62
     4
100
AcDbCircle
 10
969.5618025714344
 20
1176.722847754877
 30
0.0
 40
2.000000284531631
100
AcDbArc
 50
359.3717803955078
 51
90.00000000000005
  0
ARC
  5
1A6
330
22
100
AcDbEntity
  8
_2-8_DRAIN他
  6
Continuous
 62
     4
100
AcDbCircle
 10
968.9114997875737
 20
1173.722784245322
 30
0.0
 40
5.00000052988299
100
AcDbArc
 50
90.0
 51
177.9904327392578
  0
ARC
  5
1A7
330
22
100
AcDbEntity
  8
_2-8_DRAIN他
  6
Continuous
 62
     4
100
AcDbCircle
 10
983.8120423082189
 20
1066.72283125889
 30
0.0
 40
2.000000284531631
100
AcDbArc
 50
180.6282043457031
 51
270.0
  0
ARC
  5
1A8
330
22
100
AcDbEntity
  8
_2-8_DRAIN他
  6
Continuous
 62
     4
100
AcDbCircle
 10
990.0124006511585
 20
1066.72283125889
 30
0.0
 40
2.000000284531631
100
AcDbArc
 50
270.0
 51
2.00955200195314
  0
ARC
  5
1A9
330
22
100
AcDbEntity
  8
_2-8_DRAIN他
  6
Continuous
 62
     4
100
AcDbCircle
 10
1005.011231792569
 20
1065.722975245301
 30
0.0
 40
1.000000142265815
100
AcDbArc
 50
270.0
 51
4.014175415039052
  0
ARC
  5
1AA
330
22
100
AcDbEntity
  8
_2-8_DRAIN他
  6
Continuous
 62
     4
100
AcDbCircle
 10
1002.032597308085
 20
1065.722975245301
 30
0.0
 40
1.000000142265815
100
AcDbArc
 50
183.0127716064453
 51
270.0
  0
ARC
  5
1AB
330
22
100
AcDbEntity
  8
_2-8_DRAIN他
  6
Continuous
 62
     4
100
AcDbCircle
 10
968.3555838077662
 20
1066.72283125889
 30
0.0
 40
2.000000284531631
100
AcDbArc
 50
270.0
 51
359.3717803955078
  0
ARC
  5
1AC
330
22
100
AcDbEntity
  8
_2-8_DRAIN他
  6
Continuous
 62
     4
100
AcDbCircle
 10
962.1552254648262
 20
1066.72283125889
 30
0.0
 40
2.000000284531631
100
AcDbArc
 50
177.9904327392578
 51
270.0
  0
ARC
  5
1AD
330
22
100
AcDbEntity
  8
_2-8_DRAIN他
  6
Continuous
 62
     4
100
AcDbCircle
 10
947.1564562570172
 20
1065.722975245301
 30
0.0
 40
1.000000142265815
100
AcDbArc
 50
175.9858093261718
 51
270.0
  0
ARC
  5
1AE
330
22
100
AcDbEntity
  8
_2-8_DRAIN他
  6
Continuous
 62
     4
100
AcDbCircle
 10
950.1350288079043
 20
1065.722975245301
 30
0.0
 40
1.000000142265815
100
AcDbArc
 50
270.0
 51
356.9871978759766
  0
LINE
  5
1AF
330
22
100
AcDbEntity
  8
_2-9_STRAINER他
  6
Continuous
 62
     4
100
AcDbLine
 10
879.6428263731426
 20
1046.722985908778
 30
0.0
 11
874.0837904422873
 21
1046.722985908778
 31
0.0
  0
LINE
  5
1B0
330
22
100
AcDbEntity
  8
_2-9_STRAINER他
  6
Continuous
 62
     4
100
AcDbLine
 10
893.0838417124101
 20
1050.722905431921
 30
0.0
 11
890.0838401364541
 21
1050.722905431921
 31
0.0
  0
LINE
  5
1B1
330
22
100
AcDbEntity
  8
_2-9_STRAINER他
  6
Continuous
 62
     4
100
AcDbLine
 10
889.5908486926877
 20
1047.503596983807
 30
0.0
 11
890.0838401364541
 21
1050.722905431921
 31
0.0
  0
LINE
  5
1B2
330
22
100
AcDbEntity
  8
_2-9_STRAINER他
  6
Continuous
 62
     4
100
AcDbLine
 10
893.0838417124101
 20
1050.722905431921
 30
0.0
 11
894.35193214094
 21
1043.957031401415
 31
0.0
  0
LINE
  5
1B3
330
22
100
AcDbEntity
  8
_2-9_STRAINER他
  6
Continuous
 62
     4
100
AcDbLine
 10
1072.52492361004
 20
1046.722985908778
 30
0.0
 11
1078.0837737401
 21
1046.722985908778
 31
0.0
  0
LINE
  5
1B4
330
22
100
AcDbEntity
  8
_2-9_STRAINER他
  6
Continuous
 62
     4
100
AcDbLine
 10
915.0838326248871
 20
1039.222827134893
 30
0.0
 11
916.0838125056724
 21
1034.22305159816
 31
0.0
  0
LINE
  5
1B5
330
22
100
AcDbEntity
  8
_2-9_STRAINER他
  6
Continuous
 62
     4
100
AcDbLine
 10
927.0839008623083
 20
1039.222827134893
 30
0.0
 11
926.0838590479268
 21
1034.22305159816
 31
0.0
  0
LINE
  5
1B6
330
22
100
AcDbEntity
  8
_2-9_STRAINER他
  6
Continuous
 62
     4
100
AcDbLine
 10
907.633406530568
 20
1039.222827134893
 30
0.0
 11
895.8000635402056
 21
1042.393579641812
 31
0.0
  0
LINE
  5
1B7
330
22
100
AcDbEntity
  8
_2-9_STRAINER他
  6
Continuous
 62
     4
100
AcDbLine
 10
885.8488826071429
 20
1045.059944922846
 30
0.0
 11
879.6428263731426
 21
1046.722985908778
 31
0.0
  0
LINE
  5
1B8
330
22
100
AcDbEntity
  8
_2-9_STRAINER他
  6
DASHED1
 62
     4
100
AcDbLine
 10
895.8000635402056
 20
1042.393579641812
 30
0.0
 11
885.8488826071429
 21
1045.059944922846
 31
0.0
  0
LINE
  5
1B9
330
22
100
AcDbEntity
  8
_2-9_STRAINER他
  6
Continuous
 62
     4
100
AcDbLine
 10
1066.318805442443
 20
1045.059944922846
 30
0.0
 11
1072.52492361004
 21
1046.722985908778
 31
0.0
  0
LINE
  5
1BA
330
22
100
AcDbEntity
  8
_2-9_STRAINER他
  6
Continuous
 62
     4
100
AcDbLine
 10
1059.083908270773
 20
1050.722905431921
 30
0.0
 11
1062.083847913132
 21
1050.722905431921
 31
0.0
  0
LINE
  5
1BB
330
22
100
AcDbEntity
  8
_2-9_STRAINER他
  6
Continuous
 62
     4
100
AcDbLine
 10
925.0838172335404
 20
1017.79925222331
 30
0.0
 11
917.0838543200584
 21
1017.79925222331
 31
0.0
  0
LINE
  5
1BC
330
22
100
AcDbEntity
  8
_2-9_STRAINER他
  6
Continuous
 62
     4
100
AcDbLine
 10
917.0838543200584
 20
1017.79925222331
 30
0.0
 11
917.7603550160716
 21
1017.122689593698
 31
0.0
  0
LINE
  5
1BD
330
22
100
AcDbEntity
  8
_2-9_STRAINER他
  6
Continuous
 62
     4
100
AcDbLine
 10
917.7603550160716
 20
1017.122689593698
 30
0.0
 11
924.4073165375272
 21
1017.122689593698
 31
0.0
  0
LINE
  5
1BE
330
22
100
AcDbEntity
  8
_2-9_STRAINER他
  6
Continuous
 62
     4
100
AcDbLine
 10
924.4073165375272
 20
1017.122689593698
 30
0.0
 11
925.0838172335404
 21
1017.79925222331
 31
0.0
  0
LINE
  5
1BF
330
22
100
AcDbEntity
  8
_2-9_STRAINER他
  6
Continuous
 62
     4
100
AcDbLine
 10
913.5838008701107
 20
1045.001231871502
 30
0.0
 11
913.5838008701107
 21
1039.222827134893
 31
0.0
  0
LINE
  5
1C0
330
22
100
AcDbEntity
  8
_2-9_STRAINER他
  6
Continuous
 62
     4
100
AcDbLine
 10
928.583870683488
 20
1045.001231871502
 30
0.0
 11
928.583870683488
 21
1039.222827134893
 31
0.0
  0
LINE
  5
1C1
330
22
100
AcDbEntity
  8
_2-9_STRAINER他
  6
Continuous
 62
     4
100
AcDbLine
 10
917.3366053353863
 20
1045.001231871502
 30
0.0
 11
917.3366053353863
 21
1039.222827134893
 31
0.0
  0
LINE
  5
1C2
330
22
100
AcDbEntity
  8
_2-9_STRAINER他
  6
Continuous
 62
     4
100
AcDbLine
 10
924.8310662182126
 20
1045.001231871502
 30
0.0
 11
924.8310662182126
 21
1039.222827134893
 31
0.0
  0
LINE
  5
1C3
330
22
100
AcDbEntity
  8
_2-9_STRAINER他
  6
Continuous
 62
     4
100
AcDbLine
 10
915.4602650363456
 20
1045.722882160794
 30
0.0
 11
926.7074065172533
 21
1045.722882160794
 31
0.0
  0
LINE
  5
1C4
330
22
100
AcDbEntity
  8
_2-9_STRAINER他
  6
Continuous
 62
     4
100
AcDbLine
 10
917.7603550160716
 20
1039.222827134893
 30
0.0
 11
917.7603550160716
 21
1017.122689593698
 31
0.0
  0
LINE
  5
1C5
330
22
100
AcDbEntity
  8
_2-9_STRAINER他
  6
Continuous
 62
     4
100
AcDbLine
 10
917.0838543200584
 20
1039.222827134893
 30
0.0
 11
917.0838543200584
 21
1017.79925222331
 31
0.0
  0
LINE
  5
1C6
330
22
100
AcDbEntity
  8
_2-9_STRAINER他
  6
Continuous
 62
     4
100
AcDbLine
 10
924.4073165375272
 20
1039.222827134893
 30
0.0
 11
924.4073165375272
 21
1017.122689593698
 31
0.0
  0
LINE
  5
1C7
330
22
100
AcDbEntity
  8
_2-9_STRAINER他
  6
Continuous
 62
     4
100
AcDbLine
 10
925.0838172335404
 20
1039.222827134893
 30
0.0
 11
925.0838172335404
 21
1017.79925222331
 31
0.0
  0
LINE
  5
1C8
330
22
100
AcDbEntity
  8
_2-9_STRAINER他
  6
Continuous
 62
     4
100
AcDbLine
 10
925.0838172335404
 20
1056.446065398703
 30
0.0
 11
917.0838543200584
 21
1056.446065398703
 31
0.0
  0
LINE
  5
1C9
330
22
100
AcDbEntity
  8
_2-9_STRAINER他
  6
Continuous
 62
     4
100
AcDbLine
 10
917.0838543200584
 20
1056.446065398703
 30
0.0
 11
917.7603550160716
 21
1057.122628028315
 31
0.0
  0
LINE
  5
1CA
330
22
100
AcDbEntity
  8
_2-9_STRAINER他
  6
Continuous
 62
     4
100
AcDbLine
 10
917.7603550160716
 20
1057.122628028315
 30
0.0
 11
924.4073165375272
 21
1057.122628028315
 31
0.0
  0
LINE
  5
1CB
330
22
100
AcDbEntity
  8
_2-9_STRAINER他
  6
Continuous
 62
     4
100
AcDbLine
 10
924.4073165375272
 20
1057.122628028315
 30
0.0
 11
925.0838172335404
 21
1056.446065398703
 31
0.0
  0
LINE
  5
1CC
330
22
100
AcDbEntity
  8
_2-9_STRAINER他
  6
Continuous
 62
     4
100
AcDbLine
 10
917.7603550160716
 20
1045.722882160794
 30
0.0
 11
917.7603550160716
 21
1057.122628028315
 31
0.0
  0
LINE
  5
1CD
330
22
100
AcDbEntity
  8
_2-9_STRAINER他
  6
Continuous
 62
     4
100
AcDbLine
 10
917.0838543200584
 20
1045.722882160794
 30
0.0
 11
917.0838543200584
 21
1056.446065398703
 31
0.0
  0
LINE
  5
1CE
330
22
100
AcDbEntity
  8
_2-9_STRAINER他
  6
Continuous
 62
     4
100
AcDbLine
 10
924.4073165375272
 20
1045.722882160794
 30
0.0
 11
924.4073165375272
 21
1057.122628028315
 31
0.0
  0
LINE
  5
1CF
330
22
100
AcDbEntity
  8
_2-9_STRAINER他
  6
Continuous
 62
     4
100
AcDbLine
 10
925.0838172335404
 20
1045.722882160794
 30
0.0
 11
925.0838172335404
 21
1056.446065398703
 31
0.0
  0
LINE
  5
1D0
330
22
100
AcDbEntity
  8
_2-9_STRAINER他
  6
Continuous
 62
     4
100
AcDbLine
 10
1062.576839356898
 20
1047.503596983807
 30
0.0
 11
1062.083847913132
 21
1050.722905431921
 31
0.0
  0
LINE
  5
1D1
330
22
100
AcDbEntity
  8
_2-9_STRAINER他
  6
Continuous
 62
     4
100
AcDbLine
 10
1058.188658104991
 20
1045.946586318444
 30
0.0
 11
1059.083908270773
 21
1050.722905431921
 31
0.0
  0
LINE
  5
1D2
330
22
100
AcDbEntity
  8
_2-9_STRAINER他
  6
DASHED1
 62
     4
100
AcDbLine
 10
1058.188658104991
 20
1045.946586318444
 30
0.0
 11
1057.815755908642
 21
1043.957031401415
 31
0.0
  0
LINE
  5
1D3
330
22
100
AcDbEntity
  8
_2-9_STRAINER他
  6
Continuous
 62
     4
100
AcDbLine
 10
1044.306675544667
 20
1040.35447784601
 30
0.0
 11
1044.863768262844
 21
1043.485592849914
 31
0.0
  0
LINE
  5
1D4
330
22
100
AcDbEntity
  8
_2-9_STRAINER他
  6
Continuous
 62
     4
100
AcDbLine
 10
1042.855199731084
 20
1038.772941475657
 30
0.0
 11
1038.936227421132
 21
1037.723043114509
 31
0.0
  0
LINE
  5
1D5
330
22
100
AcDbEntity
  8
_2-9_STRAINER他
  6
DASHED1
 62
     4
100
AcDbLine
 10
1042.855199731084
 20
1038.772941475657
 30
0.0
 11
1066.318805442443
 21
1045.059944922846
 31
0.0
  0
LINE
  5
1D6
330
22
100
AcDbEntity
  8
_2-9_STRAINER他
  6
Continuous
 62
     4
100
AcDbLine
 10
933.3250115130393
 20
1038.017103840011
 30
0.0
 11
934.0838219614084
 21
1034.22305159816
 31
0.0
  0
LINE
  5
1D7
330
22
100
AcDbEntity
  8
_2-9_STRAINER他
  6
Continuous
 62
     4
100
AcDbLine
 10
931.8541504831371
 20
1039.222827134893
 30
0.0
 11
907.633406530568
 21
1039.222827134893
 31
0.0
  0
LINE
  5
1D8
330
22
100
AcDbEntity
  8
_2-9_STRAINER他
  6
Continuous
 62
     4
100
AcDbLine
 10
1030.876746319528
 20
1036.997676809308
 30
0.0
 11
1030.083934325598
 21
1034.22305159816
 31
0.0
  0
LINE
  5
1D9
330
22
100
AcDbEntity
  8
_2-9_STRAINER他
  6
Continuous
 62
     4
100
AcDbLine
 10
933.3838484315773
 20
1037.723043114509
 30
0.0
 11
1038.936227421132
 21
1037.723043114509
 31
0.0
  0
LINE
  5
1DA
330
22
100
AcDbEntity
  8
_2-9_STRAINER他
  6
Continuous
 62
     4
100
AcDbLine
 10
1056.714390727175
 20
1044.723026147206
 30
0.0
 11
1055.083926814032
 21
1044.723026147206
 31
0.0
  0
LINE
  5
1DB
330
22
100
AcDbEntity
  8
_2-9_STRAINER他
  6
CENTER1
 62
     4
100
AcDbLine
 10
921.0838357767993
 20
1060.366462181421
 30
0.0
 11
921.0838357767993
 21
1016.268996872484
 31
0.0
  0
LINE
  5
1DC
330
22
100
AcDbEntity
  8
_2-9_STRAINER他
  6
Continuous
 62
     4
100
AcDbLine
 10
925.0838172335404
 20
1034.22305159816
 30
0.0
 11
1039.396951460099
 21
1034.22305159816
 31
0.0
  0
ARC
  5
1DD
330
22
100
AcDbEntity
  8
_2-9_STRAINER他
  6
Continuous
 62
     4
100
AcDbCircle
 10
896.3177045561593
 20
1044.325412445074
 30
0.0
 40
2.000000284531631
100
AcDbArc
 50
190.6148834228516
 51
255.000503540039
  0
ARC
  5
1DE
330
22
100
AcDbEntity
  8
_2-9_STRAINER他
  6
DASHED1
 62
     4
100
AcDbCircle
 10
1055.849983493422
 20
1044.325412445074
 30
0.0
 40
2.000000284531631
100
AcDbArc
 50
284.9994964599609
 51
349.3851165771484
  0
ARC
  5
1DF
330
22
100
AcDbEntity
  8
_2-9_STRAINER他
  6
Continuous
 62
     4
100
AcDbCircle
 10
931.8541504831371
 20
1037.723043114509
 30
0.0
 40
1.500000183157709
100
AcDbArc
 50
11.31021118164062
 51
90.00000000000003
  0
ARC
  5
1E0
330
22
100
AcDbEntity
  8
_2-9_STRAINER他
  6
Continuous
 62
     4
100
AcDbCircle
 10
1065.54234391851
 20
1047.957941862132
 30
0.0
 40
3.000000366315418
100
AcDbArc
 50
188.7071228027344
 51
285.0002746582031
  0
ARC
  5
1E1
330
22
100
AcDbEntity
  8
_2-9_STRAINER他
  6
Continuous
 62
     4
100
AcDbCircle
 10
886.625344131076
 20
1047.957941862132
 30
0.0
 40
3.000000366315418
100
AcDbArc
 50
254.9997253417969
 51
351.2928619384766
  0
ARC
  5
1E2
330
22
100
AcDbEntity
  8
_2-9_STRAINER他
  6
Continuous
 62
     4
100
AcDbCircle
 10
915.4602650363456
 20
1042.922740307081
 30
0.0
 40
2.800173788227169
100
AcDbArc
 50
47.92556762695312
 51
132.0746307373047
  0
ARC
  5
1E3
330
22
100
AcDbEntity
  8
_2-9_STRAINER他
  6
Continuous
 62
     4
100
AcDbCircle
 10
921.0838357767993
 20
1035.633651236756
 30
0.0
 40
10.08941188627228
100
AcDbArc
 50
68.19786071777343
 51
111.8021392822265
  0
ARC
  5
1E4
330
22
100
AcDbEntity
  8
_2-9_STRAINER他
  6
Continuous
 62
     4
100
AcDbCircle
 10
926.7074065172533
 20
1042.922740307081
 30
0.0
 40
2.800189997411142
100
AcDbArc
 50
47.92572021484374
 51
132.0742797851562
  0
ARC
  5
1E5
330
22
100
AcDbEntity
  8
_2-9_STRAINER他
  6
Continuous
 62
     4
100
AcDbCircle
 10
1046.340512984598
 20
1043.222994392429
 30
0.0
 40
1.500000183157709
100
AcDbArc
 50
90.0
 51
169.911865234375
  0
ARC
  5
1E6
330
22
100
AcDbEntity
  8
_2-9_STRAINER他
  6
Continuous
 62
     4
100
AcDbCircle
 10
1056.714390727175
 20
1046.223057901984
 30
0.0
 40
1.500000183157709
100
AcDbArc
 50
270.0
 51
349.3843536376953
  0
ARC
  5
1E7
330
22
100
AcDbEntity
  8
_2-9_STRAINER他
  6
Continuous
 62
     4
100
AcDbCircle
 10
1042.337558715131
 20
1040.704774278918
 30
0.0
 40
2.000000284531631
100
AcDbArc
 50
284.9994964599609
 51
349.9125671386719
  0
ARC
  5
1E8
330
22
100
AcDbEntity
  8
_2-9_STRAINER他
  6
Continuous
 62
     4
100
AcDbCircle
 10
1031.838141568469
 20
1036.722939366526
 30
0.0
 40
1.000000142265815
100
AcDbArc
 50
90.0
 51
164.0540161132812
  0
LINE
  5
1E9
330
22
100
AcDbEntity
  8
_2-9_STRAINER他
  6
Continuous
 62
     4
100
AcDbLine
 10
912.7707365894874
 20
1034.22305159816
 30
0.0
 11
917.0838543200584
 21
1034.22305159816
 31
0.0
  0
LINE
  5
1EA
330
22
100
AcDbEntity
  8
_2-9_STRAINER他
  6
Continuous
 62
     4
100
AcDbLine
 10
873.5838695592571
 20
1044.723054645797
 30
0.0
 11
874.0837904422873
 21
1046.722985908778
 31
0.0
  0
LINE
  5
1EB
330
22
100
AcDbEntity
  8
_2-1_
  6
Continuous
 62
     4
100
AcDbLine
 10
910.5837992941548
 20
1001.690365951738
 30
0.0
 11
910.5837992941548
 21
891.68673237816
 31
0.0
  0
LINE
  5
1EC
330
22
100
AcDbEntity
  8
_2-1_
  6
Continuous
 62
     4
100
AcDbLine
 10
906.0838278970193
 20
1001.690365951738
 30
0.0
 11
906.0838278970193
 21
891.68673237816
 31
0.0
  0
LINE
  5
1ED
330
22
100
AcDbEntity
  8
_2-1_
  6
Continuous
 62
     4
100
AcDbLine
 10
1041.583950689028
 20
1001.690365951738
 30
0.0
 11
1041.583950689028
 21
891.68673237816
 31
0.0
  0
LINE
  5
1EE
330
22
100
AcDbEntity
  8
_2-1_
  6
Continuous
 62
     4
100
AcDbLine
 10
1046.083860152567
 20
1001.690365951738
 30
0.0
 11
1046.083860152567
 21
891.68673237816
 31
0.0
  0
LINE
  5
1EF
330
22
100
AcDbEntity
  8
_2-9_STRAINER他
  6
Continuous
 62
     4
100
AcDbLine
 10
1078.583878242018
 20
1044.723063360676
 30
0.0
 11
1078.0837737401
 21
1046.722985908778
 31
0.0
  0
LINE
  5
1F0
330
22
100
AcDbEntity
  8
_2-1_
  6
Continuous
 62
     4
100
AcDbLine
 10
918.9339347733501
 20
962.8654317471664
 30
0.0
 11
918.9339347733501
 21
855.3741790950224
 31
0.0
  0
LINE
  5
1F1
330
22
100
AcDbEntity
  8
_2-1_
  6
Continuous
 62
     4
100
AcDbLine
 10
1033.233939077031
 20
962.8654317471664
 30
0.0
 11
1033.233939077031
 21
855.3741790950224
 31
0.0
  0
ARC
  5
1F2
330
22
100
AcDbEntity
  8
_2-1_
  6
Continuous
 62
     4
100
AcDbCircle
 10
947.5088650910409
 20
903.6295990720104
 30
0.0
 40
56.08129991196989
100
AcDbArc
 50
239.3676787552042
 51
300.6323212447953
  0
ARC
  5
1F3
330
22
100
AcDbEntity
  8
_2-1_
  6
Continuous
 62
     4
100
AcDbCircle
 10
1004.658751804591
 20
903.629583629552
 30
0.0
 40
56.08129991196989
100
AcDbArc
 50
239.3676477914423
 51
300.6322902810333
  0
ARC
  5
1F4
330
22
100
AcDbEntity
  8
_2-1_
  6
Continuous
 62
     4
100
AcDbCircle
 10
947.5088650910409
 20
807.1187591180368
 30
0.0
 40
56.08129991196989
100
AcDbArc
 50
59.3676787552047
 51
120.6323212447958
  0
LINE
  5
1F5
330
22
100
AcDbEntity
  8
_2-1_
  6
Continuous
 62
     4
100
AcDbLine
 10
923.4338442368841
 20
1007.090232534542
 30
0.0
 11
923.4338442368841
 21
857.7695791576783
 31
0.0
  0
LINE
  5
1F6
330
22
100
AcDbEntity
  8
_2-1_
  6
Continuous
 62
     4
100
AcDbLine
 10
1028.733843812702
 20
1007.090232534542
 30
0.0
 11
1028.733843812702
 21
852.9787974104106
 31
0.0
  0
LINE
  5
1F7
330
22
100
AcDbEntity
  8
_2-E_CON他
  6
Continuous
 62
     4
100
AcDbLine
 10
1046.083860152567
 20
905.709990739054
 30
0.0
 11
1182.060601791673
 21
1041.68673237816
 31
0.0
  0
LINE
  5
1F8
330
22
100
AcDbEntity
  8
_2-E_CON他
  6
Continuous
 62
     4
100
AcDbLine
 10
1046.202737415401
 20
891.68673237816
 30
0.0
 11
1196.202737415402
 21
1041.68673237816
 31
0.0
  0
LINE
  5
1F9
330
22
100
AcDbEntity
  8
_2-E_CON他
  6
Continuous
 62
     4
100
AcDbLine
 10
1046.083860152567
 20
898.6389229271873
 30
0.0
 11
1189.131669603539
 21
1041.68673237816
 31
0.0
  0
LINE
  5
1FA
330
22
100
AcDbEntity
  8
_2-E_CON他
  6
Continuous
 62
     4
100
AcDbLine
 10
846.2027374154018
 20
891.68673237816
 30
0.0
 11
906.0838278970193
 21
951.5678228597748
 31
0.0
  0
LINE
  5
1FB
330
22
100
AcDbEntity
  8
_2-E_CON他
  6
Continuous
 62
     4
100
AcDbLine
 10
839.1316696035396
 20
891.68673237816
 30
0.0
 11
906.0838278970193
 21
958.6388906716393
 31
0.0
  0
LINE
  5
1FC
330
22
100
AcDbEntity
  8
_2-E_CON他
  6
Continuous
 62
     4
100
AcDbLine
 10
832.060601791673
 20
891.68673237816
 30
0.0
 11
906.0838278970193
 21
965.7099584835036
 31
0.0
  0
LINE
  5
1FD
330
22
100
AcDbEntity
  8
_2-4_OUT_LINE
  6
Continuous
 62
     2
100
AcDbLine
 10
1085.91272652513
 20
1046.68673237816
 30
0.0
 11
1078.583878242018
 21
1044.723063360676
 31
0.0
  0
LINE
  5
1FE
330
22
100
AcDbEntity
  8
_2-4_OUT_LINE
  6
Continuous
 62
     2
100
AcDbLine
 10
1085.91272652513
 20
1046.68673237816
 30
0.0
 11
1376.08402955655
 21
1046.68673237816
 31
0.0
  0
LINE
  5
1FF
330
22
100
AcDbEntity
  8
_2-7_ビス
  6
Continuous
 62
     7
100
AcDbLine
 10
865.5967907756219
 20
1041.68673237816
 30
0.0
 11
877.4395386078145
 21
1038.513606253983
 31
0.0
  0
LINE
  5
200
330
22
100
AcDbEntity
  8
_2-4_OUT_LINE
  6
Continuous
 62
     2
100
AcDbLine
 10
866.2550274968891
 20
1046.68673237816
 30
0.0
 11
726.0840295565509
 21
1046.68673237816
 31
0.0
  0
LINE
  5
201
330
22
100
AcDbEntity
  8
_2-4_OUT_LINE
  6
Continuous
 62
     2
100
AcDbLine
 10
1061.083929965944
 20
1040.033909540366
 30
0.0
 11
1078.583887547689
 21
1044.723026147206
 31
0.0
  0
LINE
  5
202
330
22
100
AcDbEntity
  8
_2-4_OUT_LINE
  6
Continuous
 62
     2
100
AcDbLine
 10
1060.083764284364
 20
1039.248343777458
 30
0.0
 11
1061.083929965944
 21
1040.033909540366
 31
0.0
  0
LINE
  5
203
330
22
100
AcDbEntity
  8
_2-4_OUT_LINE
  6
Continuous
 62
     2
100
AcDbLine
 10
1058.083866456391
 20
1038.712494283557
 30
0.0
 11
1060.083764284364
 21
1039.248343777458
 31
0.0
  0
LINE
  5
204
330
22
100
AcDbEntity
  8
_2-4_OUT_LINE
  6
Continuous
 62
     2
100
AcDbLine
 10
1058.083866456391
 20
1038.712494283557
 30
0.0
 11
1057.083824642004
 21
1038.961962818164
 31
0.0
  0
LINE
  5
205
330
22
100
AcDbEntity
  8
_2-4_OUT_LINE
  6
Continuous
 62
     2
100
AcDbLine
 10
1039.396951460099
 20
1034.22305159816
 30
0.0
 11
1057.083824642004
 21
1038.961962818164
 31
0.0
  0
ARC
  5
206
330
22
100
AcDbEntity
  8
_2-4_OUT_LINE
  6
Continuous
 62
     2
100
AcDbCircle
 10
1041.143045401573
 20
1026.408560567166
 30
0.0
 40
8.000000366315418
100
AcDbArc
 50
105.0000915527344
 51
175.4457550048828
  0
LINE
  5
207
330
22
100
AcDbEntity
  8
_2-4_OUT_LINE
  6
Continuous
 62
     2
100
AcDbLine
 10
1032.537901524052
 20
1019.128821865552
 30
0.0
 11
1033.168238364028
 21
1027.0438159179
 31
0.0
  0
LINE
  5
208
330
22
100
AcDbEntity
  8
_2-4_OUT_LINE
  6
Continuous
 62
     2
100
AcDbLine
 10
927.1963722771177
 20
1027.318241261392
 30
0.0
 11
928.9547910046858
 21
1013.69012452117
 31
0.0
  0
ARC
  5
209
330
22
100
AcDbEntity
  8
_2-4_OUT_LINE
  6
Continuous
 62
     2
100
AcDbCircle
 10
926.2046295649279
 20
1027.190162579771
 30
0.0
 40
1.000000142265815
100
AcDbArc
 50
7.352645874023436
 51
90.0
  0
LINE
  5
20A
330
22
100
AcDbEntity
  8
_2-4_OUT_LINE
  6
Continuous
 62
     2
100
AcDbLine
 10
926.2046295649279
 20
1028.190266327754
 30
0.0
 11
925.0838172335404
 21
1028.190266327754
 31
0.0
  0
ARC
  5
20B
330
22
100
AcDbEntity
  8
_2-4_OUT_LINE
  6
Continuous
 62
     2
100
AcDbCircle
 10
911.0246426480131
 20
1026.408560567166
 30
0.0
 40
8.000000366315418
100
AcDbArc
 50
40.76435434552685
 51
74.99990844726562
  0
LINE
  5
20C
330
22
100
AcDbEntity
  8
_2-4_OUT_LINE
  6
Continuous
 62
     2
100
AcDbLine
 10
912.7707365894874
 20
1034.22305159816
 30
0.0
 11
895.0838634075767
 21
1038.961962818164
 31
0.0
  0
LINE
  5
20D
330
22
100
AcDbEntity
  8
_2-4_OUT_LINE
  6
Continuous
 62
     2
100
AcDbLine
 10
894.0838835267918
 20
1038.712494283557
 30
0.0
 11
895.0838634075767
 21
1038.961962818164
 31
0.0
  0
LINE
  5
20E
330
22
100
AcDbEntity
  8
_2-4_OUT_LINE
  6
Continuous
 62
     2
100
AcDbLine
 10
894.0838835267918
 20
1038.712494283557
 30
0.0
 11
892.0839237652222
 21
1039.248343777458
 31
0.0
  0
LINE
  5
20F
330
22
100
AcDbEntity
  8
_2-4_OUT_LINE
  6
Continuous
 62
     2
100
AcDbLine
 10
892.0839237652222
 20
1039.248343777458
 30
0.0
 11
891.083820017239
 21
1040.033909540366
 31
0.0
  0
LINE
  5
210
330
22
100
AcDbEntity
  8
_2-4_OUT_LINE
  6
Continuous
 62
     2
100
AcDbLine
 10
891.083820017239
 20
1040.033909540366
 30
0.0
 11
873.5838624354942
 21
1044.723026147206
 31
0.0
  0
LINE
  5
211
330
22
100
AcDbEntity
  8
_2-4_OUT_LINE
  6
Continuous
 62
     2
100
AcDbLine
 10
866.2550274968891
 20
1046.68673237816
 30
0.0
 11
873.5838695592571
 21
1044.723054645797
 31
0.0
  0
LINE
  5
212
330
22
100
AcDbEntity
  8
_2-E_CON他
  6
Continuous
 62
     4
100
AcDbLine
 10
1097.896593072396
 20
1033.690217605677
 30
0.0
 11
1098.583934089941
 21
1034.377558623221
 31
0.0
  0
LINE
  5
213
330
22
100
AcDbEntity
  8
_2-E_CON他
  6
Continuous
 62
     4
100
AcDbLine
 10
1094.361059166463
 20
1033.690217605677
 30
0.0
 11
1098.583934089939
 21
1037.913092529154
 31
0.0
  0
LINE
  5
214
330
22
100
AcDbEntity
  8
_2-E_CON他
  6
Continuous
 62
     4
100
AcDbLine
 10
1090.82552526053
 20
1033.690217605677
 30
0.0
 11
1098.583934089941
 21
1041.448626435088
 31
0.0
  0
LINE
  5
215
330
22
100
AcDbEntity
  8
_2-E_CON他
  6
Continuous
 62
     4
100
AcDbLine
 10
1088.440153782283
 20
1034.840380033363
 30
0.0
 11
1095.286506127082
 21
1041.686732378162
 31
0.0
  0
LINE
  5
216
330
22
100
AcDbEntity
  8
_2-E_CON他
  6
Continuous
 62
     4
100
AcDbLine
 10
1088.047292383674
 20
1037.983052540688
 30
0.0
 11
1091.750972221146
 21
1041.68673237816
 31
0.0
  0
LINE
  5
217
330
22
100
AcDbEntity
  8
_2-E_CON他
  6
Continuous
 62
     4
100
AcDbLine
 10
1087.654430985067
 20
1041.125725048014
 30
0.0
 11
1088.215438315212
 21
1041.68673237816
 31
0.0
  0
LINE
  5
218
330
22
100
AcDbEntity
  8
_2-E_CON他
  6
Continuous
 62
     4
100
AcDbLine
 10
861.0158835599447
 20
1033.690279790722
 30
0.0
 11
863.9506722530047
 21
1036.625068483782
 31
0.0
  0
LINE
  5
219
330
22
100
AcDbEntity
  8
_2-E_CON他
  6
Continuous
 62
     4
100
AcDbLine
 10
857.4803515646891
 20
1033.69028170139
 30
0.0
 11
864.4557485252795
 21
1040.665678661979
 31
0.0
  0
LINE
  5
21A
330
22
100
AcDbEntity
  8
_2-E_CON他
  6
Continuous
 62
     4
100
AcDbLine
 10
853.9448195694244
 20
1033.690283612059
 30
0.0
 11
861.9412683355227
 21
1041.68673237816
 31
0.0
  0
LINE
  5
21B
330
22
100
AcDbEntity
  8
_2-E_CON他
  6
Continuous
 62
     4
100
AcDbLine
 10
853.5839991803918
 20
1036.86499712896
 30
0.0
 11
858.4057344295938
 21
1041.68673237816
 31
0.0
  0
LINE
  5
21C
330
22
100
AcDbEntity
  8
_2-E_CON他
  6
Continuous
 62
     4
100
AcDbLine
 10
853.5840010910629
 20
1040.400532945567
 30
0.0
 11
854.8702005236606
 21
1041.68673237816
 31
0.0
  0
LINE
  5
21D
330
22
100
AcDbEntity
  8
_2-3_
  6
Continuous
 62
     3
100
AcDbLine
 10
1376.08402955655
 20
891.68673237816
 30
0.0
 11
1033.233939077031
 21
891.68673237816
 31
0.0
  0
LINE
  5
21E
330
22
100
AcDbEntity
  8
_2-3_
  6
Continuous
 62
     3
100
AcDbLine
 10
918.9339347733501
 20
891.68673237816
 30
0.0
 11
726.0840295565509
 21
891.68673237816
 31
0.0
  0
LINE
  5
21F
330
22
100
AcDbEntity
  8
_2-8_DRAIN他
  6
Continuous
 62
     4
100
AcDbLine
 10
950.5637313174752
 20
501.6738351665456
 30
0.0
 11
947.9635111196015
 21
501.6738351665456
 31
0.0
  0
LINE
  5
220
330
22
100
AcDbEntity
  8
_2-8_DRAIN他
  6
Continuous
 62
     4
100
AcDbLine
 10
950.5637313174752
 20
489.6740765971162
 30
0.0
 11
947.9635111196015
 21
489.6740765971162
 31
0.0
  0
LINE
  5
221
330
22
100
AcDbEntity
  8
_2-8_DRAIN他
  6
Continuous
 62
     4
100
AcDbLine
 10
950.5637313174752
 20
495.19483756412
 30
0.0
 11
950.5637313174752
 21
496.1528264651474
 31
0.0
  0
LINE
  5
222
330
22
100
AcDbEntity
  8
_2-8_DRAIN他
  6
Continuous
 62
     4
100
AcDbLine
 10
935.9637525501698
 20
498.6737716569906
 30
0.0
 11
935.9637525501698
 21
492.6736446378823
 31
0.0
  0
LINE
  5
223
330
22
100
AcDbEntity
  8
_2-8_DRAIN他
  6
Continuous
 62
     4
100
AcDbLine
 10
945.9635513580275
 20
498.6737716569906
 30
0.0
 11
935.9637525501698
 21
498.6737716569906
 31
0.0
  0
LINE
  5
224
330
22
100
AcDbEntity
  8
_2-8_DRAIN他
  6
Continuous
 62
     4
100
AcDbLine
 10
947.9635111196015
 20
501.6738351665456
 30
0.0
 11
947.9635111196015
 21
489.6740765971162
 31
0.0
  0
LINE
  5
225
330
22
100
AcDbEntity
  8
_2-8_DRAIN他
  6
Continuous
 62
     4
100
AcDbLine
 10
945.9635513580275
 20
492.6736446378823
 30
0.0
 11
935.9637525501698
 21
492.6736446378823
 31
0.0
  0
LINE
  5
226
330
22
100
AcDbEntity
  8
_2-8_DRAIN他
  6
Continuous
 62
     4
100
AcDbLine
 10
945.9635513580275
 20
497.8037284657808
 30
0.0
 11
935.9637525501698
 21
497.8037284657808
 31
0.0
  0
LINE
  5
227
330
22
100
AcDbEntity
  8
_2-8_DRAIN他
  6
Continuous
 62
     4
100
AcDbLine
 10
945.9635513580275
 20
493.5436878290921
 30
0.0
 11
935.9637525501698
 21
493.5436878290921
 31
0.0
  0
LINE
  5
228
330
22
100
AcDbEntity
  8
_2-8_DRAIN他
  6
Continuous
 62
     4
100
AcDbLine
 10
945.9635513580275
 20
493.5436878290921
 30
0.0
 11
947.8361756411599
 21
492.491807592794
 31
0.0
  0
LINE
  5
229
330
22
100
AcDbEntity
  8
_2-8_DRAIN他
  6
Continuous
 62
     4
100
AcDbLine
 10
945.9635513580275
 20
492.6736446378823
 30
0.0
 11
946.727316494276
 21
493.114611858939
 31
0.0
  0
LINE
  5
22A
330
22
100
AcDbEntity
  8
_2-8_DRAIN他
  6
Continuous
 62
     4
100
AcDbLine
 10
945.9635513580275
 20
497.8037284657808
 30
0.0
 11
947.8361756411599
 21
498.8556087020787
 31
0.0
  0
LINE
  5
22B
330
22
100
AcDbEntity
  8
_2-8_DRAIN他
  6
Continuous
 62
     4
100
AcDbLine
 10
945.9635513580275
 20
498.6737716569906
 30
0.0
 11
946.727316494276
 21
498.2328044359337
 31
0.0
  0
LINE
  5
22C
330
22
100
AcDbEntity
  8
_2-8_DRAIN他
  6
Continuous
 62
     4
100
AcDbLine
 10
952.5520475625359
 20
496.1528264651474
 30
0.0
 11
950.5637313174752
 21
496.1528264651474
 31
0.0
  0
LINE
  5
22D
330
22
100
AcDbEntity
  8
_2-8_DRAIN他
  6
Continuous
 62
     4
100
AcDbLine
 10
1054.963711840428
 20
402.6737212263991
 30
0.0
 11
1054.963711840428
 21
403.673577239988
 31
0.0
  0
LINE
  5
22E
330
22
100
AcDbEntity
  8
_2-8_DRAIN他
  6
Continuous
 62
     4
100
AcDbLine
 10
947.9635111196015
 20
510.6735302264223
 30
0.0
 11
1054.963711840428
 21
403.673577239988
 31
0.0
  0
LINE
  5
22F
330
22
100
AcDbEntity
  8
_2-8_DRAIN他
  6
Continuous
 62
     4
100
AcDbLine
 10
997.9280700781471
 20
460.7094667366618
 30
0.0
 11
995.4532034835581
 21
456.1130027931222
 31
0.0
  0
LINE
  5
230
330
22
100
AcDbEntity
  8
_2-8_DRAIN他
  6
Continuous
 62
     4
100
AcDbLine
 10
1000.402936672736
 20
451.1632696039487
 30
0.0
 11
1004.999152881879
 21
453.6381361985355
 31
0.0
  0
LINE
  5
231
330
22
100
AcDbEntity
  8
_2-8_DRAIN他
  6
Continuous
 62
     4
100
AcDbLine
 10
979.6204983724422
 20
479.0170384423664
 30
0.0
 11
975.0242821632953
 21
476.5421718477796
 31
0.0
  0
LINE
  5
232
330
22
100
AcDbEntity
  8
_2-8_DRAIN他
  6
DASHED1
 62
     4
100
AcDbLine
 10
1034.205056041947
 20
397.4678306739816
 30
0.0
 11
1034.963866490316
 21
393.6735306977356
 31
0.0
  0
LINE
  5
233
330
22
100
AcDbEntity
  8
_2-8_DRAIN他
  6
Continuous
 62
     4
100
AcDbLine
 10
942.9634878484744
 20
492.6736446378823
 30
0.0
 11
942.9634878484744
 21
419.6737508013483
 31
0.0
  0
LINE
  5
234
330
22
100
AcDbEntity
  8
_2-8_DRAIN他
  6
Continuous
 62
     4
100
AcDbLine
 10
1046.478561116583
 20
412.1589756982257
 30
0.0
 11
1044.003694521998
 21
407.5627594890783
 31
0.0
  0
LINE
  5
235
330
22
100
AcDbEntity
  8
_2-8_DRAIN他
  6
Continuous
 62
     4
100
AcDbLine
 10
1029.532289905101
 20
403.673577239988
 30
0.0
 11
1038.166576734043
 21
403.673577239988
 31
0.0
  0
LINE
  5
236
330
22
100
AcDbEntity
  8
_2-8_DRAIN他
  6
Continuous
 62
     4
100
AcDbLine
 10
947.9635111196015
 20
419.6737508013483
 30
0.0
 11
947.9635111196015
 21
427.2246951259762
 31
0.0
  0
LINE
  5
237
330
22
100
AcDbEntity
  8
_2-8_DRAIN他
  6
Continuous
 62
     4
100
AcDbLine
 10
947.9635111196015
 20
452.3152345353627
 30
0.0
 11
947.9635111196015
 21
460.4889831261335
 31
0.0
  0
LINE
  5
238
330
22
100
AcDbEntity
  8
_2-8_DRAIN他
  6
Continuous
 62
     4
100
AcDbLine
 10
942.9634878484744
 20
498.6737716569906
 30
0.0
 11
942.9634878484744
 21
505.94651025732
 31
0.0
  0
LINE
  5
239
330
22
100
AcDbEntity
  8
_2-8_DRAIN他
  6
Continuous
 62
     4
100
AcDbLine
 10
1050.236444136931
 20
398.6738017032552
 30
0.0
 11
963.9634369465698
 21
398.6738017032552
 31
0.0
  0
LINE
  5
23A
330
22
100
AcDbEntity
  8
_2-8_DRAIN他
  6
DASHED1
 62
     4
100
AcDbLine
 10
1044.327483374764
 20
393.6735306977356
 30
0.0
 11
1049.054751078257
 21
397.6739456896666
 31
0.0
  0
LINE
  5
23B
330
22
100
AcDbEntity
  8
_2-8_DRAIN他
  6
Continuous
 62
     4
100
AcDbLine
 10
1049.054751078257
 20
397.6739456896666
 30
0.0
 11
1054.963711840428
 21
402.6737212263991
 31
0.0
  0
LINE
  5
23C
330
22
100
AcDbEntity
  8
_2-8_DRAIN他
  6
Continuous
 62
     4
100
AcDbLine
 10
963.9634369465698
 20
403.673577239988
 30
0.0
 11
971.5148767399803
 21
403.673577239988
 31
0.0
  0
LINE
  5
23D
330
22
100
AcDbEntity
  8
_2-8_DRAIN他
  6
Continuous
 62
     4
100
AcDbLine
 10
996.6054161493691
 20
403.673577239988
 30
0.0
 11
1004.779164740139
 21
403.673577239988
 31
0.0
  0
LINE
  5
23E
330
22
100
AcDbEntity
  8
_2-8_DRAIN他
  6
Continuous
 62
     4
100
AcDbLine
 10
948.7884666511314
 20
429.2907999707063
 30
0.0
 11
984.5843524220667
 21
466.9821015890079
 31
0.0
  0
LINE
  5
23F
330
22
100
AcDbEntity
  8
_2-8_DRAIN他
  6
Continuous
 62
     4
100
AcDbLine
 10
978.0141885627022
 20
473.5520177139778
 30
0.0
 11
953.0150631446492
 21
450.1262534312808
 31
0.0
  0
LINE
  5
240
330
22
100
AcDbEntity
  8
_2-8_DRAIN他
  6
Continuous
 62
     4
100
AcDbLine
 10
973.5807338503176
 20
404.4985327715176
 30
0.0
 11
1011.272035468619
 21
440.2941708080606
 31
0.0
  0
LINE
  5
241
330
22
100
AcDbEntity
  8
_2-8_DRAIN他
  6
Continuous
 62
     4
100
AcDbLine
 10
1017.841951593591
 20
433.7242546830908
 30
0.0
 11
994.4161873108948
 21
408.7248815306407
 31
0.0
  0
LINE
  5
242
330
22
100
AcDbEntity
  8
_2-8_DRAIN他
  6
Continuous
 62
     4
100
AcDbLine
 10
1027.827134072213
 20
423.7390722044688
 30
0.0
 11
1006.806870753822
 21
404.4626112844094
 31
0.0
  0
LINE
  5
243
330
22
100
AcDbEntity
  8
_2-8_DRAIN他
  6
Continuous
 62
     4
100
AcDbLine
 10
1027.275677311495
 20
408.6503134780923
 30
0.0
 11
1034.578144039087
 21
416.9883099719868
 31
0.0
  0
LINE
  5
244
330
22
100
AcDbEntity
  8
_2-8_DRAIN他
  6
Continuous
 62
     4
100
AcDbLine
 10
1039.986433591285
 20
404.2887017399244
 30
0.0
 11
1044.122111562256
 21
407.4443424488185
 31
0.0
  0
LINE
  5
245
330
22
100
AcDbEntity
  8
_2-8_DRAIN他
  6
Continuous
 62
     4
100
AcDbLine
 10
964.8312505282325
 20
480.0500908647314
 30
0.0
 11
948.7525451640207
 21
462.5169368742103
 31
0.0
  0
LINE
  5
246
330
22
100
AcDbEntity
  8
_2-8_DRAIN他
  6
Continuous
 62
     4
100
AcDbLine
 10
994.6681331894392
 20
456.8983208216354
 30
0.0
 11
953.0447912719095
 21
417.0750170098359
 31
0.0
  0
LINE
  5
247
330
22
100
AcDbEntity
  8
_2-8_DRAIN他
  6
Continuous
 62
     4
100
AcDbLine
 10
1001.188254701247
 20
450.3779515754354
 30
0.0
 11
961.3651986238394
 21
408.7546096579035
 31
0.0
  0
LINE
  5
248
330
22
100
AcDbEntity
  8
_2-8_DRAIN他
  6
Continuous
 62
     4
100
AcDbLine
 10
947.9635111196015
 20
489.5229586168648
 30
0.0
 11
947.9635111196015
 21
510.6735302264223
 31
0.0
  0
LINE
  5
249
330
22
100
AcDbEntity
  8
_2-8_DRAIN他
  6
Continuous
 62
     4
100
AcDbLine
 10
951.8098353185548
 20
485.525764172055
 30
0.0
 11
973.9637312232121
 21
484.6738055915968
 31
0.0
  0
LINE
  5
24A
330
22
100
AcDbEntity
  8
_2-8_DRAIN他
  6
Continuous
 62
     4
100
AcDbLine
 10
951.6175934289234
 20
480.5294569168358
 30
0.0
 11
971.8136444189672
 21
479.7528095921074
 31
0.0
  0
LINE
  5
24B
330
22
100
AcDbEntity
  8
_2-8_DRAIN他
  6
Continuous
 62
     4
100
AcDbLine
 10
971.8136444189672
 20
479.7528095921074
 30
0.0
 11
1051.675285496427
 21
399.8911685146482
 31
0.0
  0
LINE
  5
24C
330
22
100
AcDbEntity
  8
_2-8_DRAIN他
  6
Continuous
 62
     4
100
AcDbLine
 10
941.9636318348835
 20
504.7645694642506
 30
0.0
 11
946.9636551060109
 21
510.6735302264223
 31
0.0
  0
LINE
  5
24D
330
22
100
AcDbEntity
  8
_2-8_DRAIN他
  6
Continuous
 62
     4
100
AcDbLine
 10
941.7577645535954
 20
489.9148744279409
 30
0.0
 11
941.388640306755
 21
489.9886992773076
 31
0.0
  0
LINE
  5
24E
330
22
100
AcDbEntity
  8
_2-8_DRAIN他
  6
Continuous
 62
     4
100
AcDbLine
 10
946.9636551060109
 20
510.6735302264223
 30
0.0
 11
947.9635111196015
 21
510.6735302264223
 31
0.0
  0
LINE
  5
24F
330
22
100
AcDbEntity
  8
_2-8_DRAIN他
  6
Continuous
 62
     4
100
AcDbLine
 10
945.9635513580275
 20
498.6737716569906
 30
0.0
 11
945.9635513580275
 21
492.6736446378823
 31
0.0
  0
LINE
  5
250
330
22
100
AcDbEntity
  8
_2-8_DRAIN他
  6
DASHED1
 62
     4
100
AcDbLine
 10
951.5915813175713
 20
499.9748726935058
 30
0.0
 11
971.8136444189672
 21
479.7528095921074
 31
0.0
  0
LINE
  5
251
330
22
100
AcDbEntity
  8
_2-8_DRAIN他
  6
CENTER1
 62
     4
100
AcDbLine
 10
953.4272931760192
 20
495.6737081474376
 30
0.0
 11
933.273604767324
 21
495.6737081474376
 31
0.0
  0
LINE
  5
252
330
22
100
AcDbEntity
  8
_2-8_DRAIN他
  6
Continuous
 62
     4
100
AcDbLine
 10
952.5522952969327
 20
495.19483756412
 30
0.0
 11
950.5637313174752
 21
495.19483756412
 31
0.0
  0
ARC
  5
253
330
22
100
AcDbEntity
  8
_2-8_DRAIN他
  6
Continuous
 62
     4
100
AcDbCircle
 10
947.7135471162052
 20
492.2738013262051
 30
0.0
 40
0.2500000053254391
100
AcDbArc
 50
0.0
 51
60.67082214355469
  0
ARC
  5
254
330
22
100
AcDbEntity
  8
_2-8_DRAIN他
  6
Continuous
 62
     4
100
AcDbCircle
 10
947.7135471162052
 20
499.0736149686699
 30
0.0
 40
0.2500000053254391
100
AcDbArc
 50
299.3291778564453
 51
0.0
  0
ARC
  5
255
330
22
100
AcDbEntity
  8
_2-8_DRAIN他
  6
Continuous
 62
     4
100
AcDbCircle
 10
942.5636445367953
 20
495.6737081474376
 30
0.0
 40
10.00000105976598
100
AcDbArc
 50
2.745620727539062
 51
36.869873046875
  0
ARC
  5
256
330
22
100
AcDbEntity
  8
_2-8_DRAIN他
  6
Continuous
 62
     4
100
AcDbCircle
 10
941.4637038280904
 20
488.4438275972433
 30
0.0
 40
1.500000062193649
100
AcDbArc
 50
0.0
 51
78.689697265625
  0
ARC
  5
257
330
22
100
AcDbEntity
  8
_2-8_DRAIN他
  6
Continuous
 62
     4
100
AcDbCircle
 10
963.5328745700512
 20
406.6808250469648
 30
0.0
 40
3.000000124387299
100
AcDbArc
 50
136.2662200927734
 51
268.1018829345703
  0
ARC
  5
258
330
22
100
AcDbEntity
  8
_2-8_DRAIN他
  6
Continuous
 62
     4
100
AcDbCircle
 10
971.5148767399803
 20
406.6736407495431
 30
0.0
 40
3.000000124387299
100
AcDbArc
 50
269.9998321533203
 51
313.5226898193359
  0
ARC
  5
259
330
22
100
AcDbEntity
  8
_2-8_DRAIN他
  6
Continuous
 62
     4
100
AcDbCircle
 10
996.6054161493691
 20
406.6736407495431
 30
0.0
 40
3.000000124387299
100
AcDbArc
 50
136.8611755371093
 51
269.9996643066406
  0
ARC
  5
25A
330
22
100
AcDbEntity
  8
_2-8_DRAIN他
  6
Continuous
 62
     4
100
AcDbCircle
 10
1004.779164740139
 20
406.6736407495431
 30
0.0
 40
3.000000124387299
100
AcDbArc
 50
269.9998321533203
 51
312.5221099853516
  0
ARC
  5
25B
330
22
100
AcDbEntity
  8
_2-8_DRAIN他
  6
Continuous
 62
     4
100
AcDbCircle
 10
1029.532289905101
 20
406.6736407495431
 30
0.0
 40
3.000000124387299
100
AcDbArc
 50
138.786880493164
 51
270.0
  0
ARC
  5
25C
330
22
100
AcDbEntity
  8
_2-8_DRAIN他
  6
Continuous
 62
     4
100
AcDbCircle
 10
1038.166576734043
 20
406.6736407495431
 30
0.0
 40
3.000000124387299
100
AcDbArc
 50
270.0
 51
307.3455200195312
  0
ARC
  5
25D
330
22
100
AcDbEntity
  8
_2-8_DRAIN他
  6
Continuous
 62
     4
100
AcDbCircle
 10
950.9707589265742
 20
419.2426929560451
 30
0.0
 40
3.000000124387299
100
AcDbArc
 50
181.8981170654297
 51
313.7337799072266
  0
ARC
  5
25E
330
22
100
AcDbEntity
  8
_2-8_DRAIN他
  6
Continuous
 62
     4
100
AcDbCircle
 10
950.9635746291548
 20
427.2246951259762
 30
0.0
 40
3.000000124387299
100
AcDbArc
 50
136.477310180664
 51
180.0001678466797
  0
ARC
  5
25F
330
22
100
AcDbEntity
  8
_2-8_DRAIN他
  6
Continuous
 62
     4
100
AcDbCircle
 10
950.9635746291548
 20
452.3152345353627
 30
0.0
 40
3.000000124387299
100
AcDbArc
 50
180.0003356933594
 51
313.1388244628906
  0
ARC
  5
260
330
22
100
AcDbEntity
  8
_2-8_DRAIN他
  6
Continuous
 62
     4
100
AcDbCircle
 10
950.9635746291548
 20
460.4889831261335
 30
0.0
 40
3.000000124387299
100
AcDbArc
 50
137.4778900146484
 51
180.0001678466797
  0
ARC
  5
261
330
22
100
AcDbEntity
  8
_2-8_DRAIN他
  6
Continuous
 62
     4
100
AcDbCircle
 10
963.9634369465698
 20
419.6737508013483
 30
0.0
 40
16.0000003408281
100
AcDbArc
 50
180.0
 51
181.8996124267578
  0
ARC
  5
262
330
22
100
AcDbEntity
  8
_2-8_DRAIN他
  6
Continuous
 62
     4
100
AcDbCircle
 10
963.9634369465698
 20
419.6737508013483
 30
0.0
 40
16.0000003408281
100
AcDbArc
 50
268.1017303466798
 51
270.0000000000001
  0
ARC
  5
263
330
22
100
AcDbEntity
  8
_2-8_DRAIN他
  6
DASHED1
 62
     4
100
AcDbCircle
 10
1032.73400921125
 20
397.1735222140842
 30
0.0
 40
1.500000062193649
100
AcDbArc
 50
11.30984497070312
 51
19.47171020507812
  0
ARC
  5
264
330
22
100
AcDbEntity
  8
_2-8_DRAIN他
  6
Continuous
 62
     4
100
AcDbCircle
 10
1032.73400921125
 20
397.1735222140842
 30
0.0
 40
1.500000062193649
100
AcDbArc
 50
19.47171020507812
 51
90.0
  0
ARC
  5
265
330
22
100
AcDbEntity
  8
_2-8_DRAIN他
  6
Continuous
 62
     4
100
AcDbCircle
 10
963.9634369465698
 20
419.6737508013483
 30
0.0
 40
21.00000135456733
100
AcDbArc
 50
180.0
 51
204.0758361816406
  0
ARC
  5
266
330
22
100
AcDbEntity
  8
_2-8_DRAIN他
  6
Continuous
 62
     4
100
AcDbCircle
 10
963.9634369465698
 20
419.6737508013483
 30
0.0
 40
21.00000135456733
100
AcDbArc
 50
245.9254302978516
 51
270.0
  0
ARC
  5
267
330
22
100
AcDbEntity
  8
_2-8_DRAIN他
  6
Continuous
 62
     4
100
AcDbCircle
 10
951.9636783771378
 20
489.5229586168648
 30
0.0
 40
4.000000085207025
100
AcDbArc
 50
180.0
 51
267.7975769042969
  0
ARC
  5
268
330
22
100
AcDbEntity
  8
_2-8_DRAIN他
  6
Continuous
 62
     4
100
AcDbCircle
 10
951.9636783771378
 20
489.5229586168648
 30
0.0
 40
8.999999889305659
100
AcDbArc
 50
180.0
 51
267.7975769042969
  0
ARC
  5
269
330
22
100
AcDbEntity
  8
_2-8_DRAIN他
  6
Continuous
 62
     4
100
AcDbCircle
 10
942.5636445367953
 20
495.6737081474376
 30
0.0
 40
10.00000105976598
100
AcDbArc
 50
323.130126953125
 51
357.2543792724609
  0
LINE
  5
26A
330
22
100
AcDbEntity
  8
_2-9_STRAINER他
  6
Continuous
 62
     4
100
AcDbLine
 10
962.7113873200377
 20
424.0779728552593
 30
0.0
 11
963.7010862234779
 21
424.0779728552593
 31
0.0
  0
LINE
  5
26B
330
22
100
AcDbEntity
  8
_2-9_STRAINER他
  6
Continuous
 62
     4
100
AcDbLine
 10
968.3681544692674
 20
419.4111523438663
 30
0.0
 11
968.3681544692674
 21
418.4212057060312
 31
0.0
  0
LINE
  5
26C
330
22
100
AcDbEntity
  8
_2-9_STRAINER他
  6
Continuous
 62
     4
100
AcDbLine
 10
958.3361501902079
 20
403.4392205034032
 30
0.0
 11
954.2502668323965
 21
399.3535848799865
 31
0.0
  0
LINE
  5
26D
330
22
100
AcDbEntity
  8
_2-9_STRAINER他
  6
Continuous
 62
     4
100
AcDbLine
 10
950.3831329443581
 20
411.3924854836454
 30
0.0
 11
946.2972495865464
 21
407.3063543914417
 31
0.0
  0
LINE
  5
26E
330
22
100
AcDbEntity
  8
_2-9_STRAINER他
  6
Continuous
 62
     4
100
AcDbLine
 10
955.682419363257
 20
406.0929513303516
 30
0.0
 11
951.5965360054455
 21
402.0073157069351
 31
0.0
  0
LINE
  5
26F
330
22
100
AcDbEntity
  8
_2-9_STRAINER他
  6
Continuous
 62
     4
100
AcDbLine
 10
949.5666003822183
 20
413.2296837484568
 30
0.0
 11
957.5196176280686
 21
405.2766665026069
 31
0.0
  0
LINE
  5
270
330
22
100
AcDbEntity
  8
_2-9_STRAINER他
  6
DASHED1
 62
     4
100
AcDbLine
 10
928.3459199392025
 20
389.7127532088211
 30
0.0
 11
928.3459199392025
 21
388.722806570986
 31
0.0
  0
LINE
  5
271
330
22
100
AcDbEntity
  8
_2-9_STRAINER他
  6
DASHED1
 62
     4
100
AcDbLine
 10
928.3459199392025
 20
389.7127532088211
 30
0.0
 11
934.0026870884328
 21
384.0559860595909
 31
0.0
  0
LINE
  5
272
330
22
100
AcDbEntity
  8
_2-9_STRAINER他
  6
DASHED1
 62
     4
100
AcDbLine
 10
933.0127404505999
 20
384.0559860595909
 30
0.0
 11
934.0026870884328
 21
384.0559860595909
 31
0.0
  0
LINE
  5
273
330
22
100
AcDbEntity
  8
_2-9_STRAINER他
  6
DASHED1
 62
     4
100
AcDbLine
 10
928.3459199392025
 20
388.722806570986
 30
0.0
 11
933.0127404505999
 21
384.0559860595909
 31
0.0
  0
LINE
  5
274
330
22
100
AcDbEntity
  8
_2-9_STRAINER他
  6
Continuous
 62
     4
100
AcDbLine
 10
963.382995261773
 20
420.1538600566346
 30
0.0
 11
964.4435462018559
 21
419.0930613821592
 31
0.0
  0
LINE
  5
275
330
22
100
AcDbEntity
  8
_2-9_STRAINER他
  6
Continuous
 62
     4
100
AcDbLine
 10
963.382995261773
 20
420.1538600566346
 30
0.0
 11
965.5043448763313
 21
422.2749619368005
 31
0.0
  0
LINE
  5
276
330
22
100
AcDbEntity
  8
_2-9_STRAINER他
  6
Continuous
 62
     4
100
AcDbLine
 10
964.4435462018559
 20
419.0930613821592
 30
0.0
 11
966.5648958164144
 21
421.2141632623252
 31
0.0
  0
LINE
  5
277
330
22
100
AcDbEntity
  8
_2-9_STRAINER他
  6
Continuous
 62
     4
100
AcDbLine
 10
962.7113873200377
 20
424.0779728552593
 30
0.0
 11
965.0093715574127
 21
421.7799886178841
 31
0.0
  0
LINE
  5
278
330
22
100
AcDbEntity
  8
_2-9_STRAINER他
  6
Continuous
 62
     4
100
AcDbLine
 10
966.0699224974955
 20
420.7191899434065
 30
0.0
 11
968.3681544692674
 21
418.4212057060312
 31
0.0
  0
LINE
  5
279
330
22
100
AcDbEntity
  8
_2-9_STRAINER他
  6
Continuous
 62
     4
100
AcDbLine
 10
963.7010862234779
 20
424.0779728552593
 30
0.0
 11
965.5043448763313
 21
422.2749619368005
 31
0.0
  0
LINE
  5
27A
330
22
100
AcDbEntity
  8
_2-9_STRAINER他
  6
Continuous
 62
     4
100
AcDbLine
 10
966.5648958164144
 20
421.2141632623252
 30
0.0
 11
968.3681544692674
 21
419.4111523438663
 31
0.0
  0
LINE
  5
27B
330
22
100
AcDbEntity
  8
_2-9_STRAINER他
  6
Continuous
 62
     4
100
AcDbLine
 10
948.4634391263949
 20
519.6737207550859
 30
0.0
 11
933.9635450542031
 21
519.6737207550859
 31
0.0
  0
LINE
  5
27C
330
22
100
AcDbEntity
  8
_2-9_STRAINER他
  6
Continuous
 62
     4
100
AcDbLine
 10
1063.963654634695
 20
404.1737529811757
 30
0.0
 11
1063.963654634695
 21
389.6736111745918
 31
0.0
  0
LINE
  5
27D
330
22
100
AcDbEntity
  8
_2-9_STRAINER他
  6
Continuous
 62
     4
100
AcDbLine
 10
1053.25013303815
 20
398.1471183819257
 30
0.0
 11
1060.823868927009
 21
404.5555116821037
 31
0.0
  0
LINE
  5
27E
330
22
100
AcDbEntity
  8
_2-9_STRAINER他
  6
Continuous
 62
     4
100
AcDbLine
 10
1033.730644677717
 20
397.6739456896666
 30
0.0
 11
1024.196586530302
 21
389.6736111745918
 31
0.0
  0
LINE
  5
27F
330
22
100
AcDbEntity
  8
_2-9_STRAINER他
  6
Continuous
 62
     4
100
AcDbLine
 10
959.5535170015962
 20
394.0505824451792
 30
0.0
 11
938.3402685903961
 21
415.2635831219869
 31
0.0
  0
LINE
  5
280
330
22
100
AcDbEntity
  8
_2-9_STRAINER他
  6
Continuous
 62
     4
100
AcDbLine
 10
937.9637123117396
 20
489.6735811283269
 30
0.0
 11
937.9637123117396
 21
419.6737508013483
 31
0.0
  0
LINE
  5
281
330
22
100
AcDbEntity
  8
_2-9_STRAINER他
  6
Continuous
 62
     4
100
AcDbLine
 10
943.6435187596003
 20
409.9600852183903
 30
0.0
 11
940.8151351849852
 21
405.717633723666
 31
0.0
  0
LINE
  5
282
330
22
100
AcDbEntity
  8
_2-9_STRAINER他
  6
Continuous
 62
     4
100
AcDbLine
 10
950.00756760328
 20
396.5254490397661
 30
0.0
 11
954.2502668323965
 21
399.3535848799865
 31
0.0
  0
LINE
  5
283
330
22
100
AcDbEntity
  8
_2-9_STRAINER他
  6
Continuous
 62
     4
100
AcDbLine
 10
948.9636148675849
 20
509.6736742128337
 30
0.0
 11
948.9636148675849
 21
519.1737927482904
 31
0.0
  0
LINE
  5
284
330
22
100
AcDbEntity
  8
_2-9_STRAINER他
  6
Continuous
 62
     4
100
AcDbLine
 10
1053.963855826837
 20
404.6739287223636
 30
0.0
 11
1063.46347889351
 21
404.6739287223636
 31
0.0
  0
LINE
  5
285
330
22
100
AcDbEntity
  8
_2-9_STRAINER他
  6
Continuous
 62
     4
100
AcDbLine
 10
963.9634369465698
 20
393.6735306977356
 30
0.0
 11
1063.963654634695
 21
393.6735306977356
 31
0.0
  0
LINE
  5
286
330
22
100
AcDbEntity
  8
_2-9_STRAINER他
  6
Continuous
 62
     4
100
AcDbLine
 10
1063.963654634695
 20
397.6739456896666
 30
0.0
 11
1033.730644677717
 21
397.6739456896666
 31
0.0
  0
LINE
  5
287
330
22
100
AcDbEntity
  8
_2-9_STRAINER他
  6
DASHED1
 62
     4
100
AcDbLine
 10
937.9637123117396
 20
501.8422945543647
 30
0.0
 11
937.9637123117396
 21
498.6737716569906
 31
0.0
  0
LINE
  5
288
330
22
100
AcDbEntity
  8
_2-9_STRAINER他
  6
DASHED1
 62
     4
100
AcDbLine
 10
937.9637123117396
 20
492.6736446378823
 30
0.0
 11
937.9637123117396
 21
489.6735811283269
 31
0.0
  0
LINE
  5
289
330
22
100
AcDbEntity
  8
_2-9_STRAINER他
  6
Continuous
 62
     4
100
AcDbLine
 10
947.7296498518041
 20
414.046216310594
 30
0.0
 11
943.6437664939928
 21
409.9600852183903
 31
0.0
  0
LINE
  5
28A
330
22
100
AcDbEntity
  8
_2-9_STRAINER他
  6
Continuous
 62
     4
100
AcDbLine
 10
955.1339354152702
 20
391.3988334933811
 30
0.0
 11
948.2397349687476
 21
398.2930339399036
 31
0.0
  0
LINE
  5
28B
330
22
100
AcDbEntity
  8
_2-9_STRAINER他
  6
Continuous
 62
     4
100
AcDbLine
 10
942.5829678195174
 20
403.9500488235285
 30
0.0
 11
935.6887673729946
 21
410.8440015356563
 31
0.0
  0
LINE
  5
28C
330
22
100
AcDbEntity
  8
_2-9_STRAINER他
  6
Continuous
 62
     4
100
AcDbLine
 10
941.9636318348835
 20
490.6739326107048
 30
0.0
 11
933.9635450542031
 21
481.1396267288956
 31
0.0
  0
LINE
  5
28D
330
22
100
AcDbEntity
  8
_2-9_STRAINER他
  6
Continuous
 62
     4
100
AcDbLine
 10
941.9636318348835
 20
508.400814897218
 30
0.0
 11
948.8451978273229
 21
516.5339350473982
 31
0.0
  0
LINE
  5
28E
330
22
100
AcDbEntity
  8
_2-9_STRAINER他
  6
DASHED1
 62
     4
100
AcDbLine
 10
939.1466440423895
 20
505.0717601126279
 30
0.0
 11
941.9636318348835
 21
508.400814897218
 31
0.0
  0
LINE
  5
28F
330
22
100
AcDbEntity
  8
_2-9_STRAINER他
  6
Continuous
 62
     4
100
AcDbLine
 10
941.9636318348835
 20
490.6739326107048
 30
0.0
 11
941.9636318348835
 21
492.6736446378823
 31
0.0
  0
LINE
  5
290
330
22
100
AcDbEntity
  8
_2-9_STRAINER他
  6
Continuous
 62
     4
100
AcDbLine
 10
941.9636318348835
 20
498.6737716569906
 30
0.0
 11
941.9636318348835
 21
519.6737207550859
 31
0.0
  0
LINE
  5
291
330
22
100
AcDbEntity
  8
_2-9_STRAINER他
  6
Continuous
 62
     4
100
AcDbLine
 10
993.8543257056339
 20
398.6738017032552
 30
0.0
 11
993.8543257056339
 21
395.1401183093435
 31
0.0
  0
LINE
  5
292
330
22
100
AcDbEntity
  8
_2-9_STRAINER他
  6
Continuous
 62
     4
100
AcDbLine
 10
1001.813040842544
 20
398.6738017032552
 30
0.0
 11
996.2630472170626
 21
394.016890567616
 31
0.0
  0
LINE
  5
293
330
22
100
AcDbEntity
  8
_2-9_STRAINER他
  6
Continuous
 62
     4
100
AcDbLine
 10
938.3402685903961
 20
415.2635831219869
 30
0.0
 11
934.2893157821213
 21
415.2635831219869
 31
0.0
  0
LINE
  5
294
330
22
100
AcDbEntity
  8
_2-9_STRAINER他
  6
Continuous
 62
     4
100
AcDbLine
 10
959.5532692672035
 20
394.0500869763923
 30
0.0
 11
959.5532692672035
 21
389.9996296369022
 31
0.0
  0
LINE
  5
295
330
22
100
AcDbEntity
  8
_2-9_STRAINER他
  6
Continuous
 62
     4
100
AcDbLine
 10
935.9637525501698
 20
497.8037284657808
 30
0.0
 11
933.9635450542031
 21
497.8037284657808
 31
0.0
  0
LINE
  5
296
330
22
100
AcDbEntity
  8
_2-9_STRAINER他
  6
Continuous
 62
     4
100
AcDbLine
 10
935.9637525501698
 20
498.6737716569906
 30
0.0
 11
933.9635450542031
 21
498.6737716569906
 31
0.0
  0
LINE
  5
297
330
22
100
AcDbEntity
  8
_2-9_STRAINER他
  6
Continuous
 62
     4
100
AcDbLine
 10
935.9637525501698
 20
493.5436878290921
 30
0.0
 11
933.9635450542031
 21
493.5436878290921
 31
0.0
  0
LINE
  5
298
330
22
100
AcDbEntity
  8
_2-9_STRAINER他
  6
Continuous
 62
     4
100
AcDbLine
 10
935.9637525501698
 20
492.6736446378823
 30
0.0
 11
933.9635450542031
 21
492.6736446378823
 31
0.0
  0
LINE
  5
299
330
22
100
AcDbEntity
  8
_2-9_STRAINER他
  6
CENTER1
 62
     4
100
AcDbLine
 10
929.2620417276706
 20
384.9721078480593
 30
0.0
 11
968.6691517577953
 21
424.3792178781836
 31
0.0
  0
LINE
  5
29A
330
22
100
AcDbEntity
  8
_2-9_STRAINER他
  6
DASHED1
 62
     4
100
AcDbLine
 10
928.3459199392025
 20
388.722806570986
 30
0.0
 11
935.5458246277393
 21
395.9224635251303
 31
0.0
  0
LINE
  5
29B
330
22
100
AcDbEntity
  8
_2-9_STRAINER他
  6
DASHED1
 62
     4
100
AcDbLine
 10
928.3459199392025
 20
389.7127532088211
 30
0.0
 11
935.1112985009248
 21
396.4783795049334
 31
0.0
  0
LINE
  5
29C
330
22
100
AcDbEntity
  8
_2-9_STRAINER他
  6
DASHED1
 62
     4
100
AcDbLine
 10
934.0026870884328
 20
384.0559860595909
 30
0.0
 11
940.7680656501549
 21
390.8216123557053
 31
0.0
  0
LINE
  5
29D
330
22
100
AcDbEntity
  8
_2-9_STRAINER他
  6
DASHED1
 62
     4
100
AcDbLine
 10
933.0127404505999
 20
384.0559860595909
 30
0.0
 11
940.2126451391364
 21
391.2556430137352
 31
0.0
  0
LINE
  5
29E
330
22
100
AcDbEntity
  8
_2-9_STRAINER他
  6
Continuous
 62
     4
100
AcDbLine
 10
935.1112985009248
 20
396.4783795049334
 30
0.0
 11
946.1183853541847
 21
407.4857140925905
 31
0.0
  0
LINE
  5
29F
330
22
100
AcDbEntity
  8
_2-9_STRAINER他
  6
Continuous
 62
     4
100
AcDbLine
 10
935.5458246277393
 20
395.9224635251303
 30
0.0
 11
946.6133586731036
 21
406.990740773674
 31
0.0
  0
LINE
  5
2A0
330
22
100
AcDbEntity
  8
_2-9_STRAINER他
  6
Continuous
 62
     4
100
AcDbLine
 10
940.2126451391364
 20
391.2556430137352
 30
0.0
 11
951.2804269188931
 21
402.323424793492
 31
0.0
  0
LINE
  5
2A1
330
22
100
AcDbEntity
  8
_2-9_STRAINER他
  6
Continuous
 62
     4
100
AcDbLine
 10
940.7683133845472
 20
390.8216123557053
 30
0.0
 11
951.7754002378076
 21
401.8284514745732
 31
0.0
  0
LINE
  5
2A2
330
22
100
AcDbEntity
  8
_2-9_STRAINER他
  6
Continuous
 62
     4
100
AcDbLine
 10
956.3716164469548
 20
406.4246676837205
 30
0.0
 11
968.3681544692674
 21
418.4212057060312
 31
0.0
  0
LINE
  5
2A3
330
22
100
AcDbEntity
  8
_2-9_STRAINER他
  6
Continuous
 62
     4
100
AcDbLine
 10
955.8766431280407
 20
406.9193932682448
 30
0.0
 11
968.3681544692674
 21
419.4111523438663
 31
0.0
  0
LINE
  5
2A4
330
22
100
AcDbEntity
  8
_2-9_STRAINER他
  6
Continuous
 62
     4
100
AcDbLine
 10
951.2095748822508
 20
411.5867092484267
 30
0.0
 11
963.7010862234779
 21
424.0779728552593
 31
0.0
  0
LINE
  5
2A5
330
22
100
AcDbEntity
  8
_2-9_STRAINER他
  6
Continuous
 62
     4
100
AcDbLine
 10
950.714601563332
 20
412.0816825673432
 30
0.0
 11
962.7113873200377
 21
424.0779728552593
 31
0.0
  0
ARC
  5
2A6
330
22
100
AcDbEntity
  8
_2-9_STRAINER他
  6
Continuous
 62
     4
100
AcDbCircle
 10
947.5867071065481
 20
411.2497904727865
 30
0.0
 40
2.800173304370932
100
AcDbArc
 50
2.925567626953125
 51
87.07463073730467
  0
ARC
  5
2A7
330
22
100
AcDbEntity
  8
_2-9_STRAINER他
  6
Continuous
 62
     4
100
AcDbCircle
 10
946.4087300637816
 20
402.1187961841701
 30
0.0
 40
10.08940995084733
100
AcDbArc
 50
23.19786071777344
 51
66.80213928222658
  0
ARC
  5
2A8
330
22
100
AcDbEntity
  8
_2-9_STRAINER他
  6
Continuous
 62
     4
100
AcDbCircle
 10
955.5394766180056
 20
403.2965254925443
 30
0.0
 40
2.800189513554904
100
AcDbArc
 50
2.92572021484375
 51
87.0742645263672
  0
ARC
  5
2A9
330
22
100
AcDbEntity
  8
_2-9_STRAINER他
  6
DASHED1
 62
     4
100
AcDbCircle
 10
942.9634878484744
 20
501.8422945543647
 30
0.0
 40
5.00000052988299
100
AcDbArc
 50
139.7629089355469
 51
180.0
  0
ARC
  5
2AA
330
22
100
AcDbEntity
  8
_2-9_STRAINER他
  6
Continuous
 62
     4
100
AcDbCircle
 10
1063.46347889351
 20
404.1737529811757
 30
0.0
 40
0.5000000106508783
100
AcDbArc
 50
0.0
 51
90.0
  0
ARC
  5
2AB
330
22
100
AcDbEntity
  8
_2-9_STRAINER他
  6
Continuous
 62
     4
100
AcDbCircle
 10
1061.146666842201
 20
404.1737529811757
 30
0.0
 40
0.5000000106508783
100
AcDbArc
 50
90.0
 51
130.2366943359375
  0
ARC
  5
2AC
330
22
100
AcDbEntity
  8
_2-9_STRAINER他
  6
Continuous
 62
     4
100
AcDbCircle
 10
948.4634391263949
 20
519.1737927482904
 30
0.0
 40
0.5000000106508783
100
AcDbArc
 50
0.0
 51
90.0
  0
ARC
  5
2AD
330
22
100
AcDbEntity
  8
_2-9_STRAINER他
  6
Continuous
 62
     4
100
AcDbCircle
 10
948.4634391263949
 20
516.8569806969822
 30
0.0
 40
0.5000000106508783
100
AcDbArc
 50
319.7669830322265
 51
0.0
  0
ARC
  5
2AE
330
22
100
AcDbEntity
  8
_2-9_STRAINER他
  6
Continuous
 62
     4
100
AcDbCircle
 10
1051.958445908604
 20
399.673657716844
 30
0.0
 40
2.000000042603512
100
AcDbArc
 50
270.0
 51
310.236572265625
  0
ARC
  5
2AF
330
22
100
AcDbEntity
  8
_2-9_STRAINER他
  6
Continuous
 62
     4
100
AcDbCircle
 10
963.9634369465698
 20
419.6737508013483
 30
0.0
 40
25.99999946516913
100
AcDbArc
 50
260.2346649169921
 51
270.0
  0
ARC
  5
2B0
330
22
100
AcDbEntity
  8
_2-9_STRAINER他
  6
DASHED1
 62
     4
100
AcDbCircle
 10
963.9634369465698
 20
419.6737508013483
 30
0.0
 40
25.99999946516913
100
AcDbArc
 50
189.7658386230468
 51
260.2346649169921
  0
ARC
  5
2B1
330
22
100
AcDbEntity
  8
_2-9_STRAINER他
  6
Continuous
 62
     4
100
AcDbCircle
 10
963.9634369465698
 20
419.6737508013483
 30
0.0
 40
25.99999946516913
100
AcDbArc
 50
180.0
 51
189.765853881836
  0
ARC
  5
2B2
330
22
100
AcDbEntity
  8
_2-9_STRAINER他
  6
Continuous
 62
     4
100
AcDbCircle
 10
937.8101169875533
 20
412.9651034158223
 30
0.0
 40
3.000000124387299
100
AcDbArc
 50
194.3868255615234
 51
225.0003356933593
  0
ARC
  5
2B3
330
22
100
AcDbEntity
  8
_2-9_STRAINER他
  6
Continuous
 62
     4
100
AcDbCircle
 10
957.255037295436
 20
393.520430842334
 30
0.0
 40
3.000000124387299
100
AcDbArc
 50
224.9991912841797
 51
255.6127014160156
  0
ARC
  5
2B4
330
22
100
AcDbEntity
  8
_2-9_STRAINER他
  6
Continuous
 62
     4
100
AcDbCircle
 10
995.3206655828495
 20
395.1401183093435
 30
0.0
 40
1.466317982718521
100
AcDbArc
 50
180.0
 51
309.9999694824219
  0
ARC
  5
2B5
330
22
100
AcDbEntity
  8
_2-9_STRAINER他
  6
Continuous
 62
     4
100
AcDbCircle
 10
963.9634369465698
 20
419.6737508013483
 30
0.0
 40
30.00000027616052
100
AcDbArc
 50
180.0
 51
217.3374633789062
  0
ARC
  5
2B6
330
22
100
AcDbEntity
  8
_2-9_STRAINER他
  6
Continuous
 62
     4
100
AcDbCircle
 10
963.9634369465698
 20
419.6737508013483
 30
0.0
 40
30.00000027616052
100
AcDbArc
 50
232.6623687744141
 51
270.0
  0
LINE
  5
2B7
330
22
100
AcDbEntity
  8
_2-7_ビス
  6
DASHED1
 62
     7
100
AcDbLine
 10
1002.427917608084
 20
377.7350430004435
 30
0.0
 11
1003.344534865337
 21
372.9228023998576
 31
0.0
  0
LINE
  5
2B8
330
22
100
AcDbEntity
  8
_2-7_ビス
  6
DASHED1
 62
     7
100
AcDbLine
 10
958.9634136754424
 20
380.1737403735274
 30
0.0
 11
999.4808692588144
 21
380.1737403735274
 31
0.0
  0
LINE
  5
2B9
330
22
100
AcDbEntity
  8
_2-7_ビス
  6
Continuous
 62
     7
100
AcDbLine
 10
1013.781337143956
 20
369.6735180900873
 30
0.0
 11
1004.377091818915
 21
369.6735180900873
 31
0.0
  0
LINE
  5
2BA
330
22
100
AcDbEntity
  8
_2-7_ビス
  6
Continuous
 62
     7
100
AcDbLine
 10
1014.102896387176
 20
369.7904487239862
 30
0.0
 11
1025.082980191506
 21
379.0041863001512
 31
0.0
  0
LINE
  5
2BB
330
22
100
AcDbEntity
  8
_2-7_ビス
  6
Continuous
 62
     7
100
AcDbLine
 10
1026.693253751551
 20
380.1737403735274
 30
0.0
 11
1058.790465022267
 21
380.1737403735274
 31
0.0
  0
LINE
  5
2BC
330
22
100
AcDbEntity
  8
_2-7_ビス
  6
Continuous
 62
     7
100
AcDbLine
 10
933.9362942708801
 20
398.1317588495063
 30
0.0
 11
931.6217118291167
 21
398.1317588495063
 31
0.0
  0
LINE
  5
2BD
330
22
100
AcDbEntity
  8
_2-7_ビス
  6
Continuous
 62
     7
100
AcDbLine
 10
942.4216927291176
 20
389.6463603912684
 30
0.0
 11
942.4216927291176
 21
383.4663782022221
 31
0.0
  0
LINE
  5
2BE
330
22
100
AcDbEntity
  8
_2-7_ビス
  6
Continuous
 62
     7
100
AcDbLine
 10
1068.963677905822
 20
382.6736281418948
 30
0.0
 11
1068.963677905822
 21
374.6737890956068
 31
0.0
  0
LINE
  5
2BF
330
22
100
AcDbEntity
  8
_2-7_ビス
  6
Continuous
 62
     7
100
AcDbLine
 10
926.9635620215066
 20
524.6734962918162
 30
0.0
 11
918.9634752408258
 21
524.6734962918162
 31
0.0
  0
LINE
  5
2C0
330
22
100
AcDbEntity
  8
_2-7_ビス
  6
Continuous
 62
     7
100
AcDbLine
 10
923.12021063528
 20
515.2159880721024
 30
0.0
 11
918.9634752408258
 21
519.6737207550859
 31
0.0
  0
LINE
  5
2C1
330
22
100
AcDbEntity
  8
_2-7_ビス
  6
Continuous
 62
     7
100
AcDbLine
 10
1021.963260969724
 20
352.6734885151382
 30
0.0
 11
1021.963260969724
 21
346.6738569648169
 31
0.0
  0
LINE
  5
2C2
330
22
100
AcDbEntity
  8
_2-7_ビス
  6
Continuous
 62
     7
100
AcDbLine
 10
1013.963174189039
 20
352.6734885151382
 30
0.0
 11
1021.963260969724
 21
352.6734885151382
 31
0.0
  0
LINE
  5
2C3
330
22
100
AcDbEntity
  8
_2-7_ビス
  6
Continuous
 62
     7
100
AcDbLine
 10
1005.963335142756
 20
354.6736960111025
 30
0.0
 11
1005.963335142756
 21
367.67380606291
 31
0.0
  0
LINE
  5
2C4
330
22
100
AcDbEntity
  8
_2-7_ビス
  6
Continuous
 62
     7
100
AcDbLine
 10
1013.963174189039
 20
346.6738569648169
 30
0.0
 11
1021.963260969724
 21
346.6738569648169
 31
0.0
  0
LINE
  5
2C5
330
22
100
AcDbEntity
  8
_2-7_ビス
  6
Continuous
 62
     7
100
AcDbLine
 10
1011.963462161862
 20
354.6736960111025
 30
0.0
 11
1011.963462161862
 21
367.67380606291
 31
0.0
  0
LINE
  5
2C6
330
22
100
AcDbEntity
  8
_2-7_ビス
  6
Continuous
 62
     7
100
AcDbLine
 10
1005.788434660694
 20
367.67380606291
 30
0.0
 11
1012.138362643923
 21
367.67380606291
 31
0.0
  0
LINE
  5
2C7
330
22
100
AcDbEntity
  8
_2-7_ビス
  6
Continuous
 62
     7
100
AcDbLine
 10
1011.323316488147
 20
367.67380606291
 30
0.0
 11
1011.323316488147
 21
369.6735180900873
 31
0.0
  0
LINE
  5
2C8
330
22
100
AcDbEntity
  8
_2-7_ビス
  6
Continuous
 62
     7
100
AcDbLine
 10
1006.603480816471
 20
367.67380606291
 30
0.0
 11
1006.603480816471
 21
369.6735180900873
 31
0.0
  0
LINE
  5
2C9
330
22
100
AcDbEntity
  8
_2-7_ビス
  6
Continuous
 62
     7
100
AcDbLine
 10
1005.788434660694
 20
367.67380606291
 30
0.0
 11
1005.788434660694
 21
369.6735180900873
 31
0.0
  0
LINE
  5
2CA
330
22
100
AcDbEntity
  8
_2-7_ビス
  6
Continuous
 62
     7
100
AcDbLine
 10
1012.138362643923
 20
367.67380606291
 30
0.0
 11
1012.138362643923
 21
369.6735180900873
 31
0.0
  0
LINE
  5
2CB
330
22
100
AcDbEntity
  8
_2-7_ビス
  6
Continuous
 62
     7
100
AcDbLine
 10
928.9635217830761
 20
522.6737842646389
 30
0.0
 11
928.9635217830761
 21
407.6734967631319
 31
0.0
  0
LINE
  5
2CC
330
22
100
AcDbEntity
  8
_2-7_ビス
  6
Continuous
 62
     7
100
AcDbLine
 10
924.4634265187464
 20
497.3122234283777
 30
0.0
 11
924.4634265187464
 21
511.8061718751163
 31
0.0
  0
LINE
  5
2CD
330
22
100
AcDbEntity
  8
_2-7_ビス
  6
DASHED1
 62
     7
100
AcDbLine
 10
924.4634265187464
 20
407.6737444975242
 30
0.0
 11
924.4634265187464
 21
497.3122234283777
 31
0.0
  0
LINE
  5
2CE
330
22
100
AcDbEntity
  8
_2-7_ビス
  6
Continuous
 62
     7
100
AcDbLine
 10
1014.529247278993
 20
377.6738526051623
 30
0.0
 11
958.9634136754424
 21
377.6738526051623
 31
0.0
  0
LINE
  5
2CF
330
22
100
AcDbEntity
  8
_2-7_ビス
  6
Continuous
 62
     7
100
AcDbLine
 10
920.8197490539628
 20
371.2932055570945
 30
0.0
 11
917.8528819531861
 21
371.2327583649949
 31
0.0
  0
LINE
  5
2D0
330
22
100
AcDbEntity
  8
_2-7_ビス
  6
Continuous
 62
     7
100
AcDbLine
 10
924.605378326424
 20
374.26948656484
 30
0.0
 11
925.2274393893872
 21
376.6209814312879
 31
0.0
  0
LINE
  5
2D1
330
22
100
AcDbEntity
  8
_2-7_ビス
  6
Continuous
 62
     7
100
AcDbLine
 10
924.5872937156724
 20
482.1429510239977
 30
0.0
 11
928.9635217830761
 21
482.232135405784
 31
0.0
  0
LINE
  5
2D2
330
22
100
AcDbEntity
  8
_2-7_ビス
  6
Continuous
 62
     7
100
AcDbLine
 10
918.4558674678244
 20
487.2690711015956
 30
0.0
 11
915.4909822421954
 21
487.2086239094961
 31
0.0
  0
LINE
  5
2D3
330
22
100
AcDbEntity
  8
_2-7_ビス
  6
Continuous
 62
     7
100
AcDbLine
 10
922.3604092493319
 20
484.446880886826
 30
0.0
 11
922.6351466921148
 21
483.5540461313826
 31
0.0
  0
LINE
  5
2D4
330
22
100
AcDbEntity
  8
_2-7_ビス
  6
Continuous
 62
     7
100
AcDbLine
 10
923.8064349062511
 20
372.725605822352
 30
0.0
 11
921.5005231682704
 21
485.9570697517528
 31
0.0
  0
LINE
  5
2D5
330
22
100
AcDbEntity
  8
_2-7_ビス
  6
Continuous
 62
     7
100
AcDbLine
 10
925.2274393893872
 20
376.6209814312879
 30
0.0
 11
923.065213599844
 21
482.7989516989192
 31
0.0
  0
LINE
  5
2D6
330
22
100
AcDbEntity
  8
_2-7_ビス
  6
Continuous
 62
     7
100
AcDbLine
 10
941.0685674698976
 20
371.0107883481032
 30
0.0
 11
930.8520010674154
 21
366.324149085201
 31
0.0
  0
LINE
  5
2D7
330
22
100
AcDbEntity
  8
_2-7_ビス
  6
Continuous
 62
     7
100
AcDbLine
 10
1018.103063644713
 20
373.8820299728559
 30
0.0
 11
1024.764889229801
 21
379.4719088357441
 31
0.0
  0
LINE
  5
2D8
330
22
100
AcDbEntity
  8
_2-7_ビス
  6
DASHED1
 62
     7
100
AcDbLine
 10
958.9634136754424
 20
373.1737573408304
 30
0.0
 11
1015.652227286328
 21
373.1737573408304
 31
0.0
  0
LINE
  5
2D9
330
22
100
AcDbEntity
  8
_2-7_ビス
  6
Continuous
 62
     7
100
AcDbLine
 10
1014.549066030504
 20
377.6612181510746
 30
0.0
 11
925.2274393893872
 21
376.6209814312879
 31
0.0
  0
LINE
  5
2DA
330
22
100
AcDbEntity
  8
_2-7_ビス
  6
Continuous
 62
     7
100
AcDbLine
 10
1016.442500002718
 20
378.36304968886
 30
0.0
 11
1023.12711715204
 21
383.9717563656813
 31
0.0
  0
LINE
  5
2DB
330
22
100
AcDbEntity
  8
_2-7_ビス
  6
Continuous
 62
     7
100
AcDbLine
 10
895.9620799747979
 20
490.8116729336871
 30
0.0
 11
895.9212037998128
 21
492.8113849608644
 31
0.0
  0
LINE
  5
2DC
330
22
100
AcDbEntity
  8
_2-7_ビス
  6
Continuous
 62
     7
100
AcDbLine
 10
920.5450116111801
 20
493.3127993740232
 30
0.0
 11
895.9212037998128
 21
492.8113849608644
 31
0.0
  0
LINE
  5
2DD
330
22
100
AcDbEntity
  8
_2-7_ビス
  6
Continuous
 62
     7
100
AcDbLine
 10
891.4882445562131
 20
366.6950074727992
 30
0.0
 11
898.4867411825469
 21
366.8374547492636
 31
0.0
  0
LINE
  5
2DE
330
22
100
AcDbEntity
  8
_2-7_ビス
  6
Continuous
 62
     7
100
AcDbLine
 10
898.5276173575362
 20
364.8377427220862
 30
0.0
 11
898.4867411825469
 21
366.8374547492636
 31
0.0
  0
LINE
  5
2DF
330
22
100
AcDbEntity
  8
_2-7_ビス
  6
Continuous
 62
     7
100
AcDbLine
 10
926.8860211562291
 20
365.4154593285489
 30
0.0
 11
898.5276173575362
 21
364.8377427220862
 31
0.0
  0
LINE
  5
2E0
330
22
100
AcDbEntity
  8
_2-7_ビス
  6
Continuous
 62
     7
100
AcDbLine
 10
1016.209629672494
 20
373.1801984350705
 30
0.0
 11
947.1482172294333
 21
372.3758048582317
 31
0.0
  0
LINE
  5
2E1
330
22
100
AcDbEntity
  8
_2-7_ビス
  6
Continuous
 62
     7
100
AcDbLine
 10
1003.886082250301
 20
370.0802979647938
 30
0.0
 11
1003.324220645045
 21
373.0303191267898
 31
0.0
  0
LINE
  5
2E2
330
22
100
AcDbEntity
  8
_2-7_ビス
  6
Continuous
 62
     7
100
AcDbLine
 10
888.9635833484639
 20
490.6694733916152
 30
0.0
 11
895.9620799747979
 21
490.8116729336871
 31
0.0
  0
LINE
  5
2E3
330
22
100
AcDbEntity
  8
_2-7_ビス
  6
Continuous
 62
     7
100
AcDbLine
 10
888.9635833484639
 20
490.6694733916152
 30
0.0
 11
889.0753115600915
 21
485.1851293805065
 31
0.0
  0
LINE
  5
2E4
330
22
100
AcDbEntity
  8
_2-7_ビス
  6
Continuous
 62
     7
100
AcDbLine
 10
891.3765163445855
 20
372.1786082807239
 30
0.0
 11
891.4882445562131
 21
366.6950074727992
 31
0.0
  0
LINE
  5
2E5
330
22
100
AcDbEntity
  8
_2-7_ビス
  6
Continuous
 62
     7
100
AcDbLine
 10
1066.963470409856
 20
384.6738356378592
 30
0.0
 11
1025.05548167379
 21
384.6738356378592
 31
0.0
  0
LINE
  5
2E6
330
22
100
AcDbEntity
  8
_2-7_ビス
  6
Continuous
 62
     7
100
AcDbLine
 10
1016.185103967505
 20
384.6738356378592
 30
0.0
 11
958.9634136754424
 21
384.6738356378592
 31
0.0
  0
LINE
  5
2E7
330
22
100
AcDbEntity
  8
_2-7_ビス
  6
Continuous
 62
     7
100
AcDbLine
 10
918.9634752408258
 20
524.6734962918162
 30
0.0
 11
918.9634752408258
 21
519.6737207550859
 31
0.0
  0
ARC
  5
2E8
330
22
100
AcDbEntity
  8
_2-7_ビス
  6
Continuous
 62
     7
100
AcDbCircle
 10
1025.05548167379
 20
381.6737721283062
 30
0.0
 40
3.000000124387299
100
AcDbArc
 50
90.0
 51
129.9998779296875
  0
ARC
  5
2E9
330
22
100
AcDbEntity
  8
_2-7_ビス
  6
Continuous
 62
     7
100
AcDbCircle
 10
1026.693253751551
 20
377.1739245983668
 30
0.0
 40
3.000000124387299
100
AcDbArc
 50
90.0
 51
130.0000305175781
  0
ARC
  5
2EA
330
22
100
AcDbEntity
  8
_2-7_ビス
  6
DASHED1
 62
     7
100
AcDbCircle
 10
958.9634136754424
 20
407.6737444975242
 30
0.0
 40
34.50000264009454
100
AcDbArc
 50
180.0
 51
269.9999542236328
  0
ARC
  5
2EB
330
22
100
AcDbEntity
  8
_2-7_ビス
  6
Continuous
 62
     7
100
AcDbCircle
 10
1058.790465022267
 20
375.1737171024024
 30
0.0
 40
5.000000046026752
100
AcDbArc
 50
10.30488586425781
 51
90.0
  0
ARC
  5
2EC
330
22
100
AcDbEntity
  8
_2-7_ビス
  6
Continuous
 62
     7
100
AcDbCircle
 10
1028.296838482956
 20
375.1737171024024
 30
0.0
 40
5.000000046026752
100
AcDbArc
 50
90.0
 51
129.9996490478515
  0
ARC
  5
2ED
330
22
100
AcDbEntity
  8
_2-7_ビス
  6
DASHED1
 62
     7
100
AcDbCircle
 10
999.4808692588144
 20
377.1739245983668
 30
0.0
 40
3.000000124387299
100
AcDbArc
 50
10.78443908691406
 51
90.0
  0
ARC
  5
2EE
330
22
100
AcDbEntity
  8
_2-7_ビス
  6
DASHED1
 62
     7
100
AcDbCircle
 10
958.9634136754424
 20
414.6737275302234
 30
0.0
 40
34.50000264009454
100
AcDbArc
 50
180.0
 51
269.9999542236328
  0
ARC
  5
2EF
330
22
100
AcDbEntity
  8
_2-7_ビス
  6
Continuous
 62
     7
100
AcDbCircle
 10
1004.377091818915
 20
370.1736938312752
 30
0.0
 40
0.5000000106508783
100
AcDbArc
 50
190.7846221923828
 51
270.0
  0
ARC
  5
2F0
330
22
100
AcDbEntity
  8
_2-7_ビス
  6
Continuous
 62
     7
100
AcDbCircle
 10
1013.781337143956
 20
370.1736938312752
 30
0.0
 40
0.5000000106508783
100
AcDbArc
 50
270.0
 51
309.9992980957031
  0
ARC
  5
2F1
330
22
100
AcDbEntity
  8
_2-7_ビス
  6
Continuous
 62
     7
100
AcDbCircle
 10
931.6217118291167
 20
399.6315428698904
 30
0.0
 40
1.500000062193649
100
AcDbArc
 50
196.3902587890625
 51
270.0
  0
ARC
  5
2F2
330
22
100
AcDbEntity
  8
_2-7_ビス
  6
Continuous
 62
     7
100
AcDbCircle
 10
943.921476749502
 20
383.4663782022221
 30
0.0
 40
1.500000062193649
100
AcDbArc
 50
180.0
 51
238.1441192626953
  0
ARC
  5
2F3
330
22
100
AcDbEntity
  8
_2-7_ビス
  6
Continuous
 62
     7
100
AcDbCircle
 10
1066.963470409856
 20
382.6736281418948
 30
0.0
 40
2.000000042603512
100
AcDbArc
 50
0.0
 51
90.0
  0
ARC
  5
2F4
330
22
100
AcDbEntity
  8
_2-7_ビス
  6
Continuous
 62
     7
100
AcDbCircle
 10
926.9635620215066
 20
522.6737842646389
 30
0.0
 40
2.000000042603512
100
AcDbArc
 50
0.0
 51
90.0
  0
ARC
  5
2F5
330
22
100
AcDbEntity
  8
_2-7_ビス
  6
Continuous
 62
     7
100
AcDbCircle
 10
919.4634032476193
 20
511.8061718751163
 30
0.0
 40
5.000000046026752
100
AcDbArc
 50
0.0
 51
43.00006103515624
  0
ARC
  5
2F6
330
22
100
AcDbEntity
  8
_2-7_ビス
  6
Continuous
 62
     7
100
AcDbCircle
 10
1013.963174189039
 20
354.6736960111025
 30
0.0
 40
1.999999800675393
100
AcDbArc
 50
180.0
 51
270.0
  0
ARC
  5
2F7
330
22
100
AcDbEntity
  8
_2-7_ビス
  6
Continuous
 62
     7
100
AcDbCircle
 10
1013.963174189039
 20
354.6736960111025
 30
0.0
 40
7.999999202701574
100
AcDbArc
 50
180.0
 51
270.0
  0
ARC
  5
2F8
330
22
100
AcDbEntity
  8
_2-7_ビス
  6
Continuous
 62
     7
100
AcDbCircle
 10
958.9634136754424
 20
414.6737275302234
 30
0.0
 40
30.00000027616052
100
AcDbArc
 50
180.0
 51
270.0
  0
ARC
  5
2F9
330
22
100
AcDbEntity
  8
_2-7_ビス
  6
Continuous
 62
     7
100
AcDbCircle
 10
958.9634136754424
 20
407.6734967631319
 30
0.0
 40
30.00000027616052
100
AcDbArc
 50
180.0
 51
270.0
  0
ARC
  5
2FA
330
22
100
AcDbEntity
  8
_2-7_ビス
  6
Continuous
 62
     7
100
AcDbCircle
 10
920.4635069956024
 20
497.3122234283777
 30
0.0
 40
4.000000085207025
100
AcDbArc
 50
271.1664886474609
 51
0.0
  0
ARC
  5
2FB
330
22
100
AcDbEntity
  8
_2-7_ビス
  6
Continuous
 62
     7
100
AcDbCircle
 10
1014.529247278993
 20
380.6736683803229
 30
0.0
 40
3.000000124387299
100
AcDbArc
 50
270.0
 51
310.0000305175781
  0
ARC
  5
2FC
330
22
100
AcDbEntity
  8
_2-7_ビス
  6
Continuous
 62
     7
100
AcDbCircle
 10
920.7384921727776
 20
375.2921341426645
 30
0.0
 40
4.000000085207025
100
AcDbArc
 50
271.1668395996094
 51
345.1835632324219
  0
ARC
  5
2FD
330
22
100
AcDbEntity
  8
_2-7_ビス
  6
Continuous
 62
     7
100
AcDbCircle
 10
924.5466652750797
 20
484.1424153167827
 30
0.0
 40
2.000000042603512
100
AcDbArc
 50
197.1124877929687
 51
271.1668395996094
  0
ARC
  5
2FE
330
22
100
AcDbEntity
  8
_2-7_ビス
  6
Continuous
 62
     7
100
AcDbCircle
 10
918.537372083397
 20
483.2698947816334
 30
0.0
 40
4.000000085207025
100
AcDbArc
 50
17.11238098144531
 51
91.16683959960935
  0
ARC
  5
2FF
330
22
100
AcDbEntity
  8
_2-7_ビス
  6
Continuous
 62
     7
100
AcDbCircle
 10
926.682383484486
 20
375.4135239956509
 30
0.0
 40
10.0000000920535
100
AcDbArc
 50
271.1665496826172
 51
294.6426391601562
  0
ARC
  5
300
330
22
100
AcDbEntity
  8
_2-7_ビス
  6
Continuous
 62
     7
100
AcDbCircle
 10
947.3228699770976
 20
357.3769737168209
 30
0.0
 40
15.00000013808026
100
AcDbArc
 50
90.667236328125
 51
114.6427001953125
  0
ARC
  5
301
330
22
100
AcDbEntity
  8
_2-7_ビス
  6
Continuous
 62
     7
100
AcDbCircle
 10
1016.174699122962
 20
376.1800142102311
 30
0.0
 40
3.000000124387299
100
AcDbArc
 50
270.6671447753906
 51
309.9998779296875
  0
ARC
  5
302
330
22
100
AcDbEntity
  8
_2-7_ビス
  6
Continuous
 62
     7
100
AcDbCircle
 10
1014.514135480968
 20
380.6610339262352
 30
0.0
 40
3.000000124387299
100
AcDbArc
 50
270.6671447753906
 51
310.0000305175781
  0
ARC
  5
303
330
22
100
AcDbEntity
  8
_2-7_ビス
  6
Continuous
 62
     7
100
AcDbCircle
 10
917.7713773376087
 20
375.2316869505626
 30
0.0
 40
4.000000085207025
100
AcDbArc
 50
207.9109191894532
 51
271.1668395996094
  0
ARC
  5
304
330
22
100
AcDbEntity
  8
_2-7_ビス
  6
Continuous
 62
     7
100
AcDbCircle
 10
915.5724868577731
 20
483.2096953239261
 30
0.0
 40
4.000000085207025
100
AcDbArc
 50
91.16648864746094
 51
154.4165496826172
  0
LINE
  5
305
330
22
100
AcDbEntity
  8
_2-1_
  6
Continuous
 62
     4
100
AcDbLine
 10
898.5276173575362
 20
364.8377427220862
 30
0.0
 11
898.5885600184206
 21
361.8386701501072
 31
0.0
  0
LINE
  5
306
330
22
100
AcDbEntity
  8
_2-1_
  6
Continuous
 62
     4
100
AcDbLine
 10
895.9212037998128
 20
492.8113849608644
 30
0.0
 11
895.860261138924
 21
495.8109530016304
 31
0.0
  0
LINE
  5
307
330
22
100
AcDbEntity
  8
_2-1_
  6
Continuous
 62
     4
100
AcDbLine
 10
881.4366692600383
 20
373.1665730434088
 30
0.0
 11
879.6492656083961
 21
371.3046013392137
 31
0.0
  0
LINE
  5
308
330
22
100
AcDbEntity
  8
_2-1_
  6
Continuous
 62
     4
100
AcDbLine
 10
879.183029479164
 20
483.7938530246311
 30
0.0
 11
877.3215532437559
 21
485.5810089418832
 31
0.0
  0
LINE
  5
309
330
22
100
AcDbEntity
  8
_2-1_
  6
Continuous
 62
     4
100
AcDbLine
 10
881.4671405904851
 20
371.6667890230248
 30
0.0
 11
881.4366692600383
 21
373.1665730434088
 31
0.0
  0
LINE
  5
30A
330
22
100
AcDbEntity
  8
_2-1_
  6
Continuous
 62
     4
100
AcDbLine
 10
879.1528058831143
 20
485.293141576226
 30
0.0
 11
879.183029479164
 21
483.7938530246311
 31
0.0
  0
LINE
  5
30B
330
22
100
AcDbEntity
  8
_2-1_
  6
Continuous
 62
     4
100
AcDbLine
 10
879.1528058831143
 20
485.293141576226
 30
0.0
 11
877.3208100405742
 21
485.5810089418832
 31
0.0
  0
LINE
  5
30C
330
22
100
AcDbEntity
  8
_2-1_
  6
Continuous
 62
     4
100
AcDbLine
 10
881.4671405904851
 20
371.6667890230248
 30
0.0
 11
879.6497610771806
 21
371.3046013392137
 31
0.0
  0
LINE
  5
30D
330
22
100
AcDbEntity
  8
_2-1_
  6
Continuous
 62
     4
100
AcDbLine
 10
881.4366692600383
 20
373.1665730434088
 30
0.0
 11
914.9737128278326
 21
374.8987319252251
 31
0.0
  0
LINE
  5
30E
330
22
100
AcDbEntity
  8
_2-1_
  6
Continuous
 62
     4
100
AcDbLine
 10
881.4671405904851
 20
371.6667890230248
 30
0.0
 11
915.0041841582748
 21
373.3989479048432
 31
0.0
  0
LINE
  5
30F
330
22
100
AcDbEntity
  8
_2-1_
  6
Continuous
 62
     4
100
AcDbLine
 10
879.1528058831143
 20
485.293141576226
 30
0.0
 11
912.7322120322521
 21
484.9284765484752
 31
0.0
  0
LINE
  5
310
330
22
100
AcDbEntity
  8
_2-1_
  6
Continuous
 62
     4
100
AcDbLine
 10
879.183029479164
 20
483.7938530246311
 30
0.0
 11
912.7629310970913
 21
483.4286925280935
 31
0.0
  0
LINE
  5
311
330
22
100
AcDbEntity
  8
_2-1_
  6
Continuous
 62
     4
100
AcDbLine
 10
915.0041841582748
 20
373.3989479048432
 30
0.0
 11
912.7322120322521
 21
484.9284765484752
 31
0.0
  0
LINE
  5
312
330
22
100
AcDbEntity
  8
_2-1_
  6
Continuous
 62
     4
100
AcDbLine
 10
789.6084660219234
 20
364.1203039174889
 30
0.0
 11
898.4968982926973
 21
366.337526742468
 31
0.0
  0
LINE
  5
313
330
22
100
AcDbEntity
  8
_2-1_
  6
Continuous
 62
     4
100
AcDbLine
 10
789.7001277476515
 20
359.6209518563387
 30
0.0
 11
898.5885600184206
 21
361.8386701501072
 31
0.0
  0
LINE
  5
314
330
22
100
AcDbEntity
  8
_2-1_
  6
Continuous
 62
     4
100
AcDbLine
 10
787.0632428594859
 20
489.0941303811063
 30
0.0
 11
895.9519228646474
 21
491.3116009404802
 31
0.0
  0
LINE
  5
315
330
22
100
AcDbEntity
  8
_2-1_
  6
Continuous
 62
     4
100
AcDbLine
 10
786.9715811337579
 20
493.5932347078641
 30
0.0
 11
895.860261138924
 21
495.8109530016304
 31
0.0
  0
LINE
  5
316
330
22
100
AcDbEntity
  8
_2-1_
  6
Continuous
 62
     4
100
AcDbLine
 10
789.4999583574196
 20
369.4683940119785
 30
0.0
 11
789.7001277476515
 21
359.6209518563387
 31
0.0
  0
LINE
  5
317
330
22
100
AcDbEntity
  8
_2-1_
  6
Continuous
 62
     4
100
AcDbLine
 10
787.1764574774767
 20
483.7448016146482
 30
0.0
 11
786.9715811337579
 21
493.5932347078641
 31
0.0
  0
LINE
  5
318
330
22
100
AcDbEntity
  8
_2-7_ビス
  6
Continuous
 62
     7
100
AcDbLine
 10
1063.70997461539
 20
376.0680382642089
 30
0.0
 11
1063.963406900302
 21
374.6737890956068
 31
0.0
  0
LINE
  5
319
330
22
100
AcDbEntity
  8
_2-7_ビス
  6
Continuous
 62
     7
100
AcDbLine
 10
1068.963677905822
 20
374.6737890956068
 30
0.0
 11
1063.963406900302
 21
374.6737890956068
 31
0.0
  0
LINE
  5
31A
330
22
100
AcDbEntity
  8
_2-9_STRAINER他
  6
Continuous
 62
     4
100
AcDbLine
 10
963.9634369465698
 20
389.6736111745918
 30
0.0
 11
1022.143859342842
 21
389.6736111745918
 31
0.0
  0
LINE
  5
31B
330
22
100
AcDbEntity
  8
_2-4_OUT_LINE
  6
Continuous
 62
     2
100
AcDbLine
 10
1007.733149652436
 20
377.5816954106494
 30
0.0
 11
1022.144126850081
 21
389.6738356378592
 31
0.0
  0
LINE
  5
31C
330
22
100
AcDbEntity
  8
_2-9_STRAINER他
  6
Continuous
 62
     4
100
AcDbLine
 10
933.9635450542031
 20
419.6737508013483
 30
0.0
 11
933.9635450542031
 21
489.9555028685312
 31
0.0
  0
LINE
  5
31D
330
22
100
AcDbEntity
  8
_2-4_OUT_LINE
  6
Continuous
 62
     2
100
AcDbLine
 10
928.9635217830761
 20
489.9555028685312
 30
0.0
 11
933.9635450542031
 21
489.9555028685312
 31
0.0
  0
LINE
  5
31E
330
22
100
AcDbEntity
  8
_2-1_
  6
Continuous
 62
     4
100
AcDbLine
 10
877.3208100405742
 20
485.5810089418832
 30
0.0
 11
778.9635217830806
 21
483.5774493022472
 31
0.0
  0
LINE
  5
31F
330
22
100
AcDbEntity
  8
_2-1_
  6
Continuous
 62
     4
100
AcDbLine
 10
879.6497610771806
 20
371.3046013392137
 30
0.0
 11
778.9635217830806
 21
369.2538566161216
 31
0.0
  0
LINE
  5
320
330
22
100
AcDbEntity
  8
_2-4_OUT_LINE
  6
Continuous
 62
     2
100
AcDbLine
 10
1022.144126850081
 20
389.6738356378592
 30
0.0
 11
1376.08402955655
 21
389.6738356378592
 31
0.0
  0
LINE
  5
321
330
22
100
AcDbEntity
  8
_2-4_OUT_LINE
  6
Continuous
 62
     2
100
AcDbLine
 10
933.963297319811
 20
489.9555028685312
 30
0.0
 11
933.963297319811
 21
659.6738356378592
 31
0.0
  0
LINE
  5
322
330
22
100
AcDbEntity
  8
_2-1_
  6
Continuous
 62
     4
100
AcDbLine
 10
736.8809119419354
 20
478.2190109215503
 30
0.0
 11
912.7961275058677
 21
481.8030594356332
 31
0.0
  0
LINE
  5
323
330
22
100
AcDbEntity
  8
_2-1_
  6
Continuous
 62
     4
100
AcDbLine
 10
732.2674811153006
 20
372.8033327779349
 30
0.0
 11
914.9405164190564
 21
376.5248604864745
 31
0.0
  0
ARC
  5
324
330
22
100
AcDbEntity
  8
_2-3_
  6
Continuous
 62
     3
100
AcDbCircle
 10
768.7775303429138
 20
488.5853420050557
 30
0.0
 40
11.35048064805886
100
AcDbArc
 50
333.8191879496831
 51
26.18081205031824
  0
LINE
  5
325
330
22
100
AcDbEntity
  8
_2-3_
  6
Continuous
 62
     3
100
AcDbLine
 10
778.9635217830806
 20
483.5774493022472
 30
0.0
 11
733.5464204274835
 21
482.6522929377596
 31
0.0
  0
ARC
  5
326
330
22
100
AcDbEntity
  8
_2-3_
  6
Continuous
 62
     3
100
AcDbCircle
 10
770.8381703610307
 20
364.4374042362301
 30
0.0
 40
9.445610052270909
100
AcDbArc
 50
329.3418732901511
 51
30.658126709846
  0
LINE
  5
327
330
22
100
AcDbEntity
  8
_2-3_
  6
Continuous
 62
     3
100
AcDbLine
 10
778.9635217830806
 20
369.2538566161216
 30
0.0
 11
735.8753469586879
 21
368.3762506218159
 31
0.0
  0
ARC
  5
328
330
22
100
AcDbEntity
  8
_2-3_
  6
Continuous
 62
     3
100
AcDbCircle
 10
766.9303547464828
 20
454.0719191221706
 30
0.0
 40
43.94684104749738
100
AcDbArc
 50
139.4327840629708
 51
220.5672159370292
  0
ARC
  5
329
330
22
100
AcDbEntity
  8
_2-3_
  6
Continuous
 62
     3
100
AcDbCircle
 10
768.066239870605
 20
398.2939920403692
 30
0.0
 40
43.94684104749738
100
AcDbArc
 50
141.7660521722708
 51
222.9039326743415
  0
LINE
  5
32A
330
22
100
AcDbEntity
  8
_2-A_MOJI
  6
Continuous
 62
     7
100
AcDbLine
 10
1073.427993539408
 20
379.8901284086128
 30
0.0
 11
1118.920212132603
 21
458.6849623610556
 31
0.0
  0
LINE
  5
32B
330
22
100
AcDbEntity
  8
_2-E_CON他
  6
Continuous
 62
     4
100
AcDbLine
 10
1034.795270112877
 20
1019.379262548035
 30
0.0
 11
1037.814090589698
 21
1022.398083024853
 31
0.0
  0
LINE
  5
32C
330
22
100
AcDbEntity
  8
_2-E_CON他
  6
Continuous
 62
     4
100
AcDbLine
 10
1033.204579553688
 20
1019.202785551218
 30
0.0
 11
1037.801355757566
 21
1023.799561755095
 31
0.0
  0
LINE
  5
32D
330
22
100
AcDbEntity
  8
_2-E_CON他
  6
Continuous
 62
     4
100
AcDbLine
 10
1032.608985338466
 20
1020.021404898364
 30
0.0
 11
1036.387142195194
 21
1023.799561755091
 31
0.0
  0
LINE
  5
32E
330
22
100
AcDbEntity
  8
_2-E_CON他
  6
Continuous
 62
     4
100
AcDbLine
 10
1032.731356354971
 20
1021.557989477242
 30
0.0
 11
1034.972928632824
 21
1023.799561755095
 31
0.0
  0
LINE
  5
32F
330
22
100
AcDbEntity
  8
_2-E_CON他
  6
Continuous
 62
     4
100
AcDbLine
 10
1032.853727371476
 20
1023.094574056125
 30
0.0
 11
1033.558715070447
 21
1023.799561755093
 31
0.0
  0
LINE
  5
330
330
22
100
AcDbEntity
  8
_2-E_CON他
  6
Continuous
 62
     4
100
AcDbLine
 10
916.3270532790177
 20
1028.190266327754
 30
0.0
 11
917.0838543200563
 21
1028.947067368792
 31
0.0
  0
LINE
  5
331
330
22
100
AcDbEntity
  8
_2-E_CON他
  6
Continuous
 62
     4
100
AcDbLine
 10
914.9128397166492
 20
1028.190266327752
 30
0.0
 11
917.0838543200563
 21
1030.361280931159
 31
0.0
  0
LINE
  5
332
330
22
100
AcDbEntity
  8
_2-E_CON他
  6
Continuous
 62
     4
100
AcDbLine
 10
913.4986261542737
 20
1028.190266327752
 30
0.0
 11
917.0170361034257
 21
1031.708676276903
 31
0.0
  0
LINE
  5
333
330
22
100
AcDbEntity
  8
_2-E_CON他
  6
Continuous
 62
     4
100
AcDbLine
 10
912.7540582614285
 20
1028.859911997281
 30
0.0
 11
916.3090006912424
 21
1032.414854427095
 31
0.0
  0
LINE
  5
334
330
22
100
AcDbEntity
  8
_2-E_CON他
  6
Continuous
 62
     4
100
AcDbLine
 10
911.8047487572818
 20
1029.324816055512
 30
0.0
 11
915.5116754631086
 21
1033.031742761337
 31
0.0
  0
LINE
  5
335
330
22
100
AcDbEntity
  8
_2-E_CON他
  6
Continuous
 62
     4
100
AcDbLine
 10
912.152161533382
 20
1031.086442393985
 30
0.0
 11
914.6205628963414
 21
1033.554843756945
 31
0.0
  0
LINE
  5
336
330
22
100
AcDbEntity
  8
_2-E_CON他
  6
Continuous
 62
     4
100
AcDbLine
 10
912.4995743094753
 20
1032.848068732453
 30
0.0
 11
913.6254880717848
 21
1033.973982494763
 31
0.0
  0
LINE
  5
337
330
22
100
AcDbEntity
  8
_2-A_MOJI
  6
Continuous
 62
     7
100
AcDbLine
 10
1034.309602742903
 20
1022.890734291239
 30
0.0
 11
1059.177196887632
 21
1115.697859101356
 31
0.0
  0
LINE
  5
338
330
22
100
AcDbEntity
  8
_2-A_MOJI
  6
Continuous
 62
     7
100
AcDbLine
 10
1206.223927351989
 20
1115.697859101356
 30
0.0
 11
1059.177196887632
 21
1115.697859101356
 31
0.0
  0
LINE
  5
339
330
22
100
AcDbEntity
  8
_2-A_MOJI
  6
Continuous
 62
     7
100
AcDbLine
 10
1206.223927351989
 20
1090.697859101356
 30
0.0
 11
1176.54726423672
 21
1090.697859101356
 31
0.0
  0
LINE
  5
33A
330
22
100
AcDbEntity
  8
_2-A_MOJI
  6
Continuous
 62
     7
100
AcDbLine
 10
1094.021243571929
 20
1038.278608118326
 30
0.0
 11
1114.765669351455
 21
1115.697859101356
 31
0.0
  0
LINE
  5
33B
330
22
100
AcDbEntity
  8
_2-A_MOJI
  6
Continuous
 62
     7
100
AcDbLine
 10
1004.263340344224
 20
1183.161112082592
 30
0.0
 11
1012.981535432237
 21
1215.697859101356
 31
0.0
  0
LINE
  5
33C
330
22
100
AcDbEntity
  8
_2-A_MOJI
  6
Continuous
 62
     7
100
AcDbLine
 10
1068.545354140381
 20
1215.697859101356
 30
0.0
 11
1012.981535432237
 21
1215.697859101356
 31
0.0
  0
LINE
  5
33D
330
22
100
AcDbEntity
  8
_2-A_MOJI
  6
Continuous
 62
     7
100
AcDbLine
 10
1016.637155102631
 20
381.2316442771976
 30
0.0
 11
1061.354849147976
 21
458.6849623610556
 31
0.0
  0
LINE
  5
33E
330
22
100
AcDbEntity
  8
_2-A_MOJI
  6
Continuous
 62
     7
100
AcDbLine
 10
1172.991168300914
 20
458.6849623610556
 30
0.0
 11
1061.354849147976
 21
458.6849623610556
 31
0.0
  0
LINE
  5
33F
330
22
100
AcDbEntity
  8
_2-A_MOJI
  6
Continuous
 62
     7
100
AcDbLine
 10
1009.167550353418
 20
449.4696326965025
 30
0.0
 11
1043.355536875399
 21
508.6849623610556
 31
0.0
  0
TEXT
  5
340
330
22
100
AcDbEntity
  8
_2-A_MOJI
 62
     7
100
AcDbText
 10
1073.418457838625
 20
501.1849623610556
 30
0.0
 40
15.0
  1
ＥＸＣ
100
AcDbText
  0
LINE
  5
341
330
22
100
AcDbEntity
  8
_2-A_MOJI
  6
Continuous
 62
     7
100
AcDbLine
 10
1063.418457838625
 20
508.6849623610556
 30
0.0
 11
1043.355536875399
 21
508.6849623610556
 31
0.0
  0
LINE
  5
342
330
22
100
AcDbEntity
  8
_2-A_MOJI
  6
Continuous
 62
     7
100
AcDbLine
 10
1164.754518373256
 20
1046.68673237816
 30
0.0
 11
1176.54726423672
 21
1090.697859101356
 31
0.0
  0
LINE
  5
343
330
22
100
AcDbEntity
  8
_2-2_IN_LINE
  6
Continuous
 62
     7
100
AcDbLine
 10
928.9632740486835
 20
522.6737842646389
 30
0.0
 11
928.9632740486835
 21
659.6738356378592
 31
0.0
  0
LINE
  5
344
330
22
100
AcDbEntity
  8
_2-2_IN_LINE
  6
Continuous
 62
     7
100
AcDbLine
 10
1066.963222675463
 20
384.6738356378592
 30
0.0
 11
1376.08402955655
 21
384.6738356378592
 31
0.0
  0
LINE
  5
345
330
22
100
AcDbEntity
  8
_2-2_IN_LINE
  6
Continuous
 62
     7
100
AcDbLine
 10
865.7249223257124
 20
1041.652401024096
 30
0.0
 11
911.8011041719457
 21
1029.30630977206
 31
0.0
  0
LINE
  5
346
330
22
100
AcDbEntity
  8
_2-2_IN_LINE
  6
Continuous
 62
     7
100
AcDbLine
 10
1086.442827657475
 20
1041.652401024096
 30
0.0
 11
1047.682242461702
 21
1031.266632030615
 31
0.0
  0
LINE
  5
347
330
22
100
AcDbEntity
  8
_2-2_IN_LINE
  6
Continuous
 62
     7
100
AcDbLine
 10
912.7707365894874
 20
1034.22305159816
 30
0.0
 11
911.801104508477
 21
1029.306337159165
 31
0.0
  0
LINE
  5
348
330
22
100
AcDbEntity
  8
_2-2_IN_LINE
  6
Continuous
 62
     7
100
AcDbLine
 10
1032.909871408406
 20
1023.799561755095
 30
0.0
 11
1037.925702003208
 21
1023.799561755095
 31
0.0
  0
LINE
  5
349
330
22
100
AcDbEntity
  8
_2-2_IN_LINE
  6
Continuous
 62
     7
100
AcDbLine
 10
1088.583934089943
 20
1033.690217605674
 30
0.0
 11
1098.583934089943
 21
1033.690217605674
 31
0.0
  0
LINE
  5
34A
330
22
100
AcDbEntity
  8
_2-2_IN_LINE
  6
Continuous
 62
     7
100
AcDbLine
 10
1098.583934089943
 20
1033.690217605674
 30
0.0
 11
1098.583934089943
 21
1041.68673237816
 31
0.0
  0
LINE
  5
34B
330
22
100
AcDbEntity
  8
_2-2_IN_LINE
  6
Continuous
 62
     7
100
AcDbLine
 10
853.5839974647121
 20
1033.690283807057
 30
0.0
 11
853.5840017861898
 21
1041.686798579542
 31
0.0
  0
LINE
  5
34C
330
22
100
AcDbEntity
  8
_2-2_IN_LINE
  6
Continuous
 62
     7
100
AcDbLine
 10
863.5839974647121
 20
1033.690278402862
 30
0.0
 11
853.5839974647121
 21
1033.690283807057
 31
0.0
  0
LINE
  5
34D
330
22
100
AcDbEntity
  8
_2-2_IN_LINE
  6
Continuous
 62
     7
100
AcDbLine
 10
1086.57095988498
 20
1041.68673237816
 30
0.0
 11
1376.08402955655
 21
1041.68673237816
 31
0.0
  0
LINE
  5
34E
330
22
100
AcDbEntity
  8
_2-2_IN_LINE
  6
Continuous
 62
     7
100
AcDbLine
 10
865.5967907756219
 20
1041.68673237816
 30
0.0
 11
726.0840295565509
 21
1041.68673237816
 31
0.0
  0
LINE
  5
34F
330
22
100
AcDbEntity
  8
_2-2_IN_LINE
  6
Continuous
 62
     7
100
AcDbLine
 10
1078.845818267946
 20
374.6737890956068
 30
0.0
 11
1078.845818267946
 21
384.6738356378592
 31
0.0
  0
LINE
  5
350
330
22
100
AcDbEntity
  8
_2-2_IN_LINE
  6
Continuous
 62
     7
100
AcDbLine
 10
786.9715811337579
 20
493.5932347078641
 30
0.0
 11
778.9635217830761
 21
493.5932347078641
 31
0.0
  0
LINE
  5
351
330
22
100
AcDbEntity
  8
_2-2_IN_LINE
  6
Continuous
 62
     7
100
AcDbLine
 10
789.7001277476515
 20
359.6209518563387
 30
0.0
 11
778.9635217830761
 21
359.6209518563387
 31
0.0
  0
LINE
  5
352
330
22
100
AcDbEntity
  8
_2-2_IN_LINE
  6
Continuous
 62
     7
100
AcDbLine
 10
1068.845818267946
 20
374.6737890956068
 30
0.0
 11
1078.845818267946
 21
374.6737890956068
 31
0.0
  0
LINE
  5
353
330
22
100
AcDbEntity
  8
_2-2_IN_LINE
  6
Continuous
 62
     7
100
AcDbLine
 10
918.9634752408258
 20
534.6734962918162
 30
0.0
 11
928.9635217830761
 21
534.6734962918162
 31
0.0
  0
LINE
  5
354
330
22
100
AcDbEntity
  8
_2-2_IN_LINE
  6
Continuous
 62
     7
100
AcDbLine
 10
918.9634752408258
 20
524.6734962918162
 30
0.0
 11
918.9634752408258
 21
534.6734962918162
 31
0.0
  0
LINE
  5
355
330
22
100
AcDbEntity
  8
_2-2_IN_LINE
  6
Continuous
 62
     7
100
AcDbLine
 10
928.9635217830761
 20
384.6738356378592
 30
0.0
 11
1016.185306936127
 21
384.6738356378592
 31
0.0
  0
LINE
  5
356
330
22
100
AcDbEntity
  8
_2-2_IN_LINE
  6
Continuous
 62
     7
100
AcDbLine
 10
1019.784808577379
 20
381.1674030272707
 30
0.0
 11
1016.571018028567
 21
384.9974828515792
 31
0.0
  0
LINE
  5
357
330
22
100
AcDbEntity
  8
_2-2_IN_LINE
  6
Continuous
 62
     7
100
AcDbLine
 10
928.9635217830761
 20
482.232135405784
 30
0.0
 11
933.9635450542031
 21
482.232135405784
 31
0.0
  0
ARC
  5
358
330
22
100
AcDbEntity
  8
_2-2_IN_LINE
  6
Continuous
 62
     7
100
AcDbCircle
 10
700.1624861084843
 20
454.0719191221706
 30
0.0
 40
43.94684104749738
100
AcDbArc
 50
319.4327840629709
 51
40.56721593702928
  0
LINE
  5
359
330
22
100
AcDbEntity
  8
_2-D_ハッチ他
  6
Continuous
 62
     4
100
AcDbLine
 10
1075.898054237778
 20
374.6737890956092
 30
0.0
 11
1078.845818267951
 21
377.62155312578
 31
0.0
  0
LINE
  5
35A
330
22
100
AcDbEntity
  8
_2-D_ハッチ他
  6
Continuous
 62
     4
100
AcDbLine
 10
1072.362520331844
 20
374.6737890956092
 30
0.0
 11
1078.845818267951
 21
381.1570870317155
 31
0.0
  0
LINE
  5
35B
330
22
100
AcDbEntity
  8
_2-D_ハッチ他
  6
Continuous
 62
     4
100
AcDbLine
 10
1068.963677905822
 20
374.8104805755202
 30
0.0
 11
1078.827032968161
 21
384.6738356378592
 31
0.0
  0
LINE
  5
35C
330
22
100
AcDbEntity
  8
_2-D_ハッチ他
  6
Continuous
 62
     4
100
AcDbLine
 10
1068.963677905822
 20
378.3460144814535
 30
0.0
 11
1075.291499062228
 21
384.6738356378592
 31
0.0
  0
LINE
  5
35D
330
22
100
AcDbEntity
  8
_2-D_ハッチ他
  6
Continuous
 62
     4
100
AcDbLine
 10
1068.963677905822
 20
381.8815483873891
 30
0.0
 11
1071.755965156294
 21
384.6738356378592
 31
0.0
  0
LINE
  5
35E
330
22
100
AcDbEntity
  8
_2-D_ハッチ他
  6
Continuous
 62
     4
100
AcDbLine
 10
928.9129133356304
 20
524.6734962918162
 30
0.0
 11
928.9635217830806
 21
524.7241047392662
 31
0.0
  0
LINE
  5
35F
330
22
100
AcDbEntity
  8
_2-D_ハッチ他
  6
Continuous
 62
     4
100
AcDbLine
 10
925.3773794297064
 20
524.6734962918185
 30
0.0
 11
928.9635217830806
 21
528.2596386451882
 31
0.0
  0
LINE
  5
360
330
22
100
AcDbEntity
  8
_2-D_ハッチ他
  6
Continuous
 62
     4
100
AcDbLine
 10
921.8418455237729
 20
524.6734962918185
 30
0.0
 11
928.9635217830806
 21
531.7951725511216
 31
0.0
  0
LINE
  5
361
330
22
100
AcDbEntity
  8
_2-D_ハッチ他
  6
Continuous
 62
     4
100
AcDbLine
 10
918.9634752408258
 20
525.3306599148028
 30
0.0
 11
928.3063116178396
 21
534.6734962918185
 31
0.0
  0
LINE
  5
362
330
22
100
AcDbEntity
  8
_2-D_ハッチ他
  6
Continuous
 62
     4
100
AcDbLine
 10
918.9634752408258
 20
528.866193820736
 30
0.0
 11
924.7707777119106
 21
534.6734962918185
 31
0.0
  0
LINE
  5
363
330
22
100
AcDbEntity
  8
_2-D_ハッチ他
  6
Continuous
 62
     4
100
AcDbLine
 10
918.9634752408258
 20
532.4017277266716
 30
0.0
 11
921.2352438059729
 21
534.6734962918162
 31
0.0
  0
LINE
  5
364
330
22
100
AcDbEntity
  8
_2-D_ハッチ他
  6
Continuous
 62
     4
100
AcDbLine
 10
785.4178593528382
 20
483.7089255810725
 30
0.0
 11
787.1413501324292
 21
485.4324163606633
 31
0.0
  0
LINE
  5
365
330
22
100
AcDbEntity
  8
_2-D_ハッチ他
  6
Continuous
 62
     4
100
AcDbLine
 10
781.8088082811441
 20
483.6354084153117
 30
0.0
 11
787.069299504297
 21
488.8958996384645
 31
0.0
  0
LINE
  5
366
330
22
100
AcDbEntity
  8
_2-D_ハッチ他
  6
Continuous
 62
     4
100
AcDbLine
 10
779.4999841300348
 20
484.8621181701332
 30
0.0
 11
786.9972488761646
 21
492.3593829162678
 31
0.0
  0
LINE
  5
367
330
22
100
AcDbEntity
  8
_2-D_ハッチ他
  6
Continuous
 62
     4
100
AcDbLine
 10
780.119782892471
 20
489.0174508384939
 30
0.0
 11
784.695566761839
 21
493.5932347078641
 31
0.0
  0
LINE
  5
368
330
22
100
AcDbEntity
  8
_2-D_ハッチ他
  6
Continuous
 62
     4
100
AcDbLine
 10
779.5936842440055
 20
492.0268860959618
 30
0.0
 11
781.1600328559058
 21
493.5932347078619
 31
0.0
  0
LINE
  5
369
330
22
100
AcDbEntity
  8
_2-D_ハッチ他
  6
Continuous
 62
     4
100
AcDbLine
 10
788.6091062416887
 20
359.6209518563409
 30
0.0
 11
789.6783923224126
 21
360.6902379370626
 31
0.0
  0
LINE
  5
36A
330
22
100
AcDbEntity
  8
_2-D_ハッチ他
  6
Continuous
 62
     4
100
AcDbLine
 10
785.0735723357553
 20
359.6209518563409
 30
0.0
 11
789.6079571087425
 21
364.1553366293283
 31
0.0
  0
LINE
  5
36B
330
22
100
AcDbEntity
  8
_2-D_ハッチ他
  6
Continuous
 62
     4
100
AcDbLine
 10
781.5380384298219
 20
359.6209518563409
 30
0.0
 11
789.5375218950728
 21
367.6204353215918
 31
0.0
  0
LINE
  5
36C
330
22
100
AcDbEntity
  8
_2-D_ハッチ他
  6
Continuous
 62
     4
100
AcDbLine
 10
779.7823684810788
 20
361.4008158135289
 30
0.0
 11
787.8157077412204
 21
369.4341550736748
 31
0.0
  0
LINE
  5
36D
330
22
100
AcDbEntity
  8
_2-D_ハッチ他
  6
Continuous
 62
     4
100
AcDbLine
 10
780.2356591515088
 20
365.3896403898921
 30
0.0
 11
784.2066660424559
 21
369.3606472808438
 31
0.0
  0
LINE
  5
36E
330
22
100
AcDbEntity
  8
_2-D_ハッチ他
  6
Continuous
 62
     4
100
AcDbLine
 10
779.5045867072627
 20
368.1941018515794
 30
0.0
 11
780.5976243436868
 21
369.287139488008
 31
0.0
  0
LINE
  5
36F
330
22
100
AcDbEntity
  8
_2-D_ハッチ他
  6
Continuous
 62
     4
100
AcDbLine
 10
1008.279343894783
 20
378.0400028022405
 30
0.0
 11
1008.645494091864
 21
377.67385260516
 31
0.0
  0
LINE
  5
370
330
22
100
AcDbEntity
  8
_2-D_ハッチ他
  6
Continuous
 62
     4
100
AcDbLine
 10
1009.048317562043
 20
378.6852426973565
 30
0.0
 11
1010.059707654241
 21
377.67385260516
 31
0.0
  0
LINE
  5
371
330
22
100
AcDbEntity
  8
_2-D_ハッチ他
  6
Continuous
 62
     4
100
AcDbLine
 10
1009.817291229301
 20
379.3304825924725
 30
0.0
 11
1011.473921216612
 21
377.6738526051623
 31
0.0
  0
LINE
  5
372
330
22
100
AcDbEntity
  8
_2-D_ハッチ他
  6
Continuous
 62
     4
100
AcDbLine
 10
1010.586264896556
 20
379.9757224875839
 30
0.0
 11
1012.88813477898
 21
377.67385260516
 31
0.0
  0
LINE
  5
373
330
22
100
AcDbEntity
  8
_2-D_ハッチ他
  6
Continuous
 62
     4
100
AcDbLine
 10
1011.355238563815
 20
380.6209623827022
 30
0.0
 11
1014.302348341358
 21
377.67385260516
 31
0.0
  0
LINE
  5
374
330
22
100
AcDbEntity
  8
_2-D_ハッチ他
  6
Continuous
 62
     4
100
AcDbLine
 10
1012.124212231074
 20
381.2662022778181
 30
0.0
 11
1015.673006166503
 21
377.7174083423869
 31
0.0
  0
LINE
  5
375
330
22
100
AcDbEntity
  8
_2-D_ハッチ他
  6
Continuous
 62
     4
100
AcDbLine
 10
1012.893185898334
 20
381.911442172934
 30
0.0
 11
1016.441998862504
 21
378.3626292087615
 31
0.0
  0
LINE
  5
376
330
22
100
AcDbEntity
  8
_2-D_ハッチ他
  6
Continuous
 62
     4
100
AcDbLine
 10
1013.662159565588
 20
382.5566820680456
 30
0.0
 11
1017.210991558498
 21
379.0078500751337
 31
0.0
  0
LINE
  5
377
330
22
100
AcDbEntity
  8
_2-D_ハッチ他
  6
Continuous
 62
     4
100
AcDbLine
 10
1014.431133232847
 20
383.2019219631616
 30
0.0
 11
1017.979984254498
 21
379.6530709415105
 31
0.0
  0
LINE
  5
378
330
22
100
AcDbEntity
  8
_2-D_ハッチ他
  6
Continuous
 62
     4
100
AcDbLine
 10
1015.200106900104
 20
383.8471618582776
 30
0.0
 11
1018.748976950497
 21
380.2982918078873
 31
0.0
  0
LINE
  5
379
330
22
100
AcDbEntity
  8
_2-D_ハッチ他
  6
Continuous
 62
     4
100
AcDbLine
 10
1015.969080567363
 20
384.4924017533936
 30
0.0
 11
1019.517969646495
 21
380.9435126742619
 31
0.0
  0
LINE
  5
37A
330
22
100
AcDbEntity
  8
_2-D_ハッチ他
  6
Continuous
 62
     4
100
AcDbLine
 10
928.9635217830806
 20
482.8116690366619
 30
0.0
 11
929.5430554139562
 21
482.2321354057862
 31
0.0
  0
LINE
  5
37B
330
22
100
AcDbEntity
  8
_2-D_ハッチ他
  6
Continuous
 62
     4
100
AcDbLine
 10
928.9635217830806
 20
484.2258825990348
 30
0.0
 11
930.9572689763291
 21
482.2321354057862
 31
0.0
  0
LINE
  5
37C
330
22
100
AcDbEntity
  8
_2-D_ハッチ他
  6
Continuous
 62
     4
100
AcDbLine
 10
928.9635217830806
 20
485.6400961614099
 30
0.0
 11
932.3714825387021
 21
482.2321354057884
 31
0.0
  0
LINE
  5
37D
330
22
100
AcDbEntity
  8
_2-D_ハッチ他
  6
Continuous
 62
     4
100
AcDbLine
 10
928.9635217830783
 20
487.0543097237783
 30
0.0
 11
933.7856961010727
 21
482.232135405784
 31
0.0
  0
LINE
  5
37E
330
22
100
AcDbEntity
  8
_2-D_ハッチ他
  6
Continuous
 62
     4
100
AcDbLine
 10
928.9635217830783
 20
488.4685232861534
 30
0.0
 11
933.9635450542056
 21
483.4685000150261
 31
0.0
  0
LINE
  5
37F
330
22
100
AcDbEntity
  8
_2-D_ハッチ他
  6
Continuous
 62
     4
100
AcDbLine
 10
928.9635217830806
 20
489.8827368485286
 30
0.0
 11
933.9635450542081
 21
484.8827135774012
 31
0.0
  0
LINE
  5
380
330
22
100
AcDbEntity
  8
_2-D_ハッチ他
  6
Continuous
 62
     4
100
AcDbLine
 10
930.3049693254482
 20
489.9555028685336
 30
0.0
 11
933.9635450542081
 21
486.2969271397742
 31
0.0
  0
LINE
  5
381
330
22
100
AcDbEntity
  8
_2-D_ハッチ他
  6
Continuous
 62
     4
100
AcDbLine
 10
931.7191828878192
 20
489.9555028685312
 30
0.0
 11
933.9635450542031
 21
487.7111407021447
 31
0.0
  0
LINE
  5
382
330
22
100
AcDbEntity
  8
_2-D_ハッチ他
  6
Continuous
 62
     4
100
AcDbLine
 10
933.133396450192
 20
489.9555028685312
 30
0.0
 11
933.9635450542031
 21
489.12535426452
 31
0.0
  0
ENDSEC
  0
SECTION
  2
OBJECTS
  0
DICTIONARY
  5
C
330
0
100
AcDbDictionary
281
     1
  3
ACAD_COLOR
350
1B
  3
ACAD_GROUP
350
D
  3
ACAD_LAYOUT
350
19
  3
ACAD_MATERIAL
350
1A
  3
ACAD_MLINESTYLE
350
16
  3
ACAD_PLOTSETTINGS
350
18
  3
ACAD_PLOTSTYLENAME
350
E
  3
ACAD_TABLESTYLE
350
1C
  3
ACDBHEADERROUNDTRIPXREC
350
38A
  3
AcDbVariableDictionary
350
385
  0
DICTIONARY
  5
1B
102
{ACAD_REACTORS
330
C
102
}
330
C
100
AcDbDictionary
281
     1
  0
DICTIONARY
  5
D
102
{ACAD_REACTORS
330
C
102
}
330
C
100
AcDbDictionary
281
     1
  0
DICTIONARY
  5
19
102
{ACAD_REACTORS
330
C
102
}
330
C
100
AcDbDictionary
281
     1
  3
Model
350
25
  3
レイアウト1
350
21
  0
DICTIONARY
  5
1A
102
{ACAD_REACTORS
330
C
102
}
330
C
100
AcDbDictionary
281
     1
  0
DICTIONARY
  5
16
102
{ACAD_REACTORS
330
C
102
}
330
C
100
AcDbDictionary
281
     1
  3
Standard
350
17
  0
DICTIONARY
  5
18
102
{ACAD_REACTORS
330
C
102
}
330
C
100
AcDbDictionary
281
     1
  0
ACDBDICTIONARYWDFLT
  5
E
102
{ACAD_REACTORS
330
C
102
}
330
C
100
AcDbDictionary
281
     1
  3
Normal
350
F
100
AcDbDictionaryWithDefault
340
F
  0
DICTIONARY
  5
1C
102
{ACAD_REACTORS
330
C
102
}
330
C
100
AcDbDictionary
281
     1
  3
Standard
350
1D
  0
DICTIONARY
  5
38A
102
{ACAD_REACTORS
330
C
102
}
330
C
100
AcDbDictionary
281
     1
  0
DICTIONARY
  5
385
102
{ACAD_REACTORS
330
C
102
}
330
C
100
AcDbDictionary
281
     1
  3
CTABLESTYLE
350
386
  3
DIMASSOC
350
387
  3
PROJECTNAME
350
388
  0
LAYOUT
  5
25
102
{ACAD_XDICTIONARY
360
38D
102
}
102
{ACAD_REACTORS
330
19
102
}
330
19
100
AcDbPlotSettings
  1

  2
PC1665
  4

  6

 40
0.0
 41
0.0
 42
0.0
 43
0.0
 44
0.0
 45
0.0
 46
0.0
 47
0.0
 48
0.0
 49
0.0
140
0.0
141
0.0
142
1.0
143
1.0
 70
  1712
 72
     0
 73
     0
 74
     0
  7

 75
     0
147
1.0
148
0.0
149
0.0
100
AcDbLayout
  1
Model
 70
     1
 71
     0
 10
0.0
 20
0.0
 11
12.0
 21
9.0
 12
0.0
 22
0.0
 32
0.0
 14
0.0
 24
0.0
 34
0.0
 15
0.0
 25
0.0
 35
0.0
146
0.0
 13
0.0
 23
0.0
 33
0.0
 16
1.0
 26
0.0
 36
0.0
 17
0.0
 27
1.0
 37
0.0
 76
     0
330
22
  0
LAYOUT
  5
21
102
{ACAD_XDICTIONARY
360
38B
102
}
102
{ACAD_REACTORS
330
19
102
}
330
19
100
AcDbPlotSettings
  1

  2
PC1665
  4

  6

 40
0.0
 41
0.0
 42
0.0
 43
0.0
 44
0.0
 45
0.0
 46
0.0
 47
0.0
 48
0.0
 49
0.0
140
0.0
141
0.0
142
1.0
143
1.0
 70
   688
 72
     0
 73
     0
 74
     5
  7

 75
    16
147
1.0
148
0.0
149
0.0
100
AcDbLayout
  1
レイアウト1
 70
     1
 71
     1
 10
0.0
 20
0.0
 11
12.0
 21
9.0
 12
0.0
 22
0.0
 32
0.0
 14
1.000000000000000E+20
 24
1.000000000000000E+20
 34
1.000000000000000E+20
 15
-1.000000000000000E+20
 25
-1.000000000000000E+20
 35
-1.000000000000000E+20
146
0.0
 13
0.0
 23
0.0
 33
0.0
 16
1.0
 26
0.0
 36
0.0
 17
0.0
 27
1.0
 37
0.0
 76
     0
330
1E
  0
MLINESTYLE
  5
17
102
{ACAD_REACTORS
330
16
102
}
330
16
100
AcDbMlineStyle
  2
STANDARD
 70
     0
  3

 62
   256
 51
90.0
 52
90.0
 71
     2
 49
0.5
 62
   256
  6
BYLAYER
 49
-0.5
 62
   256
  6
BYLAYER
  0
ACDBPLACEHOLDER
  5
F
102
{ACAD_REACTORS
330
E
102
}
330
E
  0
TABLESTYLE
  5
1D
102
{ACAD_REACTORS
330
1C
102
}
330
1C
100
AcDbTableStyle
  3
Standard
 70
     0
 71
     0
 40
0.06
 41
0.06
280
     0
281
     0
  7
STANDARD
140
0.18
170
     2
 62
     0
 63
     7
283
     0
274
    -2
284
     1
 64
     0
275
    -2
285
     1
 65
     0
276
    -2
286
     1
 66
     0
277
    -2
287
     1
 67
     0
278
    -2
288
     1
 68
     0
279
    -2
289
     1
 69
     0
  7
STANDARD
140
0.25
170
     5
 62
     0
 63
     7
283
     0
274
    -2
284
     1
 64
     0
275
    -2
285
     1
 65
     0
276
    -2
286
     1
 66
     0
277
    -2
287
     1
 67
     0
278
    -2
288
     1
 68
     0
279
    -2
289
     1
 69
     0
  7
STANDARD
140
0.18
170
     5
 62
     0
 63
     7
283
     0
274
    -2
284
     1
 64
     0
275
    -2
285
     1
 65
     0
276
    -2
286
     1
 66
     0
277
    -2
287
     1
 67
     0
278
    -2
288
     1
 68
     0
279
    -2
289
     1
 69
     0
  0
DICTIONARYVAR
  5
386
102
{ACAD_REACTORS
330
385
102
}
330
385
100
DictionaryVariables
280
     0
  1
STANDARD
  0
DICTIONARYVAR
  5
387
102
{ACAD_REACTORS
330
385
102
}
330
385
100
DictionaryVariables
280
     0
  1
1
  0
DICTIONARYVAR
  5
388
102
{ACAD_REACTORS
330
385
102
}
330
385
100
DictionaryVariables
280
     0
  1

  0
DICTIONARY
  5
38D
330
25
100
AcDbDictionary
280
     1
281
     1
  3
ACAD_XREC_ROUNDTRIP
360
38E
  0
DICTIONARY
  5
38B
330
21
100
AcDbDictionary
280
     1
281
     1
  3
ACAD_XREC_ROUNDTRIP
360
38C
  0
XRECORD
  5
38E
102
{ACAD_REACTORS
330
38D
102
}
330
38D
100
AcDbXrecord
280
     1
102
SHADEPLOT
 70
     0
102
SHADEPLOTRESLEVEL
 70
     2
102
SHADEPLOTCUSTOMDPI
 70
   300
  0
XRECORD
  5
38C
102
{ACAD_REACTORS
330
38B
102
}
330
38B
100
AcDbXrecord
280
     1
102
SHADEPLOT
 70
     0
102
SHADEPLOTRESLEVEL
 70
     2
102
SHADEPLOTCUSTOMDPI
 70
   300
  0
ENDSEC
  0
EOF
