  0
SECTION
  2
HEADER
  9
$ACADVER
  1
AC1015
  9
$ACADMAINTVER
 70
    20
  9
$DWGCODEPAGE
  3
ANSI_932
  9
$INSBASE
 10
0.0
 20
0.0
 30
0.0
  9
$EXTMIN
 10
508.6257989385931
 20
25.55969587010259
 30
-0.0015258207003583
  9
$EXTMAX
 10
1508.702091603425
 20
1455.588229741654
 30
0.0000000349246037
  9
$LIMMIN
 10
0.0
 20
0.0
  9
$LIMMAX
 10
2100.0
 20
1485.0
  9
$ORTHOMODE
 70
     0
  9
$REGENMODE
 70
     1
  9
$FILLMODE
 70
     1
  9
$QTEXTMODE
 70
     0
  9
$MIRRTEXT
 70
     0
  9
$LTSCALE
 40
5.0
  9
$ATTMODE
 70
     1
  9
$TEXTSIZE
 40
0.2
  9
$TRACEWID
 40
0.05
  9
$TEXTSTYLE
  7
STANDARD
  9
$CLAYER
  8
0
  9
$CELTYPE
  6
CONTINUOUS
  9
$CECOLOR
 62
   256
  9
$CELTSCALE
 40
1.0
  9
$DISPSILH
 70
     0
  9
$DIMSCALE
 40
1.0
  9
$DIMASZ
 40
0.18
  9
$DIMEXO
 40
0.0625
  9
$DIMDLI
 40
0.38
  9
$DIMRND
 40
0.0
  9
$DIMDLE
 40
0.0
  9
$DIMEXE
 40
0.18
  9
$DIMTP
 40
0.0
  9
$DIMTM
 40
0.0
  9
$DIMTXT
 40
0.18
  9
$DIMCEN
 40
0.09
  9
$DIMTSZ
 40
0.0
  9
$DIMTOL
 70
     0
  9
$DIMLIM
 70
     0
  9
$DIMTIH
 70
     1
  9
$DIMTOH
 70
     1
  9
$DIMSE1
 70
     0
  9
$DIMSE2
 70
     0
  9
$DIMTAD
 70
     0
  9
$DIMZIN
 70
     0
  9
$DIMBLK
  1

  9
$DIMASO
 70
     1
  9
$DIMSHO
 70
     1
  9
$DIMPOST
  1

  9
$DIMAPOST
  1

  9
$DIMALT
 70
     0
  9
$DIMALTD
 70
     2
  9
$DIMALTF
 40
25.4
  9
$DIMLFAC
 40
1.0
  9
$DIMTOFL
 70
     0
  9
$DIMTVP
 40
0.0
  9
$DIMTIX
 70
     0
  9
$DIMSOXD
 70
     0
  9
$DIMSAH
 70
     0
  9
$DIMBLK1
  1

  9
$DIMBLK2
  1

  9
$DIMSTYLE
  2
Standard
  9
$DIMCLRD
 70
     0
  9
$DIMCLRE
 70
     0
  9
$DIMCLRT
 70
     0
  9
$DIMTFAC
 40
1.0
  9
$DIMGAP
 40
0.09
  9
$DIMJUST
 70
     0
  9
$DIMSD1
 70
     0
  9
$DIMSD2
 70
     0
  9
$DIMTOLJ
 70
     1
  9
$DIMTZIN
 70
     0
  9
$DIMALTZ
 70
     0
  9
$DIMALTTZ
 70
     0
  9
$DIMUPT
 70
     0
  9
$DIMDEC
 70
     4
  9
$DIMTDEC
 70
     4
  9
$DIMALTU
 70
     2
  9
$DIMALTTD
 70
     2
  9
$DIMTXSTY
  7
STANDARD
  9
$DIMAUNIT
 70
     0
  9
$DIMADEC
 70
     0
  9
$DIMALTRND
 40
0.0
  9
$DIMAZIN
 70
     0
  9
$DIMDSEP
 70
    46
  9
$DIMATFIT
 70
     3
  9
$DIMFRAC
 70
     0
  9
$DIMLDRBLK
  1

  9
$DIMLUNIT
 70
     2
  9
$DIMLWD
 70
    -2
  9
$DIMLWE
 70
    -2
  9
$DIMTMOVE
 70
     0
  9
$LUNITS
 70
     2
  9
$LUPREC
 70
     4
  9
$SKETCHINC
 40
0.1
  9
$FILLETRAD
 40
0.0
  9
$AUNITS
 70
     0
  9
$AUPREC
 70
     0
  9
$MENU
  1
.
  9
$ELEVATION
 40
0.0
  9
$PELEVATION
 40
0.0
  9
$THICKNESS
 40
0.0
  9
$LIMCHECK
 70
     0
  9
$CHAMFERA
 40
0.0
  9
$CHAMFERB
 40
0.0
  9
$CHAMFERC
 40
0.0
  9
$CHAMFERD
 40
0.0
  9
$SKPOLY
 70
     0
  9
$TDCREATE
 40
2454846.609647026
  9
$TDUCREATE
 40
2454846.234647025
  9
$TDUPDATE
 40
2454846.617005104
  9
$TDUUPDATE
 40
2454846.242005104
  9
$TDINDWG
 40
0.0073602431
  9
$TDUSRTIMER
 40
0.0073602431
  9
$USRTIMER
 70
     1
  9
$ANGBASE
 50
0.0
  9
$ANGDIR
 70
     0
  9
$PDMODE
 70
     0
  9
$PDSIZE
 40
0.0
  9
$PLINEWID
 40
0.0
  9
$SPLFRAME
 70
     0
  9
$SPLINETYPE
 70
     6
  9
$SPLINESEGS
 70
     8
  9
$HANDSEED
  5
4CC
  9
$SURFTAB1
 70
     6
  9
$SURFTAB2
 70
     6
  9
$SURFTYPE
 70
     6
  9
$SURFU
 70
     6
  9
$SURFV
 70
     6
  9
$UCSBASE
  2

  9
$UCSNAME
  2

  9
$UCSORG
 10
0.0
 20
0.0
 30
0.0
  9
$UCSXDIR
 10
1.0
 20
0.0
 30
0.0
  9
$UCSYDIR
 10
0.0
 20
1.0
 30
0.0
  9
$UCSORTHOREF
  2

  9
$UCSORTHOVIEW
 70
     0
  9
$UCSORGTOP
 10
0.0
 20
0.0
 30
0.0
  9
$UCSORGBOTTOM
 10
0.0
 20
0.0
 30
0.0
  9
$UCSORGLEFT
 10
0.0
 20
0.0
 30
0.0
  9
$UCSORGRIGHT
 10
0.0
 20
0.0
 30
0.0
  9
$UCSORGFRONT
 10
0.0
 20
0.0
 30
0.0
  9
$UCSORGBACK
 10
0.0
 20
0.0
 30
0.0
  9
$PUCSBASE
  2

  9
$PUCSNAME
  2

  9
$PUCSORG
 10
0.0
 20
0.0
 30
0.0
  9
$PUCSXDIR
 10
1.0
 20
0.0
 30
0.0
  9
$PUCSYDIR
 10
0.0
 20
1.0
 30
0.0
  9
$PUCSORTHOREF
  2

  9
$PUCSORTHOVIEW
 70
     0
  9
$PUCSORGTOP
 10
0.0
 20
0.0
 30
0.0
  9
$PUCSORGBOTTOM
 10
0.0
 20
0.0
 30
0.0
  9
$PUCSORGLEFT
 10
0.0
 20
0.0
 30
0.0
  9
$PUCSORGRIGHT
 10
0.0
 20
0.0
 30
0.0
  9
$PUCSORGFRONT
 10
0.0
 20
0.0
 30
0.0
  9
$PUCSORGBACK
 10
0.0
 20
0.0
 30
0.0
  9
$USERI1
 70
     0
  9
$USERI2
 70
     0
  9
$USERI3
 70
     0
  9
$USERI4
 70
     0
  9
$USERI5
 70
     0
  9
$USERR1
 40
0.0
  9
$USERR2
 40
0.0
  9
$USERR3
 40
0.0
  9
$USERR4
 40
0.0
  9
$USERR5
 40
0.0
  9
$WORLDVIEW
 70
     1
  9
$SHADEDGE
 70
     3
  9
$SHADEDIF
 70
    70
  9
$TILEMODE
 70
     1
  9
$MAXACTVP
 70
    64
  9
$PINSBASE
 10
0.0
 20
0.0
 30
0.0
  9
$PLIMCHECK
 70
     0
  9
$PEXTMIN
 10
1.000000000000000E+20
 20
1.000000000000000E+20
 30
1.000000000000000E+20
  9
$PEXTMAX
 10
-1.000000000000000E+20
 20
-1.000000000000000E+20
 30
-1.000000000000000E+20
  9
$PLIMMIN
 10
0.0
 20
0.0
  9
$PLIMMAX
 10
12.0
 20
9.0
  9
$UNITMODE
 70
     0
  9
$VISRETAIN
 70
     1
  9
$PLINEGEN
 70
     0
  9
$PSLTSCALE
 70
     1
  9
$TREEDEPTH
 70
  3020
  9
$CMLSTYLE
  2
Standard
  9
$CMLJUST
 70
     0
  9
$CMLSCALE
 40
1.0
  9
$PROXYGRAPHICS
 70
     1
  9
$MEASUREMENT
 70
     0
  9
$CELWEIGHT
370
    -1
  9
$ENDCAPS
280
     0
  9
$JOINSTYLE
280
     0
  9
$LWDISPLAY
290
     0
  9
$INSUNITS
 70
     0
  9
$HYPERLINKBASE
  1

  9
$STYLESHEET
  1

  9
$XEDIT
290
     1
  9
$CEPSNTYPE
380
     0
  9
$PSTYLEMODE
290
     1
  9
$FINGERPRINTGUID
  2
{FFD772CE-F5A2-4648-A84F-0B425FBD46F3}
  9
$VERSIONGUID
  2
{39034CD9-DB54-4A06-9598-9958963A9882}
  9
$EXTNAMES
290
     1
  9
$PSVPSCALE
 40
0.0
  9
$OLESTARTUP
290
     0
  0
ENDSEC
  0
SECTION
  2
CLASSES
  0
CLASS
  1
ACDBDICTIONARYWDFLT
  2
AcDbDictionaryWithDefault
  3
ObjectDBX Classes
 90
        0
280
     0
281
     0
  0
CLASS
  1
TABLESTYLE
  2
AcDbTableStyle
  3
ObjectDBX Classes
 90
     2047
280
     0
281
     0
  0
CLASS
  1
DICTIONARYVAR
  2
AcDbDictionaryVar
  3
ObjectDBX Classes
 90
        0
280
     0
281
     0
  0
CLASS
  1
ACDBPLACEHOLDER
  2
AcDbPlaceHolder
  3
ObjectDBX Classes
 90
        0
280
     0
281
     0
  0
CLASS
  1
LAYOUT
  2
AcDbLayout
  3
ObjectDBX Classes
 90
        0
280
     0
281
     0
  0
ENDSEC
  0
SECTION
  2
TABLES
  0
TABLE
  2
VPORT
  5
8
330
0
100
AcDbSymbolTable
 70
     2
  0
VPORT
  5
4C6
330
8
100
AcDbSymbolTableRecord
100
AcDbViewportTableRecord
  2
*Active
 70
     0
 10
0.0
 20
0.0
 11
1.0
 21
1.0
 12
1008.663945271009
 22
740.5739628058787
 13
0.0
 23
0.0
 14
1.0
 24
1.0
 15
0.0
 25
0.0
 16
0.0
 26
0.0
 36
1.0
 17
0.0
 27
0.0
 37
0.0
 40
1443.009125706997
 41
2.069696969696969
 42
50.0
 43
0.0
 44
0.0
 50
0.0
 51
0.0
 71
     0
 72
   100
 73
     1
 74
     1
 75
     0
 76
     0
 77
     0
 78
     0
281
     0
 65
     1
110
0.0
120
0.0
130
0.0
111
1.0
121
0.0
131
0.0
112
0.0
122
1.0
132
0.0
 79
     0
146
0.0
  0
ENDTAB
  0
TABLE
  2
LTYPE
  5
5
330
0
100
AcDbSymbolTable
 70
    35
  0
LTYPE
  5
13
330
5
100
AcDbSymbolTableRecord
100
AcDbLinetypeTableRecord
  2
ByBlock
 70
     0
  3

 72
    65
 73
     0
 40
0.0
  0
LTYPE
  5
14
330
5
100
AcDbSymbolTableRecord
100
AcDbLinetypeTableRecord
  2
ByLayer
 70
     0
  3

 72
    65
 73
     0
 40
0.0
  0
LTYPE
  5
15
330
5
100
AcDbSymbolTableRecord
100
AcDbLinetypeTableRecord
  2
CONTINUOUS
 70
     0
  3
実線
 72
    65
 73
     0
 40
0.0
  0
LTYPE
  5
26
330
5
100
AcDbSymbolTableRecord
100
AcDbLinetypeTableRecord
  2
DASHED1
 70
     0
  3
--  --  --  --  --  --  --  --  
 72
    65
 73
     2
 40
2.5
 49
1.25
 74
     0
 49
-1.25
 74
     0
  0
LTYPE
  5
27
330
5
100
AcDbSymbolTableRecord
100
AcDbLinetypeTableRecord
  2
DASHED2
 70
     0
  3
----    ----    ----    ----    
 72
    65
 73
     2
 40
5.0
 49
2.5
 74
     0
 49
-2.5
 74
     0
  0
LTYPE
  5
28
330
5
100
AcDbSymbolTableRecord
100
AcDbLinetypeTableRecord
  2
DASHED3
 70
     0
  3
------  ------  ------  ------  
 72
    65
 73
     2
 40
5.0
 49
3.75
 74
     0
 49
-1.25
 74
     0
  0
LTYPE
  5
29
330
5
100
AcDbSymbolTableRecord
100
AcDbLinetypeTableRecord
  2
CENTER1
 70
     0
  3
----- - ----- - ----- - ----- - 
 72
    65
 73
     4
 40
10.0
 49
6.25
 74
     0
 49
-1.25
 74
     0
 49
1.25
 74
     0
 49
-1.25
 74
     0
  0
LTYPE
  5
2A
330
5
100
AcDbSymbolTableRecord
100
AcDbLinetypeTableRecord
  2
CENTER2
 70
     0
  3
----------  --  ----------  --  
 72
    65
 73
     4
 40
20.0
 49
12.5
 74
     0
 49
-2.5
 74
     0
 49
2.5
 74
     0
 49
-2.5
 74
     0
  0
LTYPE
  5
2B
330
5
100
AcDbSymbolTableRecord
100
AcDbLinetypeTableRecord
  2
PHANTOM1
 70
     0
  3
--- - - --- - - --- - - --- - - 
 72
    65
 73
     6
 40
10.0
 49
3.25
 74
     0
 49
-1.25
 74
     0
 49
1.25
 74
     0
 49
-1.25
 74
     0
 49
1.25
 74
     0
 49
-1.25
 74
     0
  0
LTYPE
  5
2C
330
5
100
AcDbSymbolTableRecord
100
AcDbLinetypeTableRecord
  2
PHANTOM2
 70
     0
  3
--------  -  -  --------  -  -  
 72
    65
 73
     6
 40
20.0
 49
10.0
 74
     0
 49
-2.5
 74
     0
 49
1.25
 74
     0
 49
-2.5
 74
     0
 49
1.25
 74
     0
 49
-2.5
 74
     0
  0
LTYPE
  5
2D
330
5
100
AcDbSymbolTableRecord
100
AcDbLinetypeTableRecord
  2
DOT
 70
     0
  3
-   -   -   -   -   -   -   -   
 72
    65
 73
     2
 40
2.5
 49
0.625
 74
     0
 49
-1.875
 74
     0
  0
LTYPE
  5
2E
330
5
100
AcDbSymbolTableRecord
100
AcDbLinetypeTableRecord
  2
DUMMY
 70
     0
  3
ダミー
 72
    65
 73
     0
 40
0.0
  0
LTYPE
  5
2F
330
5
100
AcDbSymbolTableRecord
100
AcDbLinetypeTableRecord
  2
RAND1
 70
     0
  3
ランダム線1
 72
    65
 73
     4
 40
10.0
 49
1.0
 74
     0
 49
-2.0
 74
     0
 49
3.0
 74
     0
 49
-4.0
 74
     0
  0
LTYPE
  5
30
330
5
100
AcDbSymbolTableRecord
100
AcDbLinetypeTableRecord
  2
RAND2
 70
     0
  3
ランダム線2
 72
    65
 73
     4
 40
14.0
 49
2.0
 74
     0
 49
-3.0
 74
     0
 49
4.0
 74
     0
 49
-5.0
 74
     0
  0
LTYPE
  5
31
330
5
100
AcDbSymbolTableRecord
100
AcDbLinetypeTableRecord
  2
RAND3
 70
     0
  3
ランダム線3
 72
    65
 73
     4
 40
18.0
 49
3.0
 74
     0
 49
-4.0
 74
     0
 49
5.0
 74
     0
 49
-6.0
 74
     0
  0
LTYPE
  5
32
330
5
100
AcDbSymbolTableRecord
100
AcDbLinetypeTableRecord
  2
RAND4
 70
     0
  3
ランダム線4
 72
    65
 73
     4
 40
22.0
 49
4.0
 74
     0
 49
-5.0
 74
     0
 49
6.0
 74
     0
 49
-7.0
 74
     0
  0
LTYPE
  5
33
330
5
100
AcDbSymbolTableRecord
100
AcDbLinetypeTableRecord
  2
RAND5
 70
     0
  3
ランダム線5
 72
    65
 73
     4
 40
26.0
 49
5.0
 74
     0
 49
-6.0
 74
     0
 49
7.0
 74
     0
 49
-8.0
 74
     0
  0
LTYPE
  5
34
330
5
100
AcDbSymbolTableRecord
100
AcDbLinetypeTableRecord
  2
LONG1
 70
     0
  3
----------  --  ----------  --  
 72
    65
 73
     4
 40
40.0
 49
32.5
 74
     0
 49
-2.5
 74
     0
 49
2.5
 74
     0
 49
-2.5
 74
     0
  0
LTYPE
  5
35
330
5
100
AcDbSymbolTableRecord
100
AcDbLinetypeTableRecord
  2
LONG2
 70
     0
  3
--------  -  -  --------  -  -  
 72
    65
 73
     6
 40
40.0
 49
30.0
 74
     0
 49
-2.5
 74
     0
 49
1.25
 74
     0
 49
-2.5
 74
     0
 49
1.25
 74
     0
 49
-2.5
 74
     0
  0
LTYPE
  5
36
330
5
100
AcDbSymbolTableRecord
100
AcDbLinetypeTableRecord
  2
LONG3
 70
     0
  3
+++++++++++++++..+++++++++++++++
 72
    65
 73
     2
 40
40.0
 49
37.5
 74
     0
 49
-2.5
 74
     0
  0
LTYPE
  5
37
330
5
100
AcDbSymbolTableRecord
100
AcDbLinetypeTableRecord
  2
LONG4
 70
     0
  3
+++++++++++++++..+++++++++++++++
 72
    65
 73
     2
 40
80.0
 49
75.0
 74
     0
 49
-5.0
 74
     0
  0
LTYPE
  5
38
330
5
100
AcDbSymbolTableRecord
100
AcDbLinetypeTableRecord
  2
LONG5
 70
     0
  3
----------  --  ----------  --  
 72
    65
 73
     4
 40
60.0
 49
37.5
 74
     0
 49
-7.5
 74
     0
 49
7.5
 74
     0
 49
-7.5
 74
     0
  0
LTYPE
  5
39
330
5
100
AcDbSymbolTableRecord
100
AcDbLinetypeTableRecord
  2
DASHED
 70
     0
  3
-------   -------------   ------
 72
    65
 73
     2
 40
7.5
 49
6.0
 74
     0
 49
-1.5
 74
     0
  0
LTYPE
  5
3A
330
5
100
AcDbSymbolTableRecord
100
AcDbLinetypeTableRecord
  2
DASHED_SPACED
 70
     0
  3
----        --------        ----
 72
    65
 73
     2
 40
12.0
 49
6.0
 74
     0
 49
-6.0
 74
     0
  0
LTYPE
  5
3B
330
5
100
AcDbSymbolTableRecord
100
AcDbLinetypeTableRecord
  2
LONG_DASHED_DOTTED
 70
     0
  3
------------- --- --------------
 72
    65
 73
     4
 40
15.25
 49
12.0
 74
     0
 49
-1.5
 74
     0
 49
0.25
 74
     0
 49
-1.5
 74
     0
  0
LTYPE
  5
3C
330
5
100
AcDbSymbolTableRecord
100
AcDbLinetypeTableRecord
  2
LONG_DASHED_DOUBLE-DOTTED
 70
     0
  3
----------- --- --- ------------
 72
    65
 73
     6
 40
17.0
 49
12.0
 74
     0
 49
-1.5
 74
     0
 49
0.25
 74
     0
 49
-1.5
 74
     0
 49
0.25
 74
     0
 49
-1.5
 74
     0
  0
LTYPE
  5
3D
330
5
100
AcDbSymbolTableRecord
100
AcDbLinetypeTableRecord
  2
LONG_DASHED_TRIPLICATE-DOTTED
 70
     0
  3
--------- --- --- --- ----------
 72
    65
 73
     8
 40
18.75
 49
12.0
 74
     0
 49
-1.5
 74
     0
 49
0.25
 74
     0
 49
-1.5
 74
     0
 49
0.25
 74
     0
 49
-1.5
 74
     0
 49
0.25
 74
     0
 49
-1.5
 74
     0
  0
LTYPE
  5
3E
330
5
100
AcDbSymbolTableRecord
100
AcDbLinetypeTableRecord
  2
DOTTED
 70
     0
  3
   -       -       -       -    
 72
    65
 73
     2
 40
1.75
 49
0.25
 74
     0
 49
-1.5
 74
     0
  0
LTYPE
  5
3F
330
5
100
AcDbSymbolTableRecord
100
AcDbLinetypeTableRecord
  2
CHAIN
 70
     0
  3
-------------- -- --------------
 72
    65
 73
     4
 40
18.5
 49
12.0
 74
     0
 49
-1.5
 74
     0
 49
3.5
 74
     0
 49
-1.5
 74
     0
  0
LTYPE
  5
40
330
5
100
AcDbSymbolTableRecord
100
AcDbLinetypeTableRecord
  2
CHAIN_DOUBLE_DASH
 70
     0
  3
------------ -- -- -------------
 72
    65
 73
     6
 40
23.5
 49
12.0
 74
     0
 49
-1.5
 74
     0
 49
3.5
 74
     0
 49
-1.5
 74
     0
 49
3.5
 74
     0
 49
-1.5
 74
     0
  0
LTYPE
  5
41
330
5
100
AcDbSymbolTableRecord
100
AcDbLinetypeTableRecord
  2
DASHED_DOTTED
 70
     0
  3
-----------     -     ----------
 72
    65
 73
     4
 40
9.25
 49
6.0
 74
     0
 49
-1.5
 74
     0
 49
0.25
 74
     0
 49
-1.5
 74
     0
  0
LTYPE
  5
42
330
5
100
AcDbSymbolTableRecord
100
AcDbLinetypeTableRecord
  2
DOUBLE-DASHED_DOTTED
 70
     0
  3
------   -----------   -   -----
 72
    65
 73
     6
 40
16.75
 49
6.0
 74
     0
 49
-1.5
 74
     0
 49
6.0
 74
     0
 49
-1.5
 74
     0
 49
0.25
 74
     0
 49
-1.5
 74
     0
  0
LTYPE
  5
43
330
5
100
AcDbSymbolTableRecord
100
AcDbLinetypeTableRecord
  2
DASHED_DOUBLE-DOTTED
 70
     0
  3
---------    -    -    ---------
 72
    65
 73
     6
 40
11.0
 49
6.0
 74
     0
 49
-1.5
 74
     0
 49
0.25
 74
     0
 49
-1.5
 74
     0
 49
0.25
 74
     0
 49
-1.5
 74
     0
  0
LTYPE
  5
44
330
5
100
AcDbSymbolTableRecord
100
AcDbLinetypeTableRecord
  2
DOUBLE-DASHED_DOUBLE-DOTTED
 70
     0
  3
-----   ---------   -   -   ----
 72
    65
 73
     8
 40
18.5
 49
6.0
 74
     0
 49
-1.5
 74
     0
 49
6.0
 74
     0
 49
-1.5
 74
     0
 49
0.25
 74
     0
 49
-1.5
 74
     0
 49
0.25
 74
     0
 49
-1.5
 74
     0
  0
LTYPE
  5
45
330
5
100
AcDbSymbolTableRecord
100
AcDbLinetypeTableRecord
  2
DASHED_TRIPLICATE-DOTTED
 70
     0
  3
-------    -    -    -    ------
 72
    65
 73
     8
 40
12.75
 49
6.0
 74
     0
 49
-1.5
 74
     0
 49
0.25
 74
     0
 49
-1.5
 74
     0
 49
0.25
 74
     0
 49
-1.5
 74
     0
 49
0.25
 74
     0
 49
-1.5
 74
     0
  0
LTYPE
  5
46
330
5
100
AcDbSymbolTableRecord
100
AcDbLinetypeTableRecord
  2
DOUBLE-DASHED_TRIPLICATE-DOTTED
 70
     0
  3
-----  ---------  -  -  -  -----
 72
    65
 73
    10
 40
20.25
 49
6.0
 74
     0
 49
-1.5
 74
     0
 49
6.0
 74
     0
 49
-1.5
 74
     0
 49
0.25
 74
     0
 49
-1.5
 74
     0
 49
0.25
 74
     0
 49
-1.5
 74
     0
 49
0.25
 74
     0
 49
-1.5
 74
     0
  0
LTYPE
  5
47
330
5
100
AcDbSymbolTableRecord
100
AcDbLinetypeTableRecord
  2
UNDEFINED
 70
     0
  3
--------------------------------
 72
    65
 73
     0
 40
0.0
  0
ENDTAB
  0
TABLE
  2
LAYER
  5
2
330
0
100
AcDbSymbolTable
 70
    14
  0
LAYER
  5
10
330
2
100
AcDbSymbolTableRecord
100
AcDbLayerTableRecord
  2
0
 70
     0
 62
     7
  6
CONTINUOUS
370
    -3
390
F
  0
LAYER
  5
49
330
2
100
AcDbSymbolTableRecord
100
AcDbLayerTableRecord
  2
_4-2_
 70
     0
 62
     7
  6
CONTINUOUS
370
    -3
390
F
  0
LAYER
  5
4A
330
2
100
AcDbSymbolTableRecord
100
AcDbLayerTableRecord
  2
_4-3_
 70
     0
 62
     7
  6
CONTINUOUS
370
    -3
390
F
  0
LAYER
  5
4B
330
2
100
AcDbSymbolTableRecord
100
AcDbLayerTableRecord
  2
_4-4_
 70
     0
 62
     7
  6
CONTINUOUS
370
    -3
390
F
  0
LAYER
  5
4C
330
2
100
AcDbSymbolTableRecord
100
AcDbLayerTableRecord
  2
_4-A_
 70
     0
 62
     7
  6
CONTINUOUS
370
    -3
390
F
  0
LAYER
  5
4D
330
2
100
AcDbSymbolTableRecord
100
AcDbLayerTableRecord
  2
_4-B_
 70
     0
 62
     7
  6
CONTINUOUS
370
    -3
390
F
  0
LAYER
  5
4E
330
2
100
AcDbSymbolTableRecord
100
AcDbLayerTableRecord
  2
_4-D_
 70
     0
 62
     7
  6
CONTINUOUS
370
    -3
390
F
  0
LAYER
  5
4F
330
2
100
AcDbSymbolTableRecord
100
AcDbLayerTableRecord
  2
_4-E_
 70
     0
 62
     7
  6
CONTINUOUS
370
    -3
390
F
  0
LAYER
  5
50
330
2
100
AcDbSymbolTableRecord
100
AcDbLayerTableRecord
  2
_F-2_
 70
     0
 62
     7
  6
CONTINUOUS
370
    -3
390
F
  0
LAYER
  5
51
330
2
100
AcDbSymbolTableRecord
100
AcDbLayerTableRecord
  2
_F-5_
 70
     0
 62
     7
  6
CONTINUOUS
370
    -3
390
F
  0
LAYER
  5
52
330
2
100
AcDbSymbolTableRecord
100
AcDbLayerTableRecord
  2
_F-7_
 70
     0
 62
     7
  6
CONTINUOUS
370
    -3
390
F
  0
LAYER
  5
53
330
2
100
AcDbSymbolTableRecord
100
AcDbLayerTableRecord
  2
_F-8_
 70
     0
 62
     7
  6
CONTINUOUS
370
    -3
390
F
  0
LAYER
  5
54
330
2
100
AcDbSymbolTableRecord
100
AcDbLayerTableRecord
  2
_F-A_
 70
     0
 62
     7
  6
CONTINUOUS
370
    -3
390
F
  0
LAYER
  5
55
330
2
100
AcDbSymbolTableRecord
100
AcDbLayerTableRecord
  2
ADD_LINE
 70
     0
 62
     7
  6
CONTINUOUS
370
    -3
390
F
  0
ENDTAB
  0
TABLE
  2
STYLE
  5
3
330
0
100
AcDbSymbolTable
 70
     2
  0
STYLE
  5
11
330
3
100
AcDbSymbolTableRecord
100
AcDbTextStyleTableRecord
  2
STANDARD
 70
     0
 40
0.0
 41
1.0
 50
0.0
 71
     0
 42
0.2
  3
txt
  4
bigfont.shx
  0
STYLE
  5
48
330
3
100
AcDbSymbolTableRecord
100
AcDbTextStyleTableRecord
  2
TATEGAKI
 70
     4
 40
0.0
 41
1.0
 50
0.0
 71
     0
 42
1.0
  3
txt
  4
bigfont.shx
  0
ENDTAB
  0
TABLE
  2
VIEW
  5
6
330
0
100
AcDbSymbolTable
 70
     0
  0
ENDTAB
  0
TABLE
  2
UCS
  5
7
330
0
100
AcDbSymbolTable
 70
     0
  0
ENDTAB
  0
TABLE
  2
APPID
  5
9
330
0
100
AcDbSymbolTable
 70
     1
  0
APPID
  5
12
330
9
100
AcDbSymbolTableRecord
100
AcDbRegAppTableRecord
  2
ACAD
 70
     0
  0
ENDTAB
  0
TABLE
  2
DIMSTYLE
  5
A
330
0
100
AcDbSymbolTable
 70
     1
100
AcDbDimStyleTable
 71
     0
  0
DIMSTYLE
105
4C0
330
A
100
AcDbSymbolTableRecord
100
AcDbDimStyleTableRecord
  2
Standard
 70
     0
340
11
  0
ENDTAB
  0
TABLE
  2
BLOCK_RECORD
  5
1
330
0
100
AcDbSymbolTable
 70
     0
  0
BLOCK_RECORD
  5
22
330
1
100
AcDbSymbolTableRecord
100
AcDbBlockTableRecord
  2
*Model_Space
340
25
  0
BLOCK_RECORD
  5
1E
330
1
100
AcDbSymbolTableRecord
100
AcDbBlockTableRecord
  2
*Paper_Space
340
21
  0
ENDTAB
  0
ENDSEC
  0
SECTION
  2
BLOCKS
  0
BLOCK
  5
23
330
22
100
AcDbEntity
  8
0
100
AcDbBlockBegin
  2
*Model_Space
 70
     0
 10
0.0
 20
0.0
 30
0.0
  3
*Model_Space
  1

  0
ENDBLK
  5
24
330
22
100
AcDbEntity
  8
0
100
AcDbBlockEnd
  0
BLOCK
  5
1F
330
1E
100
AcDbEntity
 67
     1
  8
0
100
AcDbBlockBegin
  2
*Paper_Space
 70
     0
 10
0.0
 20
0.0
 30
0.0
  3
*Paper_Space
  1

  0
ENDBLK
  5
20
330
1E
100
AcDbEntity
 67
     1
  8
0
100
AcDbBlockEnd
  0
ENDSEC
  0
SECTION
  2
ENTITIES
  0
LINE
  5
59
330
22
100
AcDbEntity
  8
ADD_LINE
  6
DOT
 62
   136
100
AcDbLine
 10
1508.646121059817
 20
25.56272452674804
 30
0.0
 11
508.6461210598165
 21
25.56272452674804
 31
0.0
  0
LINE
  5
5A
330
22
100
AcDbEntity
  8
ADD_LINE
  6
DOT
 62
   136
100
AcDbLine
 10
508.6461210598188
 20
1455.562724526749
 30
0.0
 11
508.6461210598188
 21
25.56272452674804
 31
0.0
  0
LINE
  5
5B
330
22
100
AcDbEntity
  8
ADD_LINE
  6
DOT
 62
   136
100
AcDbLine
 10
508.6461210598188
 20
1455.562724526749
 30
0.0
 11
1508.646121059817
 21
1455.562724526749
 31
0.0
  0
LINE
  5
5C
330
22
100
AcDbEntity
  8
ADD_LINE
  6
DOT
 62
   136
100
AcDbLine
 10
1508.646121059817
 20
1455.562724526749
 30
0.0
 11
1508.646121059817
 21
25.56272452674804
 31
0.0
  0
LINE
  5
5D
330
22
100
AcDbEntity
  8
ADD_LINE
  6
DOT
 62
   136
100
AcDbLine
 10
763.6461210598188
 20
805.5627245267485
 30
0.0
 11
763.6461210598188
 21
765.5627245267486
 31
0.0
  0
LINE
  5
5E
330
22
100
AcDbEntity
  8
ADD_LINE
  6
DOT
 62
   136
100
AcDbLine
 10
913.6461210598188
 20
805.5627245267485
 30
0.0
 11
913.6461210598188
 21
765.5627245267486
 31
0.0
  0
LINE
  5
5F
330
22
100
AcDbEntity
  8
ADD_LINE
  6
DOT
 62
   136
100
AcDbLine
 10
628.6461210598186
 20
805.5627245267485
 30
0.0
 11
628.6461210598186
 21
765.5627245267486
 31
0.0
  0
LINE
  5
60
330
22
100
AcDbEntity
  8
ADD_LINE
  6
DOT
 62
   136
100
AcDbLine
 10
608.6461210598187
 20
785.5627245267486
 30
0.0
 11
1408.646121059817
 21
785.5627245267486
 31
0.0
  0
LINE
  5
61
330
22
100
AcDbEntity
  8
ADD_LINE
  6
DOT
 62
   136
100
AcDbLine
 10
1188.646121059817
 20
805.5627245267485
 30
0.0
 11
1188.646121059817
 21
765.5627245267486
 31
0.0
  0
LINE
  5
62
330
22
100
AcDbEntity
  8
ADD_LINE
  6
DOT
 62
   136
100
AcDbLine
 10
1293.646121059817
 20
805.5627245267485
 30
0.0
 11
1293.646121059817
 21
765.5627245267486
 31
0.0
  0
LINE
  5
63
330
22
100
AcDbEntity
  8
ADD_LINE
  6
DOT
 62
   136
100
AcDbLine
 10
763.6461210598188
 20
165.562724526748
 30
0.0
 11
763.6461210598188
 21
125.562724526748
 31
0.0
  0
LINE
  5
64
330
22
100
AcDbEntity
  8
ADD_LINE
  6
DOT
 62
   136
100
AcDbLine
 10
913.6461210598188
 20
165.562724526748
 30
0.0
 11
913.6461210598188
 21
125.562724526748
 31
0.0
  0
LINE
  5
65
330
22
100
AcDbEntity
  8
ADD_LINE
  6
DOT
 62
   136
100
AcDbLine
 10
628.6461210598186
 20
165.562724526748
 30
0.0
 11
628.6461210598186
 21
125.562724526748
 31
0.0
  0
LINE
  5
66
330
22
100
AcDbEntity
  8
ADD_LINE
  6
DOT
 62
   136
100
AcDbLine
 10
608.6461210598187
 20
145.562724526748
 30
0.0
 11
1408.646121059819
 21
145.562724526748
 31
0.0
  0
LINE
  5
67
330
22
100
AcDbEntity
  8
ADD_LINE
  6
DOT
 62
   136
100
AcDbLine
 10
1188.646121059819
 20
165.562724526748
 30
0.0
 11
1188.646121059819
 21
125.562724526748
 31
0.0
  0
LINE
  5
68
330
22
100
AcDbEntity
  8
ADD_LINE
  6
DOT
 62
   136
100
AcDbLine
 10
1293.646121059819
 20
165.562724526748
 30
0.0
 11
1293.646121059819
 21
125.562724526748
 31
0.0
  0
LINE
  5
69
330
22
100
AcDbEntity
  8
_F-7_
  6
Continuous
 62
     1
100
AcDbLine
 10
608.6461210598187
 20
1355.562724526748
 30
0.0
 11
608.6461210598187
 21
765.5627245267486
 31
0.0
  0
LINE
  5
6A
330
22
100
AcDbEntity
  8
_F-7_
  6
Continuous
 62
     1
100
AcDbLine
 10
1408.646121059817
 20
1355.562724526748
 30
0.0
 11
1408.646121059817
 21
765.5627245267486
 31
0.0
  0
LINE
  5
6B
330
22
100
AcDbEntity
  8
_F-7_
  6
Continuous
 62
     1
100
AcDbLine
 10
608.6461210598187
 20
1355.562724526748
 30
0.0
 11
1408.646121059817
 21
1355.562724526748
 31
0.0
  0
TEXT
  5
6C
330
22
100
AcDbEntity
  8
_F-A_
 62
     7
100
AcDbText
 10
628.6461210598186
 20
775.5627245267486
 30
0.0
 40
20.0
  1
１１０仕様
100
AcDbText
  0
TEXT
  5
6D
330
22
100
AcDbEntity
  8
_F-A_
 62
     7
100
AcDbText
 10
763.6461210598188
 20
775.5627245267486
 30
0.0
 40
17.5
  1
下地：ＲＣ
100
AcDbText
  0
LINE
  5
6E
330
22
100
AcDbEntity
  8
_F-2_
  6
Continuous
 62
     7
100
AcDbLine
 10
898.6461210598188
 20
805.5627245267485
 30
0.0
 11
898.6461210598188
 21
765.5627245267486
 31
0.0
  0
LINE
  5
6F
330
22
100
AcDbEntity
  8
_F-5_
  6
Continuous
 62
     6
100
AcDbLine
 10
608.6461210598187
 20
805.5627245267485
 30
0.0
 11
1408.646121059817
 21
805.5627245267485
 31
0.0
  0
LINE
  5
70
330
22
100
AcDbEntity
  8
_F-7_
  6
Continuous
 62
     1
100
AcDbLine
 10
608.6461210598187
 20
765.5627245267486
 30
0.0
 11
1408.646121059817
 21
765.5627245267486
 31
0.0
  0
LINE
  5
71
330
22
100
AcDbEntity
  8
_F-5_
  6
Continuous
 62
     6
100
AcDbLine
 10
748.6461210598188
 20
805.5627245267485
 30
0.0
 11
748.6461210598188
 21
765.5627245267486
 31
0.0
  0
LINE
  5
72
330
22
100
AcDbEntity
  8
_F-5_
  6
Continuous
 62
     6
100
AcDbLine
 10
746.1461210598188
 20
805.5627245267485
 30
0.0
 11
746.1461210598188
 21
765.5627245267486
 31
0.0
  0
TEXT
  5
73
330
22
100
AcDbEntity
  8
_F-A_
 62
     7
100
AcDbText
 10
913.6461210598188
 20
775.5627245267486
 30
0.0
 40
17.5
  1
部位：エキスパンション
100
AcDbText
  0
TEXT
  5
74
330
22
100
AcDbEntity
  8
_F-A_
 62
     7
100
AcDbText
 10
1293.646121059817
 20
775.5627245267486
 30
0.0
 40
15.0
  1
図番
100
AcDbText
  0
LINE
  5
75
330
22
100
AcDbEntity
  8
_F-2_
  6
Continuous
 62
     7
100
AcDbLine
 10
1173.646121059817
 20
805.5627245267485
 30
0.0
 11
1173.646121059817
 21
765.5627245267486
 31
0.0
  0
LINE
  5
76
330
22
100
AcDbEntity
  8
_F-2_
  6
Continuous
 62
     7
100
AcDbLine
 10
1278.646121059817
 20
805.5627245267485
 30
0.0
 11
1278.646121059817
 21
765.5627245267486
 31
0.0
  0
TEXT
  5
77
330
22
100
AcDbEntity
  8
_F-A_
 62
     7
100
AcDbText
 10
1188.646121059817
 20
775.5627245267486
 30
0.0
 40
15.0
  1
Ｓ＝１：８
100
AcDbText
  0
LINE
  5
78
330
22
100
AcDbEntity
  8
_F-7_
  6
Continuous
 62
     1
100
AcDbLine
 10
1408.646121059819
 20
715.5627245267486
 30
0.0
 11
1408.646121059819
 21
125.562724526748
 31
0.0
  0
LINE
  5
79
330
22
100
AcDbEntity
  8
_F-7_
  6
Continuous
 62
     1
100
AcDbLine
 10
608.6461210598187
 20
715.5627245267486
 30
0.0
 11
608.6461210598187
 21
125.562724526748
 31
0.0
  0
TEXT
  5
7A
330
22
100
AcDbEntity
  8
_F-A_
 62
     7
100
AcDbText
 10
628.6461210598186
 20
135.562724526748
 30
0.0
 40
20.0
  1
１１０仕様
100
AcDbText
  0
LINE
  5
7B
330
22
100
AcDbEntity
  8
_F-2_
  6
Continuous
 62
     7
100
AcDbLine
 10
898.6461210598188
 20
165.562724526748
 30
0.0
 11
898.6461210598188
 21
125.562724526748
 31
0.0
  0
LINE
  5
7C
330
22
100
AcDbEntity
  8
_F-5_
  6
Continuous
 62
     6
100
AcDbLine
 10
608.6461210598187
 20
165.562724526748
 30
0.0
 11
1408.646121059819
 21
165.562724526748
 31
0.0
  0
LINE
  5
7D
330
22
100
AcDbEntity
  8
_F-7_
  6
Continuous
 62
     1
100
AcDbLine
 10
608.6461210598187
 20
125.562724526748
 30
0.0
 11
1408.646121059819
 21
125.562724526748
 31
0.0
  0
LINE
  5
7E
330
22
100
AcDbEntity
  8
_F-7_
  6
Continuous
 62
     1
100
AcDbLine
 10
608.6461210598187
 20
715.5627245267486
 30
0.0
 11
1408.646121059819
 21
715.5627245267486
 31
0.0
  0
LINE
  5
7F
330
22
100
AcDbEntity
  8
_F-5_
  6
Continuous
 62
     6
100
AcDbLine
 10
748.6461210598188
 20
165.562724526748
 30
0.0
 11
748.6461210598188
 21
125.562724526748
 31
0.0
  0
LINE
  5
80
330
22
100
AcDbEntity
  8
_F-5_
  6
Continuous
 62
     6
100
AcDbLine
 10
746.1461210598188
 20
165.562724526748
 30
0.0
 11
746.1461210598188
 21
125.562724526748
 31
0.0
  0
TEXT
  5
81
330
22
100
AcDbEntity
  8
_F-A_
 62
     7
100
AcDbText
 10
763.6461210598188
 20
135.562724526748
 30
0.0
 40
17.5
  1
下地：ＲＣ
100
AcDbText
  0
TEXT
  5
82
330
22
100
AcDbEntity
  8
_F-A_
 62
     7
100
AcDbText
 10
913.6461210598188
 20
135.562724526748
 30
0.0
 40
17.5
  1
部位：パイプ廻り
100
AcDbText
  0
TEXT
  5
83
330
22
100
AcDbEntity
  8
_F-A_
 62
     7
100
AcDbText
 10
1293.646121059819
 20
135.562724526748
 30
0.0
 40
15.0
  1
図番
100
AcDbText
  0
LINE
  5
84
330
22
100
AcDbEntity
  8
_F-2_
  6
Continuous
 62
     7
100
AcDbLine
 10
1173.646121059819
 20
165.562724526748
 30
0.0
 11
1173.646121059819
 21
125.562724526748
 31
0.0
  0
LINE
  5
85
330
22
100
AcDbEntity
  8
_F-2_
  6
Continuous
 62
     7
100
AcDbLine
 10
1278.646121059819
 20
165.562724526748
 30
0.0
 11
1278.646121059819
 21
125.562724526748
 31
0.0
  0
TEXT
  5
86
330
22
100
AcDbEntity
  8
_F-A_
 62
     7
100
AcDbText
 10
1188.646121059819
 20
135.562724526748
 30
0.0
 40
15.0
  1
Ｓ＝１：８
100
AcDbText
  0
TEXT
  5
87
330
22
100
AcDbEntity
  8
_F-A_
 62
     7
100
AcDbText
 10
1340.063789783926
 20
775.5627245267486
 30
0.0
 40
15.0
  1
１－１２
100
AcDbText
  0
TEXT
  5
88
330
22
100
AcDbEntity
  8
_F-A_
 62
     7
100
AcDbText
 10
1340.063789783926
 20
135.562724526748
 30
0.0
 40
15.0
  1
１－１３
100
AcDbText
  0
ARC
  5
89
330
22
100
AcDbEntity
  8
_4-4_
  6
Continuous
 62
     2
100
AcDbCircle
 10
1063.646121059818
 20
957.4377245267507
 30
0.0
 40
1.875
100
AcDbArc
 50
180.0
 51
270.0
  0
ARC
  5
8A
330
22
100
AcDbEntity
  8
_4-2_
  6
Continuous
 62
     7
100
AcDbCircle
 10
1063.646121059818
 20
957.4377245267507
 30
0.0
 40
5.0
100
AcDbArc
 50
180.0
 51
270.0
  0
LINE
  5
8B
330
22
100
AcDbEntity
  8
_4-2_
  6
Continuous
 62
     7
100
AcDbLine
 10
1091.147913517985
 20
955.5627245267485
 30
0.0
 11
1091.159300260187
 21
955.6445401184259
 31
0.0
  0
LINE
  5
8C
330
22
100
AcDbEntity
  8
_4-2_
  6
Continuous
 62
     7
100
AcDbLine
 10
1091.159300260187
 20
955.6445401184259
 30
0.0
 11
1091.179966997475
 21
955.7852113278135
 31
0.0
  0
LINE
  5
8D
330
22
100
AcDbEntity
  8
_4-2_
  6
Continuous
 62
     7
100
AcDbLine
 10
1091.179966997475
 20
955.7852113278135
 30
0.0
 11
1091.203507132393
 21
955.9247987717251
 31
0.0
  0
LINE
  5
8E
330
22
100
AcDbEntity
  8
_4-2_
  6
Continuous
 62
     7
100
AcDbLine
 10
1091.203507132393
 20
955.9247987717251
 30
0.0
 11
1091.231739271032
 21
956.0626165226448
 31
0.0
  0
LINE
  5
8F
330
22
100
AcDbEntity
  8
_4-2_
  6
Continuous
 62
     7
100
AcDbLine
 10
1091.231739271032
 20
956.0626165226448
 30
0.0
 11
1091.266482019489
 21
956.1979786530535
 31
0.0
  0
LINE
  5
90
330
22
100
AcDbEntity
  8
_4-2_
  6
Continuous
 62
     7
100
AcDbLine
 10
1091.266482019489
 20
956.1979786530535
 30
0.0
 11
1091.309553983857
 21
956.330199235442
 31
0.0
  0
LINE
  5
91
330
22
100
AcDbEntity
  8
_4-2_
  6
Continuous
 62
     7
100
AcDbLine
 10
1091.309553983857
 20
956.330199235442
 30
0.0
 11
1091.33906879529
 21
956.4051774248103
 31
0.0
  0
LINE
  5
92
330
22
100
AcDbEntity
  8
_4-2_
  6
Continuous
 62
     7
100
AcDbLine
 10
1091.33906879529
 20
956.4051774248103
 30
0.0
 11
1091.364656958579
 21
956.4627504495543
 31
0.0
  0
LINE
  5
93
330
22
100
AcDbEntity
  8
_4-2_
  6
Continuous
 62
     7
100
AcDbLine
 10
1091.364656958579
 20
956.4627504495543
 30
0.0
 11
1091.413666441504
 21
956.5600718889388
 31
0.0
  0
LINE
  5
94
330
22
100
AcDbEntity
  8
_4-2_
  6
Continuous
 62
     7
100
AcDbLine
 10
1091.413666441504
 20
956.5600718889388
 30
0.0
 11
1091.468108325459
 21
956.6550741407375
 31
0.0
  0
LINE
  5
95
330
22
100
AcDbEntity
  8
_4-2_
  6
Continuous
 62
     7
100
AcDbLine
 10
1091.468108325459
 20
956.6550741407375
 30
0.0
 11
1091.527098943678
 21
956.7479194631138
 31
0.0
  0
LINE
  5
96
330
22
100
AcDbEntity
  8
_4-2_
  6
Continuous
 62
     7
100
AcDbLine
 10
1091.527098943678
 20
956.7479194631138
 30
0.0
 11
1091.589754629392
 21
956.8387701142226
 31
0.0
  0
LINE
  5
97
330
22
100
AcDbEntity
  8
_4-2_
  6
Continuous
 62
     7
100
AcDbLine
 10
1091.589754629392
 20
956.8387701142226
 30
0.0
 11
1091.65519171584
 21
956.9277883522204
 31
0.0
  0
LINE
  5
98
330
22
100
AcDbEntity
  8
_4-2_
  6
Continuous
 62
     7
100
AcDbLine
 10
1091.65519171584
 20
956.9277883522204
 30
0.0
 11
1091.694071453139
 21
956.9786432567205
 31
0.0
  0
LINE
  5
99
330
22
100
AcDbEntity
  8
_4-2_
  6
Continuous
 62
     7
100
AcDbLine
 10
1091.694071453139
 20
956.9786432567205
 30
0.0
 11
1091.740456624348
 21
957.0378205022231
 31
0.0
  0
LINE
  5
9A
330
22
100
AcDbEntity
  8
_4-2_
  6
Continuous
 62
     7
100
AcDbLine
 10
1091.740456624348
 20
957.0378205022231
 30
0.0
 11
1091.821847211913
 21
957.1382697483862
 31
0.0
  0
LINE
  5
9B
330
22
100
AcDbEntity
  8
_4-2_
  6
Continuous
 62
     7
100
AcDbLine
 10
1091.821847211913
 20
957.1382697483862
 30
0.0
 11
1091.904879598927
 21
957.2369364748828
 31
0.0
  0
LINE
  5
9C
330
22
100
AcDbEntity
  8
_4-2_
  6
Continuous
 62
     7
100
AcDbLine
 10
1091.904879598927
 20
957.2369364748828
 30
0.0
 11
1091.989378435256
 21
957.3340742832989
 31
0.0
  0
LINE
  5
9D
330
22
100
AcDbEntity
  8
_4-2_
  6
Continuous
 62
     7
100
AcDbLine
 10
1091.989378435256
 20
957.3340742832989
 30
0.0
 11
1092.075168370771
 21
957.4299367752271
 31
0.0
  0
LINE
  5
9E
330
22
100
AcDbEntity
  8
_4-2_
  6
Continuous
 62
     7
100
AcDbLine
 10
1092.075168370771
 20
957.4299367752271
 30
0.0
 11
1092.162074055339
 21
957.5247775522621
 31
0.0
  0
LINE
  5
9F
330
22
100
AcDbEntity
  8
_4-2_
  6
Continuous
 62
     7
100
AcDbLine
 10
1092.162074055339
 20
957.5247775522621
 30
0.0
 11
1092.212921491534
 21
957.5794169853905
 31
0.0
  0
LINE
  5
A0
330
22
100
AcDbEntity
  8
_4-2_
  6
Continuous
 62
     7
100
AcDbLine
 10
1092.212921491534
 20
957.5794169853905
 30
0.0
 11
1092.266443412419
 21
957.6363358443904
 31
0.0
  0
LINE
  5
A1
330
22
100
AcDbEntity
  8
_4-2_
  6
Continuous
 62
     7
100
AcDbLine
 10
1092.266443412419
 20
957.6363358443904
 30
0.0
 11
1092.359691761361
 21
957.7336494374092
 31
0.0
  0
LINE
  5
A2
330
22
100
AcDbEntity
  8
_4-2_
  6
Continuous
 62
     7
100
AcDbLine
 10
1092.359691761361
 20
957.7336494374092
 30
0.0
 11
1092.454535644841
 21
957.8294906739095
 31
0.0
  0
LINE
  5
A3
330
22
100
AcDbEntity
  8
_4-2_
  6
Continuous
 62
     7
100
AcDbLine
 10
1092.454535644841
 20
957.8294906739095
 30
0.0
 11
1092.551403819531
 21
957.9233579482339
 31
0.0
  0
LINE
  5
A4
330
22
100
AcDbEntity
  8
_4-2_
  6
Continuous
 62
     7
100
AcDbLine
 10
1092.551403819531
 20
957.9233579482339
 30
0.0
 11
1092.650725042097
 21
958.0147496547349
 31
0.0
  0
LINE
  5
A5
330
22
100
AcDbEntity
  8
_4-2_
  6
Continuous
 62
     7
100
AcDbLine
 10
1092.650725042097
 20
958.0147496547349
 30
0.0
 11
1092.752928069211
 21
958.1031641877505
 31
0.0
  0
LINE
  5
A6
330
22
100
AcDbEntity
  8
_4-2_
  6
Continuous
 62
     7
100
AcDbLine
 10
1092.752928069211
 20
958.1031641877505
 30
0.0
 11
1092.813695220203
 21
958.1528828173029
 31
0.0
  0
LINE
  5
A7
330
22
100
AcDbEntity
  8
_4-2_
  6
Continuous
 62
     7
100
AcDbLine
 10
1092.813695220203
 20
958.1528828173029
 30
0.0
 11
1092.868478782418
 21
958.1958361626105
 31
0.0
  0
LINE
  5
A8
330
22
100
AcDbEntity
  8
_4-2_
  6
Continuous
 62
     7
100
AcDbLine
 10
1092.868478782418
 20
958.1958361626105
 30
0.0
 11
1092.965111969867
 21
958.2672191424876
 31
0.0
  0
LINE
  5
A9
330
22
100
AcDbEntity
  8
_4-2_
  6
Continuous
 62
     7
100
AcDbLine
 10
1092.965111969867
 20
958.2672191424876
 30
0.0
 11
1093.06446518436
 21
958.3347020730686
 31
0.0
  0
LINE
  5
AA
330
22
100
AcDbEntity
  8
_4-2_
  6
Continuous
 62
     7
100
AcDbLine
 10
1093.06446518436
 20
958.3347020730686
 30
0.0
 11
1093.166494345127
 21
958.3976865927091
 31
0.0
  0
LINE
  5
AB
330
22
100
AcDbEntity
  8
_4-2_
  6
Continuous
 62
     7
100
AcDbLine
 10
1093.166494345127
 20
958.3976865927091
 30
0.0
 11
1093.271155371397
 21
958.4555743397663
 31
0.0
  0
LINE
  5
AC
330
22
100
AcDbEntity
  8
_4-2_
  6
Continuous
 62
     7
100
AcDbLine
 10
1093.271155371397
 20
958.4555743397663
 30
0.0
 11
1093.3784041824
 21
958.5077669525842
 31
0.0
  0
LINE
  5
AD
330
22
100
AcDbEntity
  8
_4-2_
  6
Continuous
 62
     7
100
AcDbLine
 10
1093.3784041824
 20
958.5077669525842
 30
0.0
 11
1093.441776845629
 21
958.5351933719104
 31
0.0
  0
LINE
  5
AE
330
22
100
AcDbEntity
  8
_4-2_
  6
Continuous
 62
     7
100
AcDbLine
 10
1093.441776845629
 20
958.5351933719104
 30
0.0
 11
1093.512967778592
 21
958.5630238177008
 31
0.0
  0
LINE
  5
AF
330
22
100
AcDbEntity
  8
_4-2_
  6
Continuous
 62
     7
100
AcDbLine
 10
1093.512967778592
 20
958.5630238177008
 30
0.0
 11
1093.637898064752
 21
958.605092960456
 31
0.0
  0
LINE
  5
B0
330
22
100
AcDbEntity
  8
_4-2_
  6
Continuous
 62
     7
100
AcDbLine
 10
1093.637898064752
 20
958.605092960456
 30
0.0
 11
1093.765211876536
 21
958.6404701801436
 31
0.0
  0
LINE
  5
B1
330
22
100
AcDbEntity
  8
_4-2_
  6
Continuous
 62
     7
100
AcDbLine
 10
1093.765211876536
 20
958.6404701801436
 30
0.0
 11
1093.894461299542
 21
958.6700794762258
 31
0.0
  0
LINE
  5
B2
330
22
100
AcDbEntity
  8
_4-2_
  6
Continuous
 62
     7
100
AcDbLine
 10
1093.894461299542
 20
958.6700794762258
 30
0.0
 11
1094.02519841936
 21
958.6948448481688
 31
0.0
  0
LINE
  5
B3
330
22
100
AcDbEntity
  8
_4-2_
  6
Continuous
 62
     7
100
AcDbLine
 10
1094.02519841936
 20
958.6948448481688
 30
0.0
 11
1094.156975321583
 21
958.7156902954417
 31
0.0
  0
LINE
  5
B4
330
22
100
AcDbEntity
  8
_4-2_
  6
Continuous
 62
     7
100
AcDbLine
 10
1094.156975321583
 20
958.7156902954417
 30
0.0
 11
1094.2337058516
 21
958.7263486492132
 31
0.0
  0
LINE
  5
B5
330
22
100
AcDbEntity
  8
_4-2_
  6
Continuous
 62
     7
100
AcDbLine
 10
1094.2337058516
 20
958.7263486492132
 30
0.0
 11
1094.326491457905
 21
958.7380467737554
 31
0.0
  0
LINE
  5
B6
330
22
100
AcDbEntity
  8
_4-2_
  6
Continuous
 62
     7
100
AcDbLine
 10
1094.326491457905
 20
958.7380467737554
 30
0.0
 11
1094.486691623707
 21
958.7548634994368
 31
0.0
  0
LINE
  5
B7
330
22
100
AcDbEntity
  8
_4-2_
  6
Continuous
 62
     7
100
AcDbLine
 10
1094.486691623707
 20
958.7548634994368
 30
0.0
 11
1094.646938704071
 21
958.7666499039983
 31
0.0
  0
LINE
  5
B8
330
22
100
AcDbEntity
  8
_4-2_
  6
Continuous
 62
     7
100
AcDbLine
 10
1094.646938704071
 20
958.7666499039983
 30
0.0
 11
1094.806956101964
 21
958.772491210991
 31
0.0
  0
LINE
  5
B9
330
22
100
AcDbEntity
  8
_4-2_
  6
Continuous
 62
     7
100
AcDbLine
 10
1094.806956101964
 20
958.772491210991
 30
0.0
 11
1094.96646722036
 21
958.7714726439592
 31
0.0
  0
LINE
  5
BA
330
22
100
AcDbEntity
  8
_4-2_
  6
Continuous
 62
     7
100
AcDbLine
 10
1094.96646722036
 20
958.7714726439592
 30
0.0
 11
1095.12519546223
 21
958.7626794264586
 31
0.0
  0
LINE
  5
BB
330
22
100
AcDbEntity
  8
_4-2_
  6
Continuous
 62
     7
100
AcDbLine
 10
1095.12519546223
 20
958.7626794264586
 30
0.0
 11
1095.216790134878
 21
958.7536565459709
 31
0.0
  0
LINE
  5
BC
330
22
100
AcDbEntity
  8
_4-2_
  6
Continuous
 62
     7
100
AcDbLine
 10
1095.216790134878
 20
958.7536565459709
 30
0.0
 11
1095.283880254606
 21
958.7451004296664
 31
0.0
  0
LINE
  5
BD
330
22
100
AcDbEntity
  8
_4-2_
  6
Continuous
 62
     7
100
AcDbLine
 10
1095.283880254606
 20
958.7451004296664
 30
0.0
 11
1095.399161542587
 21
958.727000660142
 31
0.0
  0
LINE
  5
BE
330
22
100
AcDbEntity
  8
_4-2_
  6
Continuous
 62
     7
100
AcDbLine
 10
1095.399161542587
 20
958.727000660142
 30
0.0
 11
1095.514143328489
 21
958.7055534841804
 31
0.0
  0
LINE
  5
BF
330
22
100
AcDbEntity
  8
_4-2_
  6
Continuous
 62
     7
100
AcDbLine
 10
1095.514143328489
 20
958.7055534841804
 30
0.0
 11
1095.6290533509
 21
958.6817942179116
 31
0.0
  0
LINE
  5
C0
330
22
100
AcDbEntity
  8
_4-2_
  6
Continuous
 62
     7
100
AcDbLine
 10
1095.6290533509
 20
958.6817942179116
 30
0.0
 11
1095.744119348413
 21
958.6567581774714
 31
0.0
  0
LINE
  5
C1
330
22
100
AcDbEntity
  8
_4-2_
  6
Continuous
 62
     7
100
AcDbLine
 10
1095.744119348413
 20
958.6567581774714
 30
0.0
 11
1095.859569059618
 21
958.6314806789868
 31
0.0
  0
LINE
  5
C2
330
22
100
AcDbEntity
  8
_4-2_
  6
Continuous
 62
     7
100
AcDbLine
 10
1095.859569059618
 20
958.6314806789868
 30
0.0
 11
1095.926795450577
 21
958.6171170621808
 31
0.0
  0
LINE
  5
C3
330
22
100
AcDbEntity
  8
_4-2_
  6
Continuous
 62
     7
100
AcDbLine
 10
1095.926795450577
 20
958.6171170621808
 30
0.0
 11
1096.003114970158
 21
958.6013209862469
 31
0.0
  0
LINE
  5
C4
330
22
100
AcDbEntity
  8
_4-2_
  6
Continuous
 62
     7
100
AcDbLine
 10
1096.003114970158
 20
958.6013209862469
 30
0.0
 11
1096.134863734885
 21
958.5742275385998
 31
0.0
  0
LINE
  5
C5
330
22
100
AcDbEntity
  8
_4-2_
  6
Continuous
 62
     7
100
AcDbLine
 10
1096.134863734885
 20
958.5742275385998
 30
0.0
 11
1096.265929499782
 21
958.5453943147582
 31
0.0
  0
LINE
  5
C6
330
22
100
AcDbEntity
  8
_4-2_
  6
Continuous
 62
     7
100
AcDbLine
 10
1096.265929499782
 20
958.5453943147582
 30
0.0
 11
1096.395277593076
 21
958.5125905386915
 31
0.0
  0
LINE
  5
C7
330
22
100
AcDbEntity
  8
_4-2_
  6
Continuous
 62
     7
100
AcDbLine
 10
1096.395277593076
 20
958.5125905386915
 30
0.0
 11
1096.521873342984
 21
958.4735854343785
 31
0.0
  0
LINE
  5
C8
330
22
100
AcDbEntity
  8
_4-2_
  6
Continuous
 62
     7
100
AcDbLine
 10
1096.521873342984
 20
958.4735854343785
 30
0.0
 11
1096.644682077734
 21
958.4261482257964
 31
0.0
  0
LINE
  5
C9
330
22
100
AcDbEntity
  8
_4-2_
  6
Continuous
 62
     7
100
AcDbLine
 10
1096.644682077734
 20
958.4261482257964
 30
0.0
 11
1096.713768219059
 21
958.3938920128844
 31
0.0
  0
LINE
  5
CA
330
22
100
AcDbEntity
  8
_4-2_
  6
Continuous
 62
     7
100
AcDbLine
 10
1096.713768219059
 20
958.3938920128844
 30
0.0
 11
1096.775844613547
 21
958.3607135929332
 31
0.0
  0
LINE
  5
CB
330
22
100
AcDbEntity
  8
_4-2_
  6
Continuous
 62
     7
100
AcDbLine
 10
1096.775844613547
 20
958.3607135929332
 30
0.0
 11
1096.879234560541
 21
958.2961596672474
 31
0.0
  0
LINE
  5
CC
330
22
100
AcDbEntity
  8
_4-2_
  6
Continuous
 62
     7
100
AcDbLine
 10
1096.879234560541
 20
958.2961596672474
 30
0.0
 11
1096.978016792639
 21
958.2233161474141
 31
0.0
  0
LINE
  5
CD
330
22
100
AcDbEntity
  8
_4-2_
  6
Continuous
 62
     7
100
AcDbLine
 10
1096.978016792639
 20
958.2233161474141
 30
0.0
 11
1097.072188696651
 21
958.1433619765924
 31
0.0
  0
LINE
  5
CE
330
22
100
AcDbEntity
  8
_4-2_
  6
Continuous
 62
     7
100
AcDbLine
 10
1097.072188696651
 20
958.1433619765924
 30
0.0
 11
1097.16174765938
 21
958.0574760979377
 31
0.0
  0
LINE
  5
CF
330
22
100
AcDbEntity
  8
_4-2_
  6
Continuous
 62
     7
100
AcDbLine
 10
1097.16174765938
 20
958.0574760979377
 30
0.0
 11
1097.246691067633
 21
957.9668374546052
 31
0.0
  0
LINE
  5
D0
330
22
100
AcDbEntity
  8
_4-2_
  6
Continuous
 62
     7
100
AcDbLine
 10
1097.246691067633
 20
957.9668374546052
 30
0.0
 11
1097.293842367623
 21
957.9125538896072
 31
0.0
  0
LINE
  5
D1
330
22
100
AcDbEntity
  8
_4-2_
  6
Continuous
 62
     7
100
AcDbLine
 10
1097.293842367623
 20
957.9125538896072
 30
0.0
 11
1097.346526757855
 21
957.8484492721143
 31
0.0
  0
LINE
  5
D2
330
22
100
AcDbEntity
  8
_4-2_
  6
Continuous
 62
     7
100
AcDbLine
 10
1097.346526757855
 20
957.8484492721143
 30
0.0
 11
1097.432884169899
 21
957.7351461410303
 31
0.0
  0
LINE
  5
D3
330
22
100
AcDbEntity
  8
_4-2_
  6
Continuous
 62
     7
100
AcDbLine
 10
1097.432884169899
 20
957.7351461410303
 30
0.0
 11
1097.514203086785
 21
957.618755719393
 31
0.0
  0
LINE
  5
D4
330
22
100
AcDbEntity
  8
_4-2_
  6
Continuous
 62
     7
100
AcDbLine
 10
1097.514203086785
 20
957.618755719393
 30
0.0
 11
1097.591215525527
 21
957.4997769312128
 31
0.0
  0
LINE
  5
D5
330
22
100
AcDbEntity
  8
_4-2_
  6
Continuous
 62
     7
100
AcDbLine
 10
1097.591215525527
 20
957.4997769312128
 30
0.0
 11
1097.664653503133
 21
957.3787087004983
 31
0.0
  0
LINE
  5
D6
330
22
100
AcDbEntity
  8
_4-2_
  6
Continuous
 62
     7
100
AcDbLine
 10
1097.664653503133
 20
957.3787087004983
 30
0.0
 11
1097.735249036615
 21
957.2560499512585
 31
0.0
  0
LINE
  5
D7
330
22
100
AcDbEntity
  8
_4-2_
  6
Continuous
 62
     7
100
AcDbLine
 10
1097.735249036615
 20
957.2560499512585
 30
0.0
 11
1097.7751804909
 21
957.1843757031137
 31
0.0
  0
LINE
  5
D8
330
22
100
AcDbEntity
  8
_4-2_
  6
Continuous
 62
     7
100
AcDbLine
 10
1097.7751804909
 20
957.1843757031137
 30
0.0
 11
1097.817222595591
 21
957.1074590830287
 31
0.0
  0
LINE
  5
D9
330
22
100
AcDbEntity
  8
_4-2_
  6
Continuous
 62
     7
100
AcDbLine
 10
1097.817222595591
 20
957.1074590830287
 30
0.0
 11
1097.888460871347
 21
956.9742048602982
 31
0.0
  0
LINE
  5
DA
330
22
100
AcDbEntity
  8
_4-2_
  6
Continuous
 62
     7
100
AcDbLine
 10
1097.888460871347
 20
956.9742048602982
 30
0.0
 11
1097.958532464075
 21
956.840269235588
 31
0.0
  0
LINE
  5
DB
330
22
100
AcDbEntity
  8
_4-2_
  6
Continuous
 62
     7
100
AcDbLine
 10
1097.958532464075
 20
956.840269235588
 30
0.0
 11
1098.027917844854
 21
956.7058009474155
 31
0.0
  0
LINE
  5
DC
330
22
100
AcDbEntity
  8
_4-2_
  6
Continuous
 62
     7
100
AcDbLine
 10
1098.027917844854
 20
956.7058009474155
 30
0.0
 11
1098.097097484766
 21
956.570948734304
 31
0.0
  0
LINE
  5
DD
330
22
100
AcDbEntity
  8
_4-2_
  6
Continuous
 62
     7
100
AcDbLine
 10
1098.097097484766
 20
956.570948734304
 30
0.0
 11
1098.166551854888
 21
956.4358613347687
 31
0.0
  0
LINE
  5
DE
330
22
100
AcDbEntity
  8
_4-2_
  6
Continuous
 62
     7
100
AcDbLine
 10
1098.166551854888
 20
956.4358613347687
 30
0.0
 11
1098.207150601534
 21
956.3574614913315
 31
0.0
  0
LINE
  5
DF
330
22
100
AcDbEntity
  8
_4-2_
  6
Continuous
 62
     7
100
AcDbLine
 10
1098.207150601534
 20
956.3574614913315
 30
0.0
 11
1098.262409010393
 21
956.2519438769525
 31
0.0
  0
LINE
  5
E0
330
22
100
AcDbEntity
  8
_4-2_
  6
Continuous
 62
     7
100
AcDbLine
 10
1098.262409010393
 20
956.2519438769525
 30
0.0
 11
1098.360224520349
 21
956.0710715232719
 31
0.0
  0
LINE
  5
E1
330
22
100
AcDbEntity
  8
_4-2_
  6
Continuous
 62
     7
100
AcDbLine
 10
1098.360224520349
 20
956.0710715232719
 30
0.0
 11
1098.462863016117
 21
955.8931289131143
 31
0.0
  0
LINE
  5
E2
330
22
100
AcDbEntity
  8
_4-2_
  6
Continuous
 62
     7
100
AcDbLine
 10
1098.462863016117
 20
955.8931289131143
 30
0.0
 11
1098.572190508233
 21
955.719970520604
 31
0.0
  0
LINE
  5
E3
330
22
100
AcDbEntity
  8
_4-2_
  6
Continuous
 62
     7
100
AcDbLine
 10
1098.572190508233
 20
955.719970520604
 30
0.0
 11
1098.690073007234
 21
955.5534508198634
 31
0.0
  0
LINE
  5
E4
330
22
100
AcDbEntity
  8
_4-2_
  6
Continuous
 62
     7
100
AcDbLine
 10
1098.690073007234
 20
955.5534508198634
 30
0.0
 11
1098.818376523655
 21
955.3954242850137
 31
0.0
  0
LINE
  5
E5
330
22
100
AcDbEntity
  8
_4-2_
  6
Continuous
 62
     7
100
AcDbLine
 10
1098.818376523655
 20
955.3954242850137
 30
0.0
 11
1098.898302778546
 21
955.3083912226496
 31
0.0
  0
LINE
  5
E6
330
22
100
AcDbEntity
  8
_4-2_
  6
Continuous
 62
     7
100
AcDbLine
 10
1098.898302778546
 20
955.3083912226496
 30
0.0
 11
1098.927187261236
 21
955.2789505939561
 31
0.0
  0
LINE
  5
E7
330
22
100
AcDbEntity
  8
_4-2_
  6
Continuous
 62
     7
100
AcDbLine
 10
1098.927187261236
 20
955.2789505939561
 30
0.0
 11
1098.978249299699
 21
955.2293599095603
 31
0.0
  0
LINE
  5
E8
330
22
100
AcDbEntity
  8
_4-2_
  6
Continuous
 62
     7
100
AcDbLine
 10
1098.978249299699
 20
955.2293599095603
 30
0.0
 11
1099.030875794906
 21
955.1813598411603
 31
0.0
  0
LINE
  5
E9
330
22
100
AcDbEntity
  8
_4-2_
  6
Continuous
 62
     7
100
AcDbLine
 10
1099.030875794906
 20
955.1813598411603
 30
0.0
 11
1099.085029529589
 21
955.1350792765788
 31
0.0
  0
LINE
  5
EA
330
22
100
AcDbEntity
  8
_4-2_
  6
Continuous
 62
     7
100
AcDbLine
 10
1099.085029529589
 20
955.1350792765788
 30
0.0
 11
1099.140673286487
 21
955.0906471036476
 31
0.0
  0
LINE
  5
EB
330
22
100
AcDbEntity
  8
_4-2_
  6
Continuous
 62
     7
100
AcDbLine
 10
1099.140673286487
 20
955.0906471036476
 30
0.0
 11
1099.197769848332
 21
955.0481922101949
 31
0.0
  0
LINE
  5
EC
330
22
100
AcDbEntity
  8
_4-2_
  6
Continuous
 62
     7
100
AcDbLine
 10
1099.197769848332
 20
955.0481922101949
 30
0.0
 11
1099.231536863891
 21
955.0245251499495
 31
0.0
  0
LINE
  5
ED
330
22
100
AcDbEntity
  8
_4-2_
  6
Continuous
 62
     7
100
AcDbLine
 10
1099.231536863891
 20
955.0245251499495
 30
0.0
 11
1099.287537745822
 21
954.9874672184635
 31
0.0
  0
LINE
  5
EE
330
22
100
AcDbEntity
  8
_4-2_
  6
Continuous
 62
     7
100
AcDbLine
 10
1099.287537745822
 20
954.9874672184635
 30
0.0
 11
1099.386407398428
 21
954.927208928343
 31
0.0
  0
LINE
  5
EF
330
22
100
AcDbEntity
  8
_4-2_
  6
Continuous
 62
     7
100
AcDbLine
 10
1099.386407398428
 20
954.927208928343
 30
0.0
 11
1099.487289452824
 21
954.8701286726737
 31
0.0
  0
LINE
  5
F0
330
22
100
AcDbEntity
  8
_4-2_
  6
Continuous
 62
     7
100
AcDbLine
 10
1099.487289452824
 20
954.8701286726737
 30
0.0
 11
1099.589114420507
 21
954.8145719798888
 31
0.0
  0
LINE
  5
F1
330
22
100
AcDbEntity
  8
_4-2_
  6
Continuous
 62
     7
100
AcDbLine
 10
1099.589114420507
 20
954.8145719798888
 30
0.0
 11
1099.690812812976
 21
954.7588843784295
 31
0.0
  0
LINE
  5
F2
330
22
100
AcDbEntity
  8
_4-2_
  6
Continuous
 62
     7
100
AcDbLine
 10
1099.690812812976
 20
954.7588843784295
 30
0.0
 11
1099.791315141734
 21
954.7014113967266
 31
0.0
  0
LINE
  5
F3
330
22
100
AcDbEntity
  8
_4-2_
  6
Continuous
 62
     7
100
AcDbLine
 10
1099.791315141734
 20
954.7014113967266
 30
0.0
 11
1099.848637021938
 21
954.6666070582839
 31
0.0
  0
LINE
  5
F4
330
22
100
AcDbEntity
  8
_4-2_
  6
Continuous
 62
     7
100
AcDbLine
 10
1099.848637021938
 20
954.6666070582839
 30
0.0
 11
1099.906393892188
 21
954.6295040771132
 31
0.0
  0
LINE
  5
F5
330
22
100
AcDbEntity
  8
_4-2_
  6
Continuous
 62
     7
100
AcDbLine
 10
1099.906393892188
 20
954.6295040771132
 30
0.0
 11
1100.003858268534
 21
954.5623154760072
 31
0.0
  0
LINE
  5
F6
330
22
100
AcDbEntity
  8
_4-2_
  6
Continuous
 62
     7
100
AcDbLine
 10
1100.003858268534
 20
954.5623154760072
 30
0.0
 11
1100.099059857423
 21
954.4917009822777
 31
0.0
  0
LINE
  5
F7
330
22
100
AcDbEntity
  8
_4-2_
  6
Continuous
 62
     7
100
AcDbLine
 10
1100.099059857423
 20
954.4917009822777
 30
0.0
 11
1100.192482662881
 21
954.4184134495276
 31
0.0
  0
LINE
  5
F8
330
22
100
AcDbEntity
  8
_4-2_
  6
Continuous
 62
     7
100
AcDbLine
 10
1100.192482662881
 20
954.4184134495276
 30
0.0
 11
1100.284610688941
 21
954.3432057313749
 31
0.0
  0
LINE
  5
F9
330
22
100
AcDbEntity
  8
_4-2_
  6
Continuous
 62
     7
100
AcDbLine
 10
1100.284610688941
 20
954.3432057313749
 30
0.0
 11
1100.375927939626
 21
954.2668306814222
 31
0.0
  0
LINE
  5
FA
330
22
100
AcDbEntity
  8
_4-2_
  6
Continuous
 62
     7
100
AcDbLine
 10
1100.375927939626
 20
954.2668306814222
 30
0.0
 11
1100.428711170502
 21
954.2222949444884
 31
0.0
  0
LINE
  5
FB
330
22
100
AcDbEntity
  8
_4-2_
  6
Continuous
 62
     7
100
AcDbLine
 10
1100.428711170502
 20
954.2222949444884
 30
0.0
 11
1100.494862335264
 21
954.1663695795502
 31
0.0
  0
LINE
  5
FC
330
22
100
AcDbEntity
  8
_4-2_
  6
Continuous
 62
     7
100
AcDbLine
 10
1100.494862335264
 20
954.1663695795502
 30
0.0
 11
1100.608345321707
 21
954.0694426709274
 31
0.0
  0
LINE
  5
FD
330
22
100
AcDbEntity
  8
_4-2_
  6
Continuous
 62
     7
100
AcDbLine
 10
1100.608345321707
 20
954.0694426709274
 30
0.0
 11
1100.720329479598
 21
953.9710744407782
 31
0.0
  0
LINE
  5
FE
330
22
100
AcDbEntity
  8
_4-2_
  6
Continuous
 62
     7
100
AcDbLine
 10
1100.720329479598
 20
953.9710744407782
 30
0.0
 11
1100.82991205849
 21
953.8703305670738
 31
0.0
  0
LINE
  5
FF
330
22
100
AcDbEntity
  8
_4-2_
  6
Continuous
 62
     7
100
AcDbLine
 10
1100.82991205849
 20
953.8703305670738
 30
0.0
 11
1100.936190307931
 21
953.7662767277945
 31
0.0
  0
LINE
  5
100
330
22
100
AcDbEntity
  8
_4-2_
  6
Continuous
 62
     7
100
AcDbLine
 10
1100.936190307931
 20
953.7662767277945
 30
0.0
 11
1101.038261477481
 21
953.6579786009133
 31
0.0
  0
LINE
  5
101
330
22
100
AcDbEntity
  8
_4-2_
  6
Continuous
 62
     7
100
AcDbLine
 10
1101.038261477481
 20
953.6579786009133
 30
0.0
 11
1101.095179341193
 21
953.5928527832787
 31
0.0
  0
LINE
  5
102
330
22
100
AcDbEntity
  8
_4-2_
  6
Continuous
 62
     7
100
AcDbLine
 10
1101.095179341193
 20
953.5928527832787
 30
0.0
 11
1101.127466386591
 21
953.5540482360783
 31
0.0
  0
LINE
  5
103
330
22
100
AcDbEntity
  8
_4-2_
  6
Continuous
 62
     7
100
AcDbLine
 10
1101.127466386591
 20
953.5540482360783
 30
0.0
 11
1101.181419580533
 21
953.4856277736796
 31
0.0
  0
LINE
  5
104
330
22
100
AcDbEntity
  8
_4-2_
  6
Continuous
 62
     7
100
AcDbLine
 10
1101.181419580533
 20
953.4856277736796
 30
0.0
 11
1101.232894500613
 21
953.4153144875812
 31
0.0
  0
LINE
  5
105
330
22
100
AcDbEntity
  8
_4-2_
  6
Continuous
 62
     7
100
AcDbLine
 10
1101.232894500613
 20
953.4153144875812
 30
0.0
 11
1101.281532432331
 21
953.3431389046381
 31
0.0
  0
LINE
  5
106
330
22
100
AcDbEntity
  8
_4-2_
  6
Continuous
 62
     7
100
AcDbLine
 10
1101.281532432331
 20
953.3431389046381
 30
0.0
 11
1101.32697466117
 21
953.2691315517034
 31
0.0
  0
LINE
  5
107
330
22
100
AcDbEntity
  8
_4-2_
  6
Continuous
 62
     7
100
AcDbLine
 10
1101.32697466117
 20
953.2691315517034
 30
0.0
 11
1101.368862472627
 21
953.1933229556397
 31
0.0
  0
LINE
  5
108
330
22
100
AcDbEntity
  8
_4-2_
  6
Continuous
 62
     7
100
AcDbLine
 10
1101.368862472627
 20
953.1933229556397
 30
0.0
 11
1101.391387417055
 21
953.1485406694853
 31
0.0
  0
LINE
  5
109
330
22
100
AcDbEntity
  8
_4-2_
  6
Continuous
 62
     7
100
AcDbLine
 10
1101.391387417055
 20
953.1485406694853
 30
0.0
 11
1101.420544825404
 21
953.0851182375815
 31
0.0
  0
LINE
  5
10A
330
22
100
AcDbEntity
  8
_4-2_
  6
Continuous
 62
     7
100
AcDbLine
 10
1101.420544825404
 20
953.0851182375815
 30
0.0
 11
1101.465224049372
 21
952.973390500674
 31
0.0
  0
LINE
  5
10B
330
22
100
AcDbEntity
  8
_4-2_
  6
Continuous
 62
     7
100
AcDbLine
 10
1101.465224049372
 20
952.973390500674
 30
0.0
 11
1101.503943636014
 21
952.8591277393296
 31
0.0
  0
LINE
  5
10C
330
22
100
AcDbEntity
  8
_4-2_
  6
Continuous
 62
     7
100
AcDbLine
 10
1101.503943636014
 20
952.8591277393296
 30
0.0
 11
1101.538004816181
 21
952.7428834523357
 31
0.0
  0
LINE
  5
10D
330
22
100
AcDbEntity
  8
_4-2_
  6
Continuous
 62
     7
100
AcDbLine
 10
1101.538004816181
 20
952.7428834523357
 30
0.0
 11
1101.568708820735
 21
952.6252111384767
 31
0.0
  0
LINE
  5
10E
330
22
100
AcDbEntity
  8
_4-2_
  6
Continuous
 62
     7
100
AcDbLine
 10
1101.568708820735
 20
952.6252111384767
 30
0.0
 11
1101.597356880535
 21
952.5066642965382
 31
0.0
  0
LINE
  5
10F
330
22
100
AcDbEntity
  8
_4-2_
  6
Continuous
 62
     7
100
AcDbLine
 10
1101.597356880535
 20
952.5066642965382
 30
0.0
 11
1101.613543473952
 21
952.4377245267485
 31
0.0
  0
LINE
  5
110
330
22
100
AcDbEntity
  8
_4-2_
  6
Continuous
 62
     7
100
AcDbLine
 10
1058.646121059819
 20
952.4377245267485
 30
0.0
 11
1094.896121059818
 21
952.4377245267485
 31
0.0
  0
LINE
  5
111
330
22
100
AcDbEntity
  8
_4-4_
  6
Continuous
 62
     2
100
AcDbLine
 10
1094.896121059818
 20
955.5627245267485
 30
0.0
 11
1094.896121059818
 21
952.4377245267485
 31
0.0
  0
LINE
  5
112
330
22
100
AcDbEntity
  8
_4-4_
  6
Continuous
 62
     2
100
AcDbLine
 10
1063.646121059818
 20
955.5627245267485
 30
0.0
 11
1094.896121059818
 21
955.5627245267485
 31
0.0
  0
LINE
  5
113
330
22
100
AcDbEntity
  8
_4-2_
  6
Continuous
 62
     7
100
AcDbLine
 10
1058.646121059819
 20
1193.062724526748
 30
0.0
 11
1058.646121059819
 21
949.3127245267485
 31
0.0
  0
ARC
  5
114
330
22
100
AcDbEntity
  8
_4-4_
  6
Continuous
 62
     2
100
AcDbCircle
 10
834.8961210598188
 20
957.4377245267507
 30
0.0
 40
1.875
100
AcDbArc
 50
270.0
 51
0.0
  0
ARC
  5
115
330
22
100
AcDbEntity
  8
_4-2_
  6
Continuous
 62
     7
100
AcDbCircle
 10
834.8961210598188
 20
957.4377245267507
 30
0.0
 40
5.0
100
AcDbArc
 50
270.0
 51
0.0
  0
LINE
  5
116
330
22
100
AcDbEntity
  8
_4-2_
  6
Continuous
 62
     7
100
AcDbLine
 10
807.3943286016513
 20
955.5627245267485
 30
0.0
 11
807.3829418594492
 21
955.6445401184259
 31
0.0
  0
LINE
  5
117
330
22
100
AcDbEntity
  8
_4-2_
  6
Continuous
 62
     7
100
AcDbLine
 10
807.3829418594492
 20
955.6445401184259
 30
0.0
 11
807.3622751221623
 21
955.7852113278135
 31
0.0
  0
LINE
  5
118
330
22
100
AcDbEntity
  8
_4-2_
  6
Continuous
 62
     7
100
AcDbLine
 10
807.3622751221623
 20
955.7852113278135
 30
0.0
 11
807.3387349872447
 21
955.9247987717251
 31
0.0
  0
LINE
  5
119
330
22
100
AcDbEntity
  8
_4-2_
  6
Continuous
 62
     7
100
AcDbLine
 10
807.3387349872447
 20
955.9247987717251
 30
0.0
 11
807.3105028486052
 21
956.0626165226448
 31
0.0
  0
LINE
  5
11A
330
22
100
AcDbEntity
  8
_4-2_
  6
Continuous
 62
     7
100
AcDbLine
 10
807.3105028486052
 20
956.0626165226448
 30
0.0
 11
807.2757601001475
 21
956.1979786530535
 31
0.0
  0
LINE
  5
11B
330
22
100
AcDbEntity
  8
_4-2_
  6
Continuous
 62
     7
100
AcDbLine
 10
807.2757601001475
 20
956.1979786530535
 30
0.0
 11
807.2326881357808
 21
956.330199235442
 31
0.0
  0
LINE
  5
11C
330
22
100
AcDbEntity
  8
_4-2_
  6
Continuous
 62
     7
100
AcDbLine
 10
807.2326881357808
 20
956.330199235442
 30
0.0
 11
807.2031733243475
 21
956.4051774248103
 31
0.0
  0
LINE
  5
11D
330
22
100
AcDbEntity
  8
_4-2_
  6
Continuous
 62
     7
100
AcDbLine
 10
807.2031733243475
 20
956.4051774248103
 30
0.0
 11
807.1775851610581
 21
956.4627504495543
 31
0.0
  0
LINE
  5
11E
330
22
100
AcDbEntity
  8
_4-2_
  6
Continuous
 62
     7
100
AcDbLine
 10
807.1775851610581
 20
956.4627504495543
 30
0.0
 11
807.1285756781318
 21
956.5600718889388
 31
0.0
  0
LINE
  5
11F
330
22
100
AcDbEntity
  8
_4-2_
  6
Continuous
 62
     7
100
AcDbLine
 10
807.1285756781318
 20
956.5600718889388
 30
0.0
 11
807.0741337941782
 21
956.6550741407375
 31
0.0
  0
LINE
  5
120
330
22
100
AcDbEntity
  8
_4-2_
  6
Continuous
 62
     7
100
AcDbLine
 10
807.0741337941782
 20
956.6550741407375
 30
0.0
 11
807.0151431759594
 21
956.7479194631138
 31
0.0
  0
LINE
  5
121
330
22
100
AcDbEntity
  8
_4-2_
  6
Continuous
 62
     7
100
AcDbLine
 10
807.0151431759594
 20
956.7479194631138
 30
0.0
 11
806.9524874902455
 21
956.8387701142226
 31
0.0
  0
LINE
  5
122
330
22
100
AcDbEntity
  8
_4-2_
  6
Continuous
 62
     7
100
AcDbLine
 10
806.9524874902455
 20
956.8387701142226
 30
0.0
 11
806.8870504037974
 21
956.9277883522204
 31
0.0
  0
LINE
  5
123
330
22
100
AcDbEntity
  8
_4-2_
  6
Continuous
 62
     7
100
AcDbLine
 10
806.8870504037974
 20
956.9277883522204
 30
0.0
 11
806.8481706664975
 21
956.9786432567205
 31
0.0
  0
LINE
  5
124
330
22
100
AcDbEntity
  8
_4-2_
  6
Continuous
 62
     7
100
AcDbLine
 10
806.8481706664975
 20
956.9786432567205
 30
0.0
 11
806.8017854952879
 21
957.0378205022231
 31
0.0
  0
LINE
  5
125
330
22
100
AcDbEntity
  8
_4-2_
  6
Continuous
 62
     7
100
AcDbLine
 10
806.8017854952879
 20
957.0378205022231
 30
0.0
 11
806.7203949077223
 21
957.1382697483862
 31
0.0
  0
LINE
  5
126
330
22
100
AcDbEntity
  8
_4-2_
  6
Continuous
 62
     7
100
AcDbLine
 10
806.7203949077223
 20
957.1382697483862
 30
0.0
 11
806.6373625207104
 21
957.2369364748828
 31
0.0
  0
LINE
  5
127
330
22
100
AcDbEntity
  8
_4-2_
  6
Continuous
 62
     7
100
AcDbLine
 10
806.6373625207104
 20
957.2369364748828
 30
0.0
 11
806.5528636843792
 21
957.3340742832989
 31
0.0
  0
LINE
  5
128
330
22
100
AcDbEntity
  8
_4-2_
  6
Continuous
 62
     7
100
AcDbLine
 10
806.5528636843792
 20
957.3340742832989
 30
0.0
 11
806.4670737488652
 21
957.4299367752271
 31
0.0
  0
LINE
  5
129
330
22
100
AcDbEntity
  8
_4-2_
  6
Continuous
 62
     7
100
AcDbLine
 10
806.4670737488652
 20
957.4299367752271
 30
0.0
 11
806.3801680642981
 21
957.5247775522621
 31
0.0
  0
LINE
  5
12A
330
22
100
AcDbEntity
  8
_4-2_
  6
Continuous
 62
     7
100
AcDbLine
 10
806.3801680642981
 20
957.5247775522621
 30
0.0
 11
806.3293206281011
 21
957.5794169853905
 31
0.0
  0
LINE
  5
12B
330
22
100
AcDbEntity
  8
_4-2_
  6
Continuous
 62
     7
100
AcDbLine
 10
806.3293206281011
 20
957.5794169853905
 30
0.0
 11
806.2757987072185
 21
957.6363358443904
 31
0.0
  0
LINE
  5
12C
330
22
100
AcDbEntity
  8
_4-2_
  6
Continuous
 62
     7
100
AcDbLine
 10
806.2757987072185
 20
957.6363358443904
 30
0.0
 11
806.1825503582767
 21
957.7336494374092
 31
0.0
  0
LINE
  5
12D
330
22
100
AcDbEntity
  8
_4-2_
  6
Continuous
 62
     7
100
AcDbLine
 10
806.1825503582767
 20
957.7336494374092
 30
0.0
 11
806.0877064747943
 21
957.8294906739095
 31
0.0
  0
LINE
  5
12E
330
22
100
AcDbEntity
  8
_4-2_
  6
Continuous
 62
     7
100
AcDbLine
 10
806.0877064747943
 20
957.8294906739095
 30
0.0
 11
805.9908383001058
 21
957.9233579482339
 31
0.0
  0
LINE
  5
12F
330
22
100
AcDbEntity
  8
_4-2_
  6
Continuous
 62
     7
100
AcDbLine
 10
805.9908383001058
 20
957.9233579482339
 30
0.0
 11
805.8915170775387
 21
958.0147496547349
 31
0.0
  0
LINE
  5
130
330
22
100
AcDbEntity
  8
_4-2_
  6
Continuous
 62
     7
100
AcDbLine
 10
805.8915170775387
 20
958.0147496547349
 30
0.0
 11
805.7893140504242
 21
958.1031641877505
 31
0.0
  0
LINE
  5
131
330
22
100
AcDbEntity
  8
_4-2_
  6
Continuous
 62
     7
100
AcDbLine
 10
805.7893140504242
 20
958.1031641877505
 30
0.0
 11
805.7285468994335
 21
958.1528828173029
 31
0.0
  0
LINE
  5
132
330
22
100
AcDbEntity
  8
_4-2_
  6
Continuous
 62
     7
100
AcDbLine
 10
805.7285468994335
 20
958.1528828173029
 30
0.0
 11
805.6737633372188
 21
958.1958361626105
 31
0.0
  0
LINE
  5
133
330
22
100
AcDbEntity
  8
_4-2_
  6
Continuous
 62
     7
100
AcDbLine
 10
805.6737633372188
 20
958.1958361626105
 30
0.0
 11
805.5771301497699
 21
958.2672191424876
 31
0.0
  0
LINE
  5
134
330
22
100
AcDbEntity
  8
_4-2_
  6
Continuous
 62
     7
100
AcDbLine
 10
805.5771301497699
 20
958.2672191424876
 30
0.0
 11
805.4777769352753
 21
958.3347020730686
 31
0.0
  0
LINE
  5
135
330
22
100
AcDbEntity
  8
_4-2_
  6
Continuous
 62
     7
100
AcDbLine
 10
805.4777769352753
 20
958.3347020730686
 30
0.0
 11
805.375747774509
 21
958.3976865927091
 31
0.0
  0
LINE
  5
136
330
22
100
AcDbEntity
  8
_4-2_
  6
Continuous
 62
     7
100
AcDbLine
 10
805.375747774509
 20
958.3976865927091
 30
0.0
 11
805.2710867482399
 21
958.4555743397663
 31
0.0
  0
LINE
  5
137
330
22
100
AcDbEntity
  8
_4-2_
  6
Continuous
 62
     7
100
AcDbLine
 10
805.2710867482399
 20
958.4555743397663
 30
0.0
 11
805.1638379372375
 21
958.5077669525842
 31
0.0
  0
LINE
  5
138
330
22
100
AcDbEntity
  8
_4-2_
  6
Continuous
 62
     7
100
AcDbLine
 10
805.1638379372375
 20
958.5077669525842
 30
0.0
 11
805.1004652740072
 21
958.5351933719104
 31
0.0
  0
LINE
  5
139
330
22
100
AcDbEntity
  8
_4-2_
  6
Continuous
 62
     7
100
AcDbLine
 10
805.1004652740072
 20
958.5351933719104
 30
0.0
 11
805.029274341045
 21
958.5630238177008
 31
0.0
  0
LINE
  5
13A
330
22
100
AcDbEntity
  8
_4-2_
  6
Continuous
 62
     7
100
AcDbLine
 10
805.029274341045
 20
958.5630238177008
 30
0.0
 11
804.9043440548857
 21
958.605092960456
 31
0.0
  0
LINE
  5
13B
330
22
100
AcDbEntity
  8
_4-2_
  6
Continuous
 62
     7
100
AcDbLine
 10
804.9043440548857
 20
958.605092960456
 30
0.0
 11
804.7770302430988
 21
958.6404701801436
 31
0.0
  0
LINE
  5
13C
330
22
100
AcDbEntity
  8
_4-2_
  6
Continuous
 62
     7
100
AcDbLine
 10
804.7770302430988
 20
958.6404701801436
 30
0.0
 11
804.6477808200949
 21
958.6700794762258
 31
0.0
  0
LINE
  5
13D
330
22
100
AcDbEntity
  8
_4-2_
  6
Continuous
 62
     7
100
AcDbLine
 10
804.6477808200949
 20
958.6700794762258
 30
0.0
 11
804.5170437002763
 21
958.6948448481688
 31
0.0
  0
LINE
  5
13E
330
22
100
AcDbEntity
  8
_4-2_
  6
Continuous
 62
     7
100
AcDbLine
 10
804.5170437002763
 20
958.6948448481688
 30
0.0
 11
804.385266798052
 21
958.7156902954417
 31
0.0
  0
LINE
  5
13F
330
22
100
AcDbEntity
  8
_4-2_
  6
Continuous
 62
     7
100
AcDbLine
 10
804.385266798052
 20
958.7156902954417
 30
0.0
 11
804.3085362680344
 21
958.7263486492132
 31
0.0
  0
LINE
  5
140
330
22
100
AcDbEntity
  8
_4-2_
  6
Continuous
 62
     7
100
AcDbLine
 10
804.3085362680344
 20
958.7263486492132
 30
0.0
 11
804.2157506617328
 21
958.7380467737554
 31
0.0
  0
LINE
  5
141
330
22
100
AcDbEntity
  8
_4-2_
  6
Continuous
 62
     7
100
AcDbLine
 10
804.2157506617328
 20
958.7380467737554
 30
0.0
 11
804.0555504959295
 21
958.7548634994368
 31
0.0
  0
LINE
  5
142
330
22
100
AcDbEntity
  8
_4-2_
  6
Continuous
 62
     7
100
AcDbLine
 10
804.0555504959295
 20
958.7548634994368
 30
0.0
 11
803.8953034155666
 21
958.7666499039983
 31
0.0
  0
LINE
  5
143
330
22
100
AcDbEntity
  8
_4-2_
  6
Continuous
 62
     7
100
AcDbLine
 10
803.8953034155666
 20
958.7666499039983
 30
0.0
 11
803.7352860176721
 21
958.772491210991
 31
0.0
  0
LINE
  5
144
330
22
100
AcDbEntity
  8
_4-2_
  6
Continuous
 62
     7
100
AcDbLine
 10
803.7352860176721
 20
958.772491210991
 30
0.0
 11
803.5757748992759
 21
958.7714726439592
 31
0.0
  0
LINE
  5
145
330
22
100
AcDbEntity
  8
_4-2_
  6
Continuous
 62
     7
100
AcDbLine
 10
803.5757748992759
 20
958.7714726439592
 30
0.0
 11
803.417046657406
 21
958.7626794264586
 31
0.0
  0
LINE
  5
146
330
22
100
AcDbEntity
  8
_4-2_
  6
Continuous
 62
     7
100
AcDbLine
 10
803.417046657406
 20
958.7626794264586
 30
0.0
 11
803.325451984759
 21
958.7536565459709
 31
0.0
  0
LINE
  5
147
330
22
100
AcDbEntity
  8
_4-2_
  6
Continuous
 62
     7
100
AcDbLine
 10
803.325451984759
 20
958.7536565459709
 30
0.0
 11
803.2583618650287
 21
958.7451004296664
 31
0.0
  0
LINE
  5
148
330
22
100
AcDbEntity
  8
_4-2_
  6
Continuous
 62
     7
100
AcDbLine
 10
803.2583618650287
 20
958.7451004296664
 30
0.0
 11
803.1430805770478
 21
958.727000660142
 31
0.0
  0
LINE
  5
149
330
22
100
AcDbEntity
  8
_4-2_
  6
Continuous
 62
     7
100
AcDbLine
 10
803.1430805770478
 20
958.727000660142
 30
0.0
 11
803.0280987911474
 21
958.7055534841804
 31
0.0
  0
LINE
  5
14A
330
22
100
AcDbEntity
  8
_4-2_
  6
Continuous
 62
     7
100
AcDbLine
 10
803.0280987911474
 20
958.7055534841804
 30
0.0
 11
802.9131887687364
 21
958.6817942179116
 31
0.0
  0
LINE
  5
14B
330
22
100
AcDbEntity
  8
_4-2_
  6
Continuous
 62
     7
100
AcDbLine
 10
802.9131887687364
 20
958.6817942179116
 30
0.0
 11
802.7981227712244
 21
958.6567581774714
 31
0.0
  0
LINE
  5
14C
330
22
100
AcDbEntity
  8
_4-2_
  6
Continuous
 62
     7
100
AcDbLine
 10
802.7981227712244
 20
958.6567581774714
 30
0.0
 11
802.6826730600189
 21
958.6314806789868
 31
0.0
  0
LINE
  5
14D
330
22
100
AcDbEntity
  8
_4-2_
  6
Continuous
 62
     7
100
AcDbLine
 10
802.6826730600189
 20
958.6314806789868
 30
0.0
 11
802.615446669059
 21
958.6171170621808
 31
0.0
  0
LINE
  5
14E
330
22
100
AcDbEntity
  8
_4-2_
  6
Continuous
 62
     7
100
AcDbLine
 10
802.615446669059
 20
958.6171170621808
 30
0.0
 11
802.5391271494797
 21
958.6013209862469
 31
0.0
  0
LINE
  5
14F
330
22
100
AcDbEntity
  8
_4-2_
  6
Continuous
 62
     7
100
AcDbLine
 10
802.5391271494797
 20
958.6013209862469
 30
0.0
 11
802.4073783847526
 21
958.5742275385998
 31
0.0
  0
LINE
  5
150
330
22
100
AcDbEntity
  8
_4-2_
  6
Continuous
 62
     7
100
AcDbLine
 10
802.4073783847526
 20
958.5742275385998
 30
0.0
 11
802.2763126198535
 21
958.5453943147582
 31
0.0
  0
LINE
  5
151
330
22
100
AcDbEntity
  8
_4-2_
  6
Continuous
 62
     7
100
AcDbLine
 10
802.2763126198535
 20
958.5453943147582
 30
0.0
 11
802.1469645265606
 21
958.5125905386915
 31
0.0
  0
LINE
  5
152
330
22
100
AcDbEntity
  8
_4-2_
  6
Continuous
 62
     7
100
AcDbLine
 10
802.1469645265606
 20
958.5125905386915
 30
0.0
 11
802.0203687766521
 21
958.4735854343785
 31
0.0
  0
LINE
  5
153
330
22
100
AcDbEntity
  8
_4-2_
  6
Continuous
 62
     7
100
AcDbLine
 10
802.0203687766521
 20
958.4735854343785
 30
0.0
 11
801.8975600419024
 21
958.4261482257964
 31
0.0
  0
LINE
  5
154
330
22
100
AcDbEntity
  8
_4-2_
  6
Continuous
 62
     7
100
AcDbLine
 10
801.8975600419024
 20
958.4261482257964
 30
0.0
 11
801.8284739005762
 21
958.3938920128844
 31
0.0
  0
LINE
  5
155
330
22
100
AcDbEntity
  8
_4-2_
  6
Continuous
 62
     7
100
AcDbLine
 10
801.8284739005762
 20
958.3938920128844
 30
0.0
 11
801.7663975060893
 21
958.3607135929332
 31
0.0
  0
LINE
  5
156
330
22
100
AcDbEntity
  8
_4-2_
  6
Continuous
 62
     7
100
AcDbLine
 10
801.7663975060893
 20
958.3607135929332
 30
0.0
 11
801.6630075590953
 21
958.2961596672474
 31
0.0
  0
LINE
  5
157
330
22
100
AcDbEntity
  8
_4-2_
  6
Continuous
 62
     7
100
AcDbLine
 10
801.6630075590953
 20
958.2961596672474
 30
0.0
 11
801.5642253269957
 21
958.2233161474141
 31
0.0
  0
LINE
  5
158
330
22
100
AcDbEntity
  8
_4-2_
  6
Continuous
 62
     7
100
AcDbLine
 10
801.5642253269957
 20
958.2233161474141
 30
0.0
 11
801.4700534229856
 21
958.1433619765924
 31
0.0
  0
LINE
  5
159
330
22
100
AcDbEntity
  8
_4-2_
  6
Continuous
 62
     7
100
AcDbLine
 10
801.4700534229856
 20
958.1433619765924
 30
0.0
 11
801.3804944602565
 21
958.0574760979377
 31
0.0
  0
LINE
  5
15A
330
22
100
AcDbEntity
  8
_4-2_
  6
Continuous
 62
     7
100
AcDbLine
 10
801.3804944602565
 20
958.0574760979377
 30
0.0
 11
801.295551052004
 21
957.9668374546052
 31
0.0
  0
LINE
  5
15B
330
22
100
AcDbEntity
  8
_4-2_
  6
Continuous
 62
     7
100
AcDbLine
 10
801.295551052004
 20
957.9668374546052
 30
0.0
 11
801.248399752013
 21
957.9125538896072
 31
0.0
  0
LINE
  5
15C
330
22
100
AcDbEntity
  8
_4-2_
  6
Continuous
 62
     7
100
AcDbLine
 10
801.248399752013
 20
957.9125538896072
 30
0.0
 11
801.195715361781
 21
957.8484492721143
 31
0.0
  0
LINE
  5
15D
330
22
100
AcDbEntity
  8
_4-2_
  6
Continuous
 62
     7
100
AcDbLine
 10
801.195715361781
 20
957.8484492721143
 30
0.0
 11
801.1093579497387
 21
957.7351461410303
 31
0.0
  0
LINE
  5
15E
330
22
100
AcDbEntity
  8
_4-2_
  6
Continuous
 62
     7
100
AcDbLine
 10
801.1093579497387
 20
957.7351461410303
 30
0.0
 11
801.0280390328521
 21
957.618755719393
 31
0.0
  0
LINE
  5
15F
330
22
100
AcDbEntity
  8
_4-2_
  6
Continuous
 62
     7
100
AcDbLine
 10
801.0280390328521
 20
957.618755719393
 30
0.0
 11
800.9510265941102
 21
957.4997769312128
 31
0.0
  0
LINE
  5
160
330
22
100
AcDbEntity
  8
_4-2_
  6
Continuous
 62
     7
100
AcDbLine
 10
800.9510265941102
 20
957.4997769312128
 30
0.0
 11
800.8775886165036
 21
957.3787087004983
 31
0.0
  0
LINE
  5
161
330
22
100
AcDbEntity
  8
_4-2_
  6
Continuous
 62
     7
100
AcDbLine
 10
800.8775886165036
 20
957.3787087004983
 30
0.0
 11
800.8069930830229
 21
957.2560499512585
 31
0.0
  0
LINE
  5
162
330
22
100
AcDbEntity
  8
_4-2_
  6
Continuous
 62
     7
100
AcDbLine
 10
800.8069930830229
 20
957.2560499512585
 30
0.0
 11
800.7670616287358
 21
957.1843757031137
 31
0.0
  0
LINE
  5
163
330
22
100
AcDbEntity
  8
_4-2_
  6
Continuous
 62
     7
100
AcDbLine
 10
800.7670616287358
 20
957.1843757031137
 30
0.0
 11
800.7250195240439
 21
957.1074590830287
 31
0.0
  0
LINE
  5
164
330
22
100
AcDbEntity
  8
_4-2_
  6
Continuous
 62
     7
100
AcDbLine
 10
800.7250195240439
 20
957.1074590830287
 30
0.0
 11
800.6537812482903
 21
956.9742048602982
 31
0.0
  0
LINE
  5
165
330
22
100
AcDbEntity
  8
_4-2_
  6
Continuous
 62
     7
100
AcDbLine
 10
800.6537812482903
 20
956.9742048602982
 30
0.0
 11
800.5837096555623
 21
956.840269235588
 31
0.0
  0
LINE
  5
166
330
22
100
AcDbEntity
  8
_4-2_
  6
Continuous
 62
     7
100
AcDbLine
 10
800.5837096555623
 20
956.840269235588
 30
0.0
 11
800.5143242747815
 21
956.7058009474155
 31
0.0
  0
LINE
  5
167
330
22
100
AcDbEntity
  8
_4-2_
  6
Continuous
 62
     7
100
AcDbLine
 10
800.5143242747815
 20
956.7058009474155
 30
0.0
 11
800.4451446348705
 21
956.570948734304
 31
0.0
  0
LINE
  5
168
330
22
100
AcDbEntity
  8
_4-2_
  6
Continuous
 62
     7
100
AcDbLine
 10
800.4451446348705
 20
956.570948734304
 30
0.0
 11
800.3756902647475
 21
956.4358613347687
 31
0.0
  0
LINE
  5
169
330
22
100
AcDbEntity
  8
_4-2_
  6
Continuous
 62
     7
100
AcDbLine
 10
800.3756902647475
 20
956.4358613347687
 30
0.0
 11
800.335091518103
 21
956.3574614913315
 31
0.0
  0
LINE
  5
16A
330
22
100
AcDbEntity
  8
_4-2_
  6
Continuous
 62
     7
100
AcDbLine
 10
800.335091518103
 20
956.3574614913315
 30
0.0
 11
800.2798331092433
 21
956.2519438769525
 31
0.0
  0
LINE
  5
16B
330
22
100
AcDbEntity
  8
_4-2_
  6
Continuous
 62
     7
100
AcDbLine
 10
800.2798331092433
 20
956.2519438769525
 30
0.0
 11
800.182017599287
 21
956.0710715232719
 31
0.0
  0
LINE
  5
16C
330
22
100
AcDbEntity
  8
_4-2_
  6
Continuous
 62
     7
100
AcDbLine
 10
800.182017599287
 20
956.0710715232719
 30
0.0
 11
800.0793791035206
 21
955.8931289131143
 31
0.0
  0
LINE
  5
16D
330
22
100
AcDbEntity
  8
_4-2_
  6
Continuous
 62
     7
100
AcDbLine
 10
800.0793791035206
 20
955.8931289131143
 30
0.0
 11
799.9700516114045
 21
955.719970520604
 31
0.0
  0
LINE
  5
16E
330
22
100
AcDbEntity
  8
_4-2_
  6
Continuous
 62
     7
100
AcDbLine
 10
799.9700516114045
 20
955.719970520604
 30
0.0
 11
799.8521691124035
 21
955.5534508198634
 31
0.0
  0
LINE
  5
16F
330
22
100
AcDbEntity
  8
_4-2_
  6
Continuous
 62
     7
100
AcDbLine
 10
799.8521691124035
 20
955.5534508198634
 30
0.0
 11
799.7238655959822
 21
955.3954242850137
 31
0.0
  0
LINE
  5
170
330
22
100
AcDbEntity
  8
_4-2_
  6
Continuous
 62
     7
100
AcDbLine
 10
799.7238655959822
 20
955.3954242850137
 30
0.0
 11
799.643939341091
 21
955.3083912226496
 31
0.0
  0
LINE
  5
171
330
22
100
AcDbEntity
  8
_4-2_
  6
Continuous
 62
     7
100
AcDbLine
 10
799.643939341091
 20
955.3083912226496
 30
0.0
 11
799.6150548583998
 21
955.2789505939561
 31
0.0
  0
LINE
  5
172
330
22
100
AcDbEntity
  8
_4-2_
  6
Continuous
 62
     7
100
AcDbLine
 10
799.6150548583998
 20
955.2789505939561
 30
0.0
 11
799.5639928199383
 21
955.2293599095603
 31
0.0
  0
LINE
  5
173
330
22
100
AcDbEntity
  8
_4-2_
  6
Continuous
 62
     7
100
AcDbLine
 10
799.5639928199383
 20
955.2293599095603
 30
0.0
 11
799.5113663247307
 21
955.1813598411603
 31
0.0
  0
LINE
  5
174
330
22
100
AcDbEntity
  8
_4-2_
  6
Continuous
 62
     7
100
AcDbLine
 10
799.5113663247307
 20
955.1813598411603
 30
0.0
 11
799.4572125900456
 21
955.1350792765788
 31
0.0
  0
LINE
  5
175
330
22
100
AcDbEntity
  8
_4-2_
  6
Continuous
 62
     7
100
AcDbLine
 10
799.4572125900456
 20
955.1350792765788
 30
0.0
 11
799.4015688331487
 21
955.0906471036476
 31
0.0
  0
LINE
  5
176
330
22
100
AcDbEntity
  8
_4-2_
  6
Continuous
 62
     7
100
AcDbLine
 10
799.4015688331487
 20
955.0906471036476
 30
0.0
 11
799.3444722713044
 21
955.0481922101949
 31
0.0
  0
LINE
  5
177
330
22
100
AcDbEntity
  8
_4-2_
  6
Continuous
 62
     7
100
AcDbLine
 10
799.3444722713044
 20
955.0481922101949
 30
0.0
 11
799.3107052557443
 21
955.0245251499495
 31
0.0
  0
LINE
  5
178
330
22
100
AcDbEntity
  8
_4-2_
  6
Continuous
 62
     7
100
AcDbLine
 10
799.3107052557443
 20
955.0245251499495
 30
0.0
 11
799.2547043738156
 21
954.9874672184635
 31
0.0
  0
LINE
  5
179
330
22
100
AcDbEntity
  8
_4-2_
  6
Continuous
 62
     7
100
AcDbLine
 10
799.2547043738156
 20
954.9874672184635
 30
0.0
 11
799.1558347212092
 21
954.927208928343
 31
0.0
  0
LINE
  5
17A
330
22
100
AcDbEntity
  8
_4-2_
  6
Continuous
 62
     7
100
AcDbLine
 10
799.1558347212092
 20
954.927208928343
 30
0.0
 11
799.0549526668131
 21
954.8701286726737
 31
0.0
  0
LINE
  5
17B
330
22
100
AcDbEntity
  8
_4-2_
  6
Continuous
 62
     7
100
AcDbLine
 10
799.0549526668131
 20
954.8701286726737
 30
0.0
 11
798.9531276991291
 21
954.8145719798888
 31
0.0
  0
LINE
  5
17C
330
22
100
AcDbEntity
  8
_4-2_
  6
Continuous
 62
     7
100
AcDbLine
 10
798.9531276991291
 20
954.8145719798888
 30
0.0
 11
798.8514293066598
 21
954.7588843784295
 31
0.0
  0
LINE
  5
17D
330
22
100
AcDbEntity
  8
_4-2_
  6
Continuous
 62
     7
100
AcDbLine
 10
798.8514293066598
 20
954.7588843784295
 30
0.0
 11
798.7509269779024
 21
954.7014113967266
 31
0.0
  0
LINE
  5
17E
330
22
100
AcDbEntity
  8
_4-2_
  6
Continuous
 62
     7
100
AcDbLine
 10
798.7509269779024
 20
954.7014113967266
 30
0.0
 11
798.6936050976973
 21
954.6666070582839
 31
0.0
  0
LINE
  5
17F
330
22
100
AcDbEntity
  8
_4-2_
  6
Continuous
 62
     7
100
AcDbLine
 10
798.6936050976973
 20
954.6666070582839
 30
0.0
 11
798.6358482274497
 21
954.6295040771132
 31
0.0
  0
LINE
  5
180
330
22
100
AcDbEntity
  8
_4-2_
  6
Continuous
 62
     7
100
AcDbLine
 10
798.6358482274497
 20
954.6295040771132
 30
0.0
 11
798.5383838511027
 21
954.5623154760072
 31
0.0
  0
LINE
  5
181
330
22
100
AcDbEntity
  8
_4-2_
  6
Continuous
 62
     7
100
AcDbLine
 10
798.5383838511027
 20
954.5623154760072
 30
0.0
 11
798.4431822622135
 21
954.4917009822777
 31
0.0
  0
LINE
  5
182
330
22
100
AcDbEntity
  8
_4-2_
  6
Continuous
 62
     7
100
AcDbLine
 10
798.4431822622135
 20
954.4917009822777
 30
0.0
 11
798.349759456755
 21
954.4184134495276
 31
0.0
  0
LINE
  5
183
330
22
100
AcDbEntity
  8
_4-2_
  6
Continuous
 62
     7
100
AcDbLine
 10
798.349759456755
 20
954.4184134495276
 30
0.0
 11
798.2576314306967
 21
954.3432057313749
 31
0.0
  0
LINE
  5
184
330
22
100
AcDbEntity
  8
_4-2_
  6
Continuous
 62
     7
100
AcDbLine
 10
798.2576314306967
 20
954.3432057313749
 30
0.0
 11
798.1663141800104
 21
954.2668306814222
 31
0.0
  0
LINE
  5
185
330
22
100
AcDbEntity
  8
_4-2_
  6
Continuous
 62
     7
100
AcDbLine
 10
798.1663141800104
 20
954.2668306814222
 30
0.0
 11
798.1135309491341
 21
954.2222949444884
 31
0.0
  0
LINE
  5
186
330
22
100
AcDbEntity
  8
_4-2_
  6
Continuous
 62
     7
100
AcDbLine
 10
798.1135309491341
 20
954.2222949444884
 30
0.0
 11
798.0473797843725
 21
954.1663695795502
 31
0.0
  0
LINE
  5
187
330
22
100
AcDbEntity
  8
_4-2_
  6
Continuous
 62
     7
100
AcDbLine
 10
798.0473797843725
 20
954.1663695795502
 30
0.0
 11
797.9338967979286
 21
954.0694426709274
 31
0.0
  0
LINE
  5
188
330
22
100
AcDbEntity
  8
_4-2_
  6
Continuous
 62
     7
100
AcDbLine
 10
797.9338967979286
 20
954.0694426709274
 30
0.0
 11
797.821912640039
 21
953.9710744407782
 31
0.0
  0
LINE
  5
189
330
22
100
AcDbEntity
  8
_4-2_
  6
Continuous
 62
     7
100
AcDbLine
 10
797.821912640039
 20
953.9710744407782
 30
0.0
 11
797.7123300611479
 21
953.8703305670738
 31
0.0
  0
LINE
  5
18A
330
22
100
AcDbEntity
  8
_4-2_
  6
Continuous
 62
     7
100
AcDbLine
 10
797.7123300611479
 20
953.8703305670738
 30
0.0
 11
797.6060518117045
 21
953.7662767277945
 31
0.0
  0
LINE
  5
18B
330
22
100
AcDbEntity
  8
_4-2_
  6
Continuous
 62
     7
100
AcDbLine
 10
797.6060518117045
 20
953.7662767277945
 30
0.0
 11
797.5039806421555
 21
953.6579786009133
 31
0.0
  0
LINE
  5
18C
330
22
100
AcDbEntity
  8
_4-2_
  6
Continuous
 62
     7
100
AcDbLine
 10
797.5039806421555
 20
953.6579786009133
 30
0.0
 11
797.4470627784441
 21
953.5928527832787
 31
0.0
  0
LINE
  5
18D
330
22
100
AcDbEntity
  8
_4-2_
  6
Continuous
 62
     7
100
AcDbLine
 10
797.4470627784441
 20
953.5928527832787
 30
0.0
 11
797.4147757330455
 21
953.5540482360783
 31
0.0
  0
LINE
  5
18E
330
22
100
AcDbEntity
  8
_4-2_
  6
Continuous
 62
     7
100
AcDbLine
 10
797.4147757330455
 20
953.5540482360783
 30
0.0
 11
797.3608225391043
 21
953.4856277736796
 31
0.0
  0
LINE
  5
18F
330
22
100
AcDbEntity
  8
_4-2_
  6
Continuous
 62
     7
100
AcDbLine
 10
797.3608225391043
 20
953.4856277736796
 30
0.0
 11
797.3093476190214
 21
953.4153144875812
 31
0.0
  0
LINE
  5
190
330
22
100
AcDbEntity
  8
_4-2_
  6
Continuous
 62
     7
100
AcDbLine
 10
797.3093476190214
 20
953.4153144875812
 30
0.0
 11
797.2607096873057
 21
953.3431389046381
 31
0.0
  0
LINE
  5
191
330
22
100
AcDbEntity
  8
_4-2_
  6
Continuous
 62
     7
100
AcDbLine
 10
797.2607096873057
 20
953.3431389046381
 30
0.0
 11
797.2152674584662
 21
953.2691315517034
 31
0.0
  0
LINE
  5
192
330
22
100
AcDbEntity
  8
_4-2_
  6
Continuous
 62
     7
100
AcDbLine
 10
797.2152674584662
 20
953.2691315517034
 30
0.0
 11
797.1733796470105
 21
953.1933229556397
 31
0.0
  0
LINE
  5
193
330
22
100
AcDbEntity
  8
_4-2_
  6
Continuous
 62
     7
100
AcDbLine
 10
797.1733796470105
 20
953.1933229556397
 30
0.0
 11
797.15085470258
 21
953.1485406694853
 31
0.0
  0
LINE
  5
194
330
22
100
AcDbEntity
  8
_4-2_
  6
Continuous
 62
     7
100
AcDbLine
 10
797.15085470258
 20
953.1485406694853
 30
0.0
 11
797.1216972942325
 21
953.0851182375815
 31
0.0
  0
LINE
  5
195
330
22
100
AcDbEntity
  8
_4-2_
  6
Continuous
 62
     7
100
AcDbLine
 10
797.1216972942325
 20
953.0851182375815
 30
0.0
 11
797.0770180702627
 21
952.973390500674
 31
0.0
  0
LINE
  5
196
330
22
100
AcDbEntity
  8
_4-2_
  6
Continuous
 62
     7
100
AcDbLine
 10
797.0770180702627
 20
952.973390500674
 30
0.0
 11
797.0382984836235
 21
952.8591277393296
 31
0.0
  0
LINE
  5
197
330
22
100
AcDbEntity
  8
_4-2_
  6
Continuous
 62
     7
100
AcDbLine
 10
797.0382984836235
 20
952.8591277393296
 30
0.0
 11
797.0042373034559
 21
952.7428834523357
 31
0.0
  0
LINE
  5
198
330
22
100
AcDbEntity
  8
_4-2_
  6
Continuous
 62
     7
100
AcDbLine
 10
797.0042373034559
 20
952.7428834523357
 30
0.0
 11
796.9735332989021
 21
952.6252111384767
 31
0.0
  0
LINE
  5
199
330
22
100
AcDbEntity
  8
_4-2_
  6
Continuous
 62
     7
100
AcDbLine
 10
796.9735332989021
 20
952.6252111384767
 30
0.0
 11
796.9448852391027
 21
952.5066642965382
 31
0.0
  0
LINE
  5
19A
330
22
100
AcDbEntity
  8
_4-2_
  6
Continuous
 62
     7
100
AcDbLine
 10
796.9448852391027
 20
952.5066642965382
 30
0.0
 11
796.9286986456834
 21
952.4377245267485
 31
0.0
  0
LINE
  5
19B
330
22
100
AcDbEntity
  8
_4-2_
  6
Continuous
 62
     7
100
AcDbLine
 10
839.8961210598187
 20
952.4377245267485
 30
0.0
 11
803.6461210598188
 21
952.4377245267485
 31
0.0
  0
LINE
  5
19C
330
22
100
AcDbEntity
  8
_4-4_
  6
Continuous
 62
     2
100
AcDbLine
 10
803.6461210598188
 20
955.5627245267485
 30
0.0
 11
803.6461210598188
 21
952.4377245267485
 31
0.0
  0
LINE
  5
19D
330
22
100
AcDbEntity
  8
_4-4_
  6
Continuous
 62
     2
100
AcDbLine
 10
834.8961210598188
 20
955.5627245267485
 30
0.0
 11
803.6461210598188
 21
955.5627245267485
 31
0.0
  0
LINE
  5
19E
330
22
100
AcDbEntity
  8
_4-2_
  6
Continuous
 62
     7
100
AcDbLine
 10
839.8961210598187
 20
1193.062724526748
 30
0.0
 11
839.8961210598187
 21
949.3127245267485
 31
0.0
  0
ARC
  5
19F
330
22
100
AcDbEntity
  8
_4-2_
  6
Continuous
 62
     7
100
AcDbCircle
 10
1052.396121059818
 20
1193.062724526748
 30
0.0
 40
6.25
100
AcDbArc
 50
0.0
 51
90.00000000000003
  0
ARC
  5
1A0
330
22
100
AcDbEntity
  8
_4-2_
  6
Continuous
 62
     7
100
AcDbCircle
 10
846.1461210598187
 20
1193.062724526748
 30
0.0
 40
6.25
100
AcDbArc
 50
89.99999999999998
 51
180.0
  0
LINE
  5
1A1
330
22
100
AcDbEntity
  8
_4-2_
  6
Continuous
 62
     7
100
AcDbLine
 10
1052.396121059818
 20
1199.312724526748
 30
0.0
 11
1052.396121059818
 21
1202.437724526748
 31
0.0
  0
ARC
  5
1A2
330
22
100
AcDbEntity
  8
_4-2_
  6
Continuous
 62
     7
100
AcDbCircle
 10
1047.394767772253
 20
1193.986665657241
 30
0.0
 40
11.28922574910268
100
AcDbArc
 50
355.3055058198593
 51
23.21442705622352
  0
ARC
  5
1A3
330
22
100
AcDbEntity
  8
_4-2_
  6
Continuous
 62
     7
100
AcDbCircle
 10
1051.651287893848
 20
1195.828029929343
 30
0.0
 40
6.651529081054363
100
AcDbArc
 50
23.08975298750498
 51
83.57057735568323
  0
LINE
  5
1A4
330
22
100
AcDbEntity
  8
_4-2_
  6
Continuous
 62
     7
100
AcDbLine
 10
846.1461210598187
 20
1202.437724526748
 30
0.0
 11
846.1461210598187
 21
1205.562724526748
 31
0.0
  0
LINE
  5
1A5
330
22
100
AcDbEntity
  8
_4-2_
  6
Continuous
 62
     7
100
AcDbLine
 10
846.1461210598187
 20
1205.562724526748
 30
0.0
 11
1052.554748998676
 21
1205.562724526748
 31
0.0
  0
ARC
  5
1A6
330
22
100
AcDbEntity
  8
_4-2_
  6
Continuous
 62
     7
100
AcDbCircle
 10
1051.651287893848
 20
1195.828029929343
 30
0.0
 40
9.776529081054365
100
AcDbArc
 50
23.08975298750498
 51
84.69766118959856
  0
ARC
  5
1A7
330
22
100
AcDbEntity
  8
_4-2_
  6
Continuous
 62
     7
100
AcDbCircle
 10
1047.394767772253
 20
1193.986665657241
 30
0.0
 40
14.41422574910268
100
AcDbArc
 50
355.3055058198593
 51
23.21442705622352
  0
ARC
  5
1A8
330
22
100
AcDbEntity
  8
_4-2_
  6
Continuous
 62
     7
100
AcDbCircle
 10
850.4036864479109
 20
1193.985733433915
 30
0.0
 40
13.66377636319127
100
AcDbArc
 50
154.6698550985131
 51
183.8733668315287
  0
ARC
  5
1A9
330
22
100
AcDbEntity
  8
_4-2_
  6
Continuous
 62
     7
100
AcDbCircle
 10
846.9559068825411
 20
1195.840276678598
 30
0.0
 40
9.756113223958424
100
AcDbArc
 50
94.76119437312911
 51
155.8513568300754
  0
ARC
  5
1AA
330
22
100
AcDbEntity
  8
_4-2_
  6
Continuous
 62
     7
100
AcDbCircle
 10
846.1461210598187
 20
1193.062724526748
 30
0.0
 40
9.375
100
AcDbArc
 50
89.99999999999998
 51
180.0
  0
ARC
  5
1AB
330
22
100
AcDbEntity
  8
_4-4_
  6
Continuous
 62
     2
100
AcDbCircle
 10
850.4036864479109
 20
1193.985733433915
 30
0.0
 40
16.78877636319127
100
AcDbArc
 50
154.6698550985131
 51
183.8733668315287
  0
ARC
  5
1AC
330
22
100
AcDbEntity
  8
_4-4_
  6
Continuous
 62
     2
100
AcDbCircle
 10
846.9559068825411
 20
1195.840276678598
 30
0.0
 40
12.88111322395842
100
AcDbArc
 50
94.14330875402091
 51
155.8513568300754
  0
ARC
  5
1AD
330
22
100
AcDbEntity
  8
_4-4_
  6
Continuous
 62
     2
100
AcDbCircle
 10
1047.394767772253
 20
1193.986665657241
 30
0.0
 40
17.53922574910268
100
AcDbArc
 50
355.3055058198593
 51
23.21442705622352
  0
ARC
  5
1AE
330
22
100
AcDbEntity
  8
_4-4_
  6
Continuous
 62
     2
100
AcDbCircle
 10
1051.651287893848
 20
1195.828029929343
 30
0.0
 40
12.90152908105436
100
AcDbArc
 50
23.08975298750498
 51
85.38468160063912
  0
LINE
  5
1AF
330
22
100
AcDbEntity
  8
_4-4_
  6
Continuous
 62
     2
100
AcDbLine
 10
846.0252288085108
 20
1208.687724526748
 30
0.0
 11
1052.68941480841
 21
1208.687724526748
 31
0.0
  0
LINE
  5
1B0
330
22
100
AcDbEntity
  8
_4-2_
  6
Continuous
 62
     7
100
AcDbLine
 10
971.1461210598187
 20
1199.312724526748
 30
0.0
 11
1052.396121059818
 21
1199.312724526748
 31
0.0
  0
ARC
  5
1B1
330
22
100
AcDbEntity
  8
_4-2_
  6
Continuous
 62
     7
100
AcDbCircle
 10
971.1461210598187
 20
1193.062724526748
 30
0.0
 40
6.25
100
AcDbArc
 50
90.0
 51
180.0
  0
LINE
  5
1B2
330
22
100
AcDbEntity
  8
_4-2_
  6
Continuous
 62
     7
100
AcDbLine
 10
927.3961210598187
 20
1199.312724526748
 30
0.0
 11
846.1461210598187
 21
1199.312724526748
 31
0.0
  0
ARC
  5
1B3
330
22
100
AcDbEntity
  8
_4-2_
  6
Continuous
 62
     7
100
AcDbCircle
 10
927.3961210598187
 20
1193.062724526748
 30
0.0
 40
6.25
100
AcDbArc
 50
0.0
 51
90.0
  0
ARC
  5
1B4
330
22
100
AcDbEntity
  8
_4-2_
  6
Continuous
 62
     7
100
AcDbCircle
 10
927.3961210598187
 20
1193.062724526748
 30
0.0
 40
9.375
100
AcDbArc
 50
0.0
 51
90.0
  0
ARC
  5
1B5
330
22
100
AcDbEntity
  8
_4-2_
  6
Continuous
 62
     7
100
AcDbCircle
 10
971.1461210598187
 20
1193.062724526748
 30
0.0
 40
9.375
100
AcDbArc
 50
90.0
 51
180.0
  0
LINE
  5
1B6
330
22
100
AcDbEntity
  8
_4-2_
  6
Continuous
 62
     7
100
AcDbLine
 10
1052.396121059818
 20
1202.437724526748
 30
0.0
 11
846.1461210598187
 21
1202.437724526748
 31
0.0
  0
ARC
  5
1B7
330
22
100
AcDbEntity
  8
_4-2_
  6
Continuous
 62
     7
100
AcDbCircle
 10
949.2083103569015
 20
1184.293741111575
 30
0.0
 40
12.71004963130298
100
AcDbArc
 50
89.77273215390736
 51
153.0581863349852
  0
ARC
  5
1B8
330
22
100
AcDbEntity
  8
_4-2_
  6
Continuous
 62
     7
100
AcDbCircle
 10
943.4493885714184
 20
1187.220695348935
 30
0.0
 40
6.25
100
AcDbArc
 50
153.0581863349842
 51
206.9418136650157
  0
ARC
  5
1B9
330
22
100
AcDbEntity
  8
_4-2_
  6
Continuous
 62
     7
100
AcDbCircle
 10
949.3339317627359
 20
1184.293741111575
 30
0.0
 40
12.71004963130298
100
AcDbArc
 50
26.94181366501473
 51
90.22726784609268
  0
ARC
  5
1BA
330
22
100
AcDbEntity
  8
_4-2_
  6
Continuous
 62
     7
100
AcDbCircle
 10
955.092853548218
 20
1187.220695348935
 30
0.0
 40
6.25
100
AcDbArc
 50
333.0581863349843
 51
26.94181366501575
  0
LINE
  5
1BB
330
22
100
AcDbEntity
  8
_4-2_
  6
Continuous
 62
     7
100
AcDbLine
 10
961.7711210598187
 20
1193.062724526748
 30
0.0
 11
961.7711210598187
 21
1187.528167954612
 31
0.0
  0
ARC
  5
1BC
330
22
100
AcDbEntity
  8
_4-2_
  6
Continuous
 62
     7
100
AcDbCircle
 10
949.3339317627359
 20
1190.147649586294
 30
0.0
 40
12.71004963130298
100
AcDbArc
 50
269.7727321539073
 51
348.1063749745603
  0
ARC
  5
1BD
330
22
100
AcDbEntity
  8
_4-2_
  6
Continuous
 62
     7
100
AcDbCircle
 10
949.2083103569015
 20
1190.147649586294
 30
0.0
 40
12.71004963130298
100
AcDbArc
 50
191.8936250254397
 51
270.2272678460927
  0
LINE
  5
1BE
330
22
100
AcDbEntity
  8
_4-2_
  6
Continuous
 62
     7
100
AcDbLine
 10
936.7711210598187
 20
1193.062724526748
 30
0.0
 11
936.7711210598187
 21
1187.528167954612
 31
0.0
  0
LINE
  5
1BF
330
22
100
AcDbEntity
  8
_4-D_
  6
Continuous
 62
     4
100
AcDbLine
 10
1057.989680776903
 20
1195.851019649451
 30
0.0
 11
1058.443432935433
 21
1196.304771807979
 31
0.0
  0
LINE
  5
1C0
330
22
100
AcDbEntity
  8
_4-D_
  6
Continuous
 62
     4
100
AcDbLine
 10
1056.435294145676
 20
1197.83216692416
 30
0.0
 11
1057.534495414858
 21
1198.931368193339
 31
0.0
  0
LINE
  5
1C1
330
22
100
AcDbEntity
  8
_4-D_
  6
Continuous
 62
     4
100
AcDbLine
 10
1054.133875820141
 20
1199.066282504552
 30
0.0
 11
1055.961596170159
 21
1200.894002854568
 31
0.0
  0
LINE
  5
1C2
330
22
100
AcDbEntity
  8
_4-D_
  6
Continuous
 62
     4
100
AcDbLine
 10
1052.396121059815
 20
1200.864061650163
 30
0.0
 11
1053.691118498603
 21
1202.159059088951
 31
0.0
  0
LINE
  5
1C3
330
22
100
AcDbEntity
  8
_4-D_
  6
Continuous
 62
     4
100
AcDbLine
 10
836.7607114333244
 20
1193.232064239396
 30
0.0
 11
836.7724459217921
 21
1193.220329750927
 31
0.0
  0
LINE
  5
1C4
330
22
100
AcDbEntity
  8
_4-D_
  6
Continuous
 62
     4
100
AcDbLine
 10
836.9819822552095
 20
1196.546327323437
 30
0.0
 11
837.3160124765295
 21
1196.212297102117
 31
0.0
  0
LINE
  5
1C5
330
22
100
AcDbEntity
  8
_4-D_
  6
Continuous
 62
     4
100
AcDbLine
 10
837.800351573397
 20
1199.263491911187
 30
0.0
 11
838.5318271356446
 21
1198.53201634894
 31
0.0
  0
LINE
  5
1C6
330
22
100
AcDbEntity
  8
_4-D_
  6
Continuous
 62
     4
100
AcDbLine
 10
839.0468956539313
 20
1201.552481736594
 30
0.0
 11
840.248821616975
 21
1200.350555773547
 31
0.0
  0
LINE
  5
1C7
330
22
100
AcDbEntity
  8
_4-D_
  6
Continuous
 62
     4
100
AcDbLine
 10
840.7592074944281
 20
1203.375703802021
 30
0.0
 11
842.4545798713664
 21
1201.680331425084
 31
0.0
  0
LINE
  5
1C8
330
22
100
AcDbEntity
  8
_4-D_
  6
Continuous
 62
     4
100
AcDbLine
 10
842.9392585015907
 20
1204.731186700798
 30
0.0
 11
845.27342740879
 21
1202.397017793598
 31
0.0
  0
LINE
  5
1C9
330
22
100
AcDbEntity
  8
_4-D_
  6
Continuous
 62
     4
100
AcDbLine
 10
845.6918278475164
 20
1205.514151260797
 30
0.0
 11
846.1461210598187
 21
1205.059858048493
 31
0.0
  0
LINE
  5
1CA
330
22
100
AcDbEntity
  8
_4-D_
  6
Continuous
 62
     4
100
AcDbLine
 10
961.1330693415649
 20
1185.614988909464
 30
0.0
 11
961.253598631009
 21
1185.735518198907
 31
0.0
  0
LINE
  5
1CB
330
22
100
AcDbEntity
  8
_4-D_
  6
Continuous
 62
     4
100
AcDbLine
 10
960.8205520616023
 20
1189.721889011918
 30
0.0
 11
961.7711210598178
 21
1190.672458010133
 31
0.0
  0
LINE
  5
1CC
330
22
100
AcDbEntity
  8
_4-D_
  6
Continuous
 62
     4
100
AcDbLine
 10
959.1033785708972
 20
1192.424132903627
 30
0.0
 11
962.0629735694805
 21
1195.383727902215
 31
0.0
  0
LINE
  5
1CD
330
22
100
AcDbEntity
  8
_4-D_
  6
Continuous
 62
     4
100
AcDbLine
 10
968.8251176843365
 20
1202.145872017069
 30
0.0
 11
969.1169701940177
 21
1202.437724526748
 31
0.0
  0
LINE
  5
1CE
330
22
100
AcDbEntity
  8
_4-D_
  6
Continuous
 62
     4
100
AcDbLine
 10
956.8229440729609
 20
1194.563115788107
 30
0.0
 11
964.6975528116012
 21
1202.437724526751
 31
0.0
  0
LINE
  5
1CF
330
22
100
AcDbEntity
  8
_4-D_
  6
Continuous
 62
     4
100
AcDbLine
 10
953.9689355554045
 20
1196.128524652968
 30
0.0
 11
960.2781354291844
 21
1202.437724526748
 31
0.0
  0
LINE
  5
1D0
330
22
100
AcDbEntity
  8
_4-D_
  6
Continuous
 62
     4
100
AcDbLine
 10
937.8549417582835
 20
1184.433948238265
 30
0.0
 11
937.8550189916618
 21
1184.434025471643
 31
0.0
  0
LINE
  5
1D1
330
22
100
AcDbEntity
  8
_4-D_
  6
Continuous
 62
     4
100
AcDbLine
 10
950.3815370968467
 20
1196.960543576826
 30
0.0
 11
955.8587180467688
 21
1202.437724526751
 31
0.0
  0
LINE
  5
1D2
330
22
100
AcDbEntity
  8
_4-D_
  6
Continuous
 62
     4
100
AcDbLine
 10
936.7711210598223
 20
1187.769544922221
 30
0.0
 11
937.2915335328228
 21
1188.289957395222
 31
0.0
  0
LINE
  5
1D3
330
22
100
AcDbEntity
  8
_4-D_
  6
Continuous
 62
     4
100
AcDbLine
 10
945.4311490855284
 20
1196.429572947927
 30
0.0
 11
951.4393006643501
 21
1202.437724526748
 31
0.0
  0
LINE
  5
1D4
330
22
100
AcDbEntity
  8
_4-D_
  6
Continuous
 62
     4
100
AcDbLine
 10
936.7711210598187
 20
1192.188962304621
 30
0.0
 11
947.0198832819436
 21
1202.437724526746
 31
0.0
  0
LINE
  5
1D5
330
22
100
AcDbEntity
  8
_4-D_
  6
Continuous
 62
     4
100
AcDbLine
 10
936.2647835019078
 20
1196.10204212913
 30
0.0
 11
942.6004658995292
 21
1202.437724526751
 31
0.0
  0
LINE
  5
1D6
330
22
100
AcDbEntity
  8
_4-D_
  6
Continuous
 62
     4
100
AcDbLine
 10
934.692620166605
 20
1198.949296176244
 30
0.0
 11
938.1810485171101
 21
1202.437724526748
 31
0.0
  0
LINE
  5
1D7
330
22
100
AcDbEntity
  8
_4-D_
  6
Continuous
 62
     4
100
AcDbLine
 10
932.3474627677931
 20
1201.023556159848
 30
0.0
 11
933.7616311346968
 21
1202.437724526751
 31
0.0
  0
LINE
  5
1D8
330
22
100
AcDbEntity
  8
_4-D_
  6
Continuous
 62
     4
100
AcDbLine
 10
929.1724001944757
 20
1202.267910968948
 30
0.0
 11
929.342213752278
 21
1202.437724526748
 31
0.0
  0
LINE
  5
1D9
330
22
100
AcDbEntity
  8
_4-2_
  6
Continuous
 62
     7
100
AcDbLine
 10
964.8961210598187
 20
1193.062724526748
 30
0.0
 11
964.8961210598187
 21
1187.220695348935
 31
0.0
  0
LINE
  5
1DA
330
22
100
AcDbEntity
  8
_4-2_
  6
Continuous
 62
     7
100
AcDbLine
 10
933.6461210598187
 20
1193.062724526748
 30
0.0
 11
933.6461210598187
 21
1187.220695348935
 31
0.0
  0
ARC
  5
1DB
330
22
100
AcDbEntity
  8
_4-4_
  6
Continuous
 62
     2
100
AcDbCircle
 10
949.3339317627359
 20
1190.147649586294
 30
0.0
 40
15.83504963130298
100
AcDbArc
 50
269.7727321539076
 51
349.3481823171088
  0
ARC
  5
1DC
330
22
100
AcDbEntity
  8
_4-4_
  6
Continuous
 62
     2
100
AcDbCircle
 10
949.2083103569015
 20
1190.147649586294
 30
0.0
 40
15.83504963130298
100
AcDbArc
 50
190.6518176828912
 51
270.2272678460925
  0
LINE
  5
1DD
330
22
100
AcDbEntity
  8
_4-2_
  6
Continuous
 62
     7
100
AcDbLine
 10
933.6461210598187
 20
1161.812724526748
 30
0.0
 11
964.8961210598187
 21
1161.812724526748
 31
0.0
  0
LINE
  5
1DE
330
22
100
AcDbEntity
  8
_4-D_
  6
Continuous
 62
     4
100
AcDbLine
 10
933.64612105982
 20
875.2853281530972
 30
0.0
 11
964.8961210598214
 21
906.5353281530972
 31
0.0
  0
LINE
  5
1DF
330
22
100
AcDbEntity
  8
_4-D_
  6
Continuous
 62
     4
100
AcDbLine
 10
933.6461210598187
 20
901.8018324475972
 30
0.0
 11
964.89612105982
 21
933.0518324475972
 31
0.0
  0
LINE
  5
1E0
330
22
100
AcDbEntity
  8
_4-D_
  6
Continuous
 62
     4
100
AcDbLine
 10
933.6461210598178
 20
928.3183367420834
 30
0.0
 11
964.8961210598153
 21
959.5683367420814
 31
0.0
  0
LINE
  5
1E1
330
22
100
AcDbEntity
  8
_4-D_
  6
Continuous
 62
     4
100
AcDbLine
 10
933.6461210598153
 20
954.8348410365816
 30
0.0
 11
964.8961210598164
 21
986.0848410365836
 31
0.0
  0
LINE
  5
1E2
330
22
100
AcDbEntity
  8
_4-D_
  6
Continuous
 62
     4
100
AcDbLine
 10
933.6461210598178
 20
981.3513453310834
 30
0.0
 11
964.8961210598153
 21
1012.601345331082
 31
0.0
  0
LINE
  5
1E3
330
22
100
AcDbEntity
  8
_4-D_
  6
Continuous
 62
     4
100
AcDbLine
 10
933.6461210598187
 20
1007.867849625574
 30
0.0
 11
964.8961210598178
 21
1039.117849625572
 31
0.0
  0
LINE
  5
1E4
330
22
100
AcDbEntity
  8
_4-D_
  6
Continuous
 62
     4
100
AcDbLine
 10
933.6461210598187
 20
1034.384353920074
 30
0.0
 11
964.8961210598214
 21
1065.634353920074
 31
0.0
  0
LINE
  5
1E5
330
22
100
AcDbEntity
  8
_4-D_
  6
Continuous
 62
     4
100
AcDbLine
 10
933.6461210598178
 20
1060.90085821456
 30
0.0
 11
964.8961210598153
 21
1092.150858214558
 31
0.0
  0
LINE
  5
1E6
330
22
100
AcDbEntity
  8
_4-D_
  6
Continuous
 62
     4
100
AcDbLine
 10
933.6461210598143
 20
1087.417362509058
 30
0.0
 11
964.8961210598153
 21
1118.667362509058
 31
0.0
  0
LINE
  5
1E7
330
22
100
AcDbEntity
  8
_4-D_
  6
Continuous
 62
     4
100
AcDbLine
 10
933.6461210598187
 20
1113.93386680356
 30
0.0
 11
964.8961210598178
 21
1145.18386680356
 31
0.0
  0
LINE
  5
1E8
330
22
100
AcDbEntity
  8
_4-D_
  6
Continuous
 62
     4
100
AcDbLine
 10
933.6461210598187
 20
1140.450371098052
 30
0.0
 11
955.0084744885177
 21
1161.812724526748
 31
0.0
  0
LINE
  5
1E9
330
22
100
AcDbEntity
  8
_4-D_
  6
Continuous
 62
     4
100
AcDbLine
 10
933.6461210598187
 20
916.0344254103298
 30
0.0
 11
964.8961210598214
 21
884.7844254103277
 31
0.0
  0
LINE
  5
1EA
330
22
100
AcDbEntity
  8
_4-D_
  6
Continuous
 62
     4
100
AcDbLine
 10
933.6461210598214
 20
942.5509297048279
 30
0.0
 11
964.8961210598223
 21
911.3009297048279
 31
0.0
  0
LINE
  5
1EB
330
22
100
AcDbEntity
  8
_4-D_
  6
Continuous
 62
     4
100
AcDbLine
 10
933.6461210598187
 20
969.0674339993186
 30
0.0
 11
964.8961210598178
 21
937.817433999321
 31
0.0
  0
LINE
  5
1EC
330
22
100
AcDbEntity
  8
_4-D_
  6
Continuous
 62
     4
100
AcDbLine
 10
933.6461210598164
 20
995.5839382938235
 30
0.0
 11
964.8961210598178
 21
964.333938293821
 31
0.0
  0
LINE
  5
1ED
330
22
100
AcDbEntity
  8
_4-D_
  6
Continuous
 62
     4
100
AcDbLine
 10
933.6461210598178
 20
1022.100442588321
 30
0.0
 11
964.8961210598153
 21
990.8504425883235
 31
0.0
  0
LINE
  5
1EE
330
22
100
AcDbEntity
  8
_4-D_
  6
Continuous
 62
     4
100
AcDbLine
 10
933.6461210598187
 20
1048.616946882807
 30
0.0
 11
964.89612105982
 21
1017.366946882807
 31
0.0
  0
LINE
  5
1EF
330
22
100
AcDbEntity
  8
_4-D_
  6
Continuous
 62
     4
100
AcDbLine
 10
933.64612105982
 20
1075.133451177307
 30
0.0
 11
964.8961210598214
 21
1043.883451177305
 31
0.0
  0
LINE
  5
1F0
330
22
100
AcDbEntity
  8
_4-D_
  6
Continuous
 62
     4
100
AcDbLine
 10
933.6461210598187
 20
1101.649955471796
 30
0.0
 11
964.8961210598178
 21
1070.399955471796
 31
0.0
  0
LINE
  5
1F1
330
22
100
AcDbEntity
  8
_4-D_
  6
Continuous
 62
     4
100
AcDbLine
 10
933.6461210598153
 20
1128.1664597663
 30
0.0
 11
964.8961210598178
 21
1096.916459766298
 31
0.0
  0
LINE
  5
1F2
330
22
100
AcDbEntity
  8
_4-D_
  6
Continuous
 62
     4
100
AcDbLine
 10
933.6461210598178
 20
1154.682964060798
 30
0.0
 11
964.8961210598187
 21
1123.432964060796
 31
0.0
  0
LINE
  5
1F3
330
22
100
AcDbEntity
  8
_4-D_
  6
Continuous
 62
     4
100
AcDbLine
 10
953.0328648883561
 20
1161.812724526748
 30
0.0
 11
964.8961210598187
 21
1149.949468355284
 31
0.0
  0
POINT
  5
1F4
330
22
100
AcDbEntity
  8
_4-B_
 62
     1
100
AcDbPoint
 10
1094.896121059818
 20
1026.011967027436
 30
0.0
  0
POINT
  5
1F5
330
22
100
AcDbEntity
  8
_4-B_
 62
     1
100
AcDbPoint
 10
1061.771121059819
 20
1026.011967027436
 30
0.0
  0
LINE
  5
1F6
330
22
100
AcDbEntity
  8
_4-B_
  6
Continuous
 62
     7
100
AcDbLine
 10
1061.771121059819
 20
1026.011967027436
 30
0.0
 11
1094.896121059818
 21
1026.011967027436
 31
0.0
  0
LINE
  5
1F7
330
22
100
AcDbEntity
  8
_4-B_
  6
Continuous
 62
     7
100
AcDbLine
 10
1094.896121059818
 20
1026.011967027436
 30
0.0
 11
1094.896121059818
 21
973.1912545509427
 31
0.0
  0
POINT
  5
1F8
330
22
100
AcDbEntity
  8
_4-B_
 62
     1
100
AcDbPoint
 10
793.6993528123648
 20
1208.687724526748
 30
0.0
  0
LINE
  5
1F9
330
22
100
AcDbEntity
  8
_4-B_
  6
Continuous
 62
     7
100
AcDbLine
 10
793.6993528123648
 20
1208.687724526748
 30
0.0
 11
826.7705478450475
 21
1208.687724526748
 31
0.0
  0
LINE
  5
1FA
330
22
100
AcDbEntity
  8
_4-4_
  6
Continuous
 62
     2
100
AcDbLine
 10
833.6461210598187
 20
1171.187724526748
 30
0.0
 11
833.6461210598187
 21
1193.062724526748
 31
0.0
  0
LINE
  5
1FB
330
22
100
AcDbEntity
  8
_4-4_
  6
Continuous
 62
     2
100
AcDbLine
 10
1064.896121059819
 20
1171.187724526748
 30
0.0
 11
1064.896121059819
 21
1193.062724526748
 31
0.0
  0
LINE
  5
1FC
330
22
100
AcDbEntity
  8
_4-4_
  6
Continuous
 62
     2
100
AcDbLine
 10
833.6461210598187
 20
1171.187724526748
 30
0.0
 11
836.7711210598187
 21
1171.187724526748
 31
0.0
  0
LINE
  5
1FD
330
22
100
AcDbEntity
  8
_4-4_
  6
Continuous
 62
     2
100
AcDbLine
 10
1061.771121059819
 20
1171.187724526748
 30
0.0
 11
1064.896121059819
 21
1171.187724526748
 31
0.0
  0
LINE
  5
1FE
330
22
100
AcDbEntity
  8
_4-4_
  6
Continuous
 62
     2
100
AcDbLine
 10
1061.771121059819
 20
957.4377245267507
 30
0.0
 11
1061.771121059819
 21
1171.187724526748
 31
0.0
  0
LINE
  5
1FF
330
22
100
AcDbEntity
  8
_4-4_
  6
Continuous
 62
     2
100
AcDbLine
 10
836.7711210598187
 20
957.4377245267507
 30
0.0
 11
836.7711210598187
 21
1171.187724526748
 31
0.0
  0
LINE
  5
200
330
22
100
AcDbEntity
  8
_4-2_
  6
Continuous
 62
     7
100
AcDbLine
 10
836.7711210598187
 20
1171.187724526748
 30
0.0
 11
836.7711210598187
 21
1193.062724526748
 31
0.0
  0
LINE
  5
201
330
22
100
AcDbEntity
  8
_4-2_
  6
Continuous
 62
     7
100
AcDbLine
 10
1061.771121059819
 20
1171.187724526748
 30
0.0
 11
1061.771121059819
 21
1193.062724526748
 31
0.0
  0
LINE
  5
202
330
22
100
AcDbEntity
  8
_4-2_
  6
Continuous
 62
     7
100
AcDbLine
 10
1064.896121059819
 20
1174.935932068581
 30
0.0
 11
1064.977936651494
 21
1174.92454532638
 31
0.0
  0
LINE
  5
203
330
22
100
AcDbEntity
  8
_4-2_
  6
Continuous
 62
     7
100
AcDbLine
 10
1064.977936651494
 20
1174.92454532638
 30
0.0
 11
1065.118607860881
 21
1174.90387858909
 31
0.0
  0
LINE
  5
204
330
22
100
AcDbEntity
  8
_4-2_
  6
Continuous
 62
     7
100
AcDbLine
 10
1065.118607860881
 20
1174.90387858909
 30
0.0
 11
1065.258195304792
 21
1174.880338454177
 31
0.0
  0
LINE
  5
205
330
22
100
AcDbEntity
  8
_4-2_
  6
Continuous
 62
     7
100
AcDbLine
 10
1065.258195304792
 20
1174.880338454177
 30
0.0
 11
1065.396013055711
 21
1174.852106315536
 31
0.0
  0
LINE
  5
206
330
22
100
AcDbEntity
  8
_4-2_
  6
Continuous
 62
     7
100
AcDbLine
 10
1065.396013055711
 20
1174.852106315536
 30
0.0
 11
1065.531375186123
 21
1174.817363567078
 31
0.0
  0
LINE
  5
207
330
22
100
AcDbEntity
  8
_4-2_
  6
Continuous
 62
     7
100
AcDbLine
 10
1065.531375186123
 20
1174.817363567078
 30
0.0
 11
1065.663595768508
 21
1174.774291602711
 31
0.0
  0
LINE
  5
208
330
22
100
AcDbEntity
  8
_4-2_
  6
Continuous
 62
     7
100
AcDbLine
 10
1065.663595768508
 20
1174.774291602711
 30
0.0
 11
1065.738573957879
 21
1174.744776791278
 31
0.0
  0
LINE
  5
209
330
22
100
AcDbEntity
  8
_4-2_
  6
Continuous
 62
     7
100
AcDbLine
 10
1065.738573957879
 20
1174.744776791278
 30
0.0
 11
1065.796146982624
 21
1174.719188627989
 31
0.0
  0
LINE
  5
20A
330
22
100
AcDbEntity
  8
_4-2_
  6
Continuous
 62
     7
100
AcDbLine
 10
1065.796146982624
 20
1174.719188627989
 30
0.0
 11
1065.893468422006
 21
1174.670179145061
 31
0.0
  0
LINE
  5
20B
330
22
100
AcDbEntity
  8
_4-2_
  6
Continuous
 62
     7
100
AcDbLine
 10
1065.893468422006
 20
1174.670179145061
 30
0.0
 11
1065.988470673807
 21
1174.615737261111
 31
0.0
  0
LINE
  5
20C
330
22
100
AcDbEntity
  8
_4-2_
  6
Continuous
 62
     7
100
AcDbLine
 10
1065.988470673807
 20
1174.615737261111
 30
0.0
 11
1066.081315996183
 21
1174.55674664289
 31
0.0
  0
LINE
  5
20D
330
22
100
AcDbEntity
  8
_4-2_
  6
Continuous
 62
     7
100
AcDbLine
 10
1066.081315996183
 20
1174.55674664289
 30
0.0
 11
1066.172166647292
 21
1174.494090957177
 31
0.0
  0
LINE
  5
20E
330
22
100
AcDbEntity
  8
_4-2_
  6
Continuous
 62
     7
100
AcDbLine
 10
1066.172166647292
 20
1174.494090957177
 30
0.0
 11
1066.261184885289
 21
1174.428653870729
 31
0.0
  0
LINE
  5
20F
330
22
100
AcDbEntity
  8
_4-2_
  6
Continuous
 62
     7
100
AcDbLine
 10
1066.261184885289
 20
1174.428653870729
 30
0.0
 11
1066.31203978979
 21
1174.389774133428
 31
0.0
  0
LINE
  5
210
330
22
100
AcDbEntity
  8
_4-2_
  6
Continuous
 62
     7
100
AcDbLine
 10
1066.31203978979
 20
1174.389774133428
 30
0.0
 11
1066.371217035292
 21
1174.34338896222
 31
0.0
  0
LINE
  5
211
330
22
100
AcDbEntity
  8
_4-2_
  6
Continuous
 62
     7
100
AcDbLine
 10
1066.371217035292
 20
1174.34338896222
 30
0.0
 11
1066.471666281456
 21
1174.261998374654
 31
0.0
  0
LINE
  5
212
330
22
100
AcDbEntity
  8
_4-2_
  6
Continuous
 62
     7
100
AcDbLine
 10
1066.471666281456
 20
1174.261998374654
 30
0.0
 11
1066.570333007951
 21
1174.178965987641
 31
0.0
  0
LINE
  5
213
330
22
100
AcDbEntity
  8
_4-2_
  6
Continuous
 62
     7
100
AcDbLine
 10
1066.570333007951
 20
1174.178965987641
 30
0.0
 11
1066.667470816367
 21
1174.09446715131
 31
0.0
  0
LINE
  5
214
330
22
100
AcDbEntity
  8
_4-2_
  6
Continuous
 62
     7
100
AcDbLine
 10
1066.667470816367
 20
1174.09446715131
 30
0.0
 11
1066.763333308296
 21
1174.008677215795
 31
0.0
  0
LINE
  5
215
330
22
100
AcDbEntity
  8
_4-2_
  6
Continuous
 62
     7
100
AcDbLine
 10
1066.763333308296
 20
1174.008677215795
 30
0.0
 11
1066.858174085331
 21
1173.921771531229
 31
0.0
  0
LINE
  5
216
330
22
100
AcDbEntity
  8
_4-2_
  6
Continuous
 62
     7
100
AcDbLine
 10
1066.858174085331
 20
1173.921771531229
 30
0.0
 11
1066.91281351846
 21
1173.870924095033
 31
0.0
  0
LINE
  5
217
330
22
100
AcDbEntity
  8
_4-2_
  6
Continuous
 62
     7
100
AcDbLine
 10
1066.91281351846
 20
1173.870924095033
 30
0.0
 11
1066.969732377459
 21
1173.817402174149
 31
0.0
  0
LINE
  5
218
330
22
100
AcDbEntity
  8
_4-2_
  6
Continuous
 62
     7
100
AcDbLine
 10
1066.969732377459
 20
1173.817402174149
 30
0.0
 11
1067.067045970479
 21
1173.724153825207
 31
0.0
  0
LINE
  5
219
330
22
100
AcDbEntity
  8
_4-2_
  6
Continuous
 62
     7
100
AcDbLine
 10
1067.067045970479
 20
1173.724153825207
 30
0.0
 11
1067.162887206979
 21
1173.629309941725
 31
0.0
  0
LINE
  5
21A
330
22
100
AcDbEntity
  8
_4-2_
  6
Continuous
 62
     7
100
AcDbLine
 10
1067.162887206979
 20
1173.629309941725
 30
0.0
 11
1067.256754481304
 21
1173.532441767038
 31
0.0
  0
LINE
  5
21B
330
22
100
AcDbEntity
  8
_4-2_
  6
Continuous
 62
     7
100
AcDbLine
 10
1067.256754481304
 20
1173.532441767038
 30
0.0
 11
1067.348146187802
 21
1173.433120544471
 31
0.0
  0
LINE
  5
21C
330
22
100
AcDbEntity
  8
_4-2_
  6
Continuous
 62
     7
100
AcDbLine
 10
1067.348146187802
 20
1173.433120544471
 30
0.0
 11
1067.436560720819
 21
1173.330917517355
 31
0.0
  0
LINE
  5
21D
330
22
100
AcDbEntity
  8
_4-2_
  6
Continuous
 62
     7
100
AcDbLine
 10
1067.436560720819
 20
1173.330917517355
 30
0.0
 11
1067.486279350369
 21
1173.270150366363
 31
0.0
  0
LINE
  5
21E
330
22
100
AcDbEntity
  8
_4-2_
  6
Continuous
 62
     7
100
AcDbLine
 10
1067.486279350369
 20
1173.270150366363
 30
0.0
 11
1067.52923269568
 21
1173.215366804149
 31
0.0
  0
LINE
  5
21F
330
22
100
AcDbEntity
  8
_4-2_
  6
Continuous
 62
     7
100
AcDbLine
 10
1067.52923269568
 20
1173.215366804149
 30
0.0
 11
1067.600615675556
 21
1173.118733616702
 31
0.0
  0
LINE
  5
220
330
22
100
AcDbEntity
  8
_4-2_
  6
Continuous
 62
     7
100
AcDbLine
 10
1067.600615675556
 20
1173.118733616702
 30
0.0
 11
1067.668098606138
 21
1173.019380402206
 31
0.0
  0
LINE
  5
221
330
22
100
AcDbEntity
  8
_4-2_
  6
Continuous
 62
     7
100
AcDbLine
 10
1067.668098606138
 20
1173.019380402206
 30
0.0
 11
1067.731083125779
 21
1172.917351241439
 31
0.0
  0
LINE
  5
222
330
22
100
AcDbEntity
  8
_4-2_
  6
Continuous
 62
     7
100
AcDbLine
 10
1067.731083125779
 20
1172.917351241439
 30
0.0
 11
1067.788970872834
 21
1172.812690215171
 31
0.0
  0
LINE
  5
223
330
22
100
AcDbEntity
  8
_4-2_
  6
Continuous
 62
     7
100
AcDbLine
 10
1067.788970872834
 20
1172.812690215171
 30
0.0
 11
1067.841163485653
 21
1172.705441404168
 31
0.0
  0
LINE
  5
224
330
22
100
AcDbEntity
  8
_4-2_
  6
Continuous
 62
     7
100
AcDbLine
 10
1067.841163485653
 20
1172.705441404168
 30
0.0
 11
1067.868589904977
 21
1172.642068740938
 31
0.0
  0
LINE
  5
225
330
22
100
AcDbEntity
  8
_4-2_
  6
Continuous
 62
     7
100
AcDbLine
 10
1067.868589904977
 20
1172.642068740938
 30
0.0
 11
1067.896420350769
 21
1172.570877807977
 31
0.0
  0
LINE
  5
226
330
22
100
AcDbEntity
  8
_4-2_
  6
Continuous
 62
     7
100
AcDbLine
 10
1067.896420350769
 20
1172.570877807977
 30
0.0
 11
1067.938489493526
 21
1172.445947521816
 31
0.0
  0
LINE
  5
227
330
22
100
AcDbEntity
  8
_4-2_
  6
Continuous
 62
     7
100
AcDbLine
 10
1067.938489493526
 20
1172.445947521816
 30
0.0
 11
1067.973866713213
 21
1172.318633710031
 31
0.0
  0
LINE
  5
228
330
22
100
AcDbEntity
  8
_4-2_
  6
Continuous
 62
     7
100
AcDbLine
 10
1067.973866713213
 20
1172.318633710031
 30
0.0
 11
1068.003476009295
 21
1172.189384287025
 31
0.0
  0
LINE
  5
229
330
22
100
AcDbEntity
  8
_4-2_
  6
Continuous
 62
     7
100
AcDbLine
 10
1068.003476009295
 20
1172.189384287025
 30
0.0
 11
1068.028241381238
 21
1172.058647167207
 31
0.0
  0
LINE
  5
22A
330
22
100
AcDbEntity
  8
_4-2_
  6
Continuous
 62
     7
100
AcDbLine
 10
1068.028241381238
 20
1172.058647167207
 30
0.0
 11
1068.04908682851
 21
1171.926870264985
 31
0.0
  0
LINE
  5
22B
330
22
100
AcDbEntity
  8
_4-2_
  6
Continuous
 62
     7
100
AcDbLine
 10
1068.04908682851
 20
1171.926870264985
 30
0.0
 11
1068.059745182282
 21
1171.850139734965
 31
0.0
  0
LINE
  5
22C
330
22
100
AcDbEntity
  8
_4-2_
  6
Continuous
 62
     7
100
AcDbLine
 10
1068.059745182282
 20
1171.850139734965
 30
0.0
 11
1068.071443306825
 21
1171.757354128664
 31
0.0
  0
LINE
  5
22D
330
22
100
AcDbEntity
  8
_4-2_
  6
Continuous
 62
     7
100
AcDbLine
 10
1068.071443306825
 20
1171.757354128664
 30
0.0
 11
1068.088260032505
 21
1171.597153962861
 31
0.0
  0
LINE
  5
22E
330
22
100
AcDbEntity
  8
_4-2_
  6
Continuous
 62
     7
100
AcDbLine
 10
1068.088260032505
 20
1171.597153962861
 30
0.0
 11
1068.100046437067
 21
1171.436906882497
 31
0.0
  0
LINE
  5
22F
330
22
100
AcDbEntity
  8
_4-2_
  6
Continuous
 62
     7
100
AcDbLine
 10
1068.100046437067
 20
1171.436906882497
 30
0.0
 11
1068.105887744059
 21
1171.276889484602
 31
0.0
  0
LINE
  5
230
330
22
100
AcDbEntity
  8
_4-2_
  6
Continuous
 62
     7
100
AcDbLine
 10
1068.105887744059
 20
1171.276889484602
 30
0.0
 11
1068.104869177028
 21
1171.117378366207
 31
0.0
  0
LINE
  5
231
330
22
100
AcDbEntity
  8
_4-2_
  6
Continuous
 62
     7
100
AcDbLine
 10
1068.104869177028
 20
1171.117378366207
 30
0.0
 11
1068.096075959528
 21
1170.958650124336
 31
0.0
  0
LINE
  5
232
330
22
100
AcDbEntity
  8
_4-2_
  6
Continuous
 62
     7
100
AcDbLine
 10
1068.096075959528
 20
1170.958650124336
 30
0.0
 11
1068.08705307904
 21
1170.867055451687
 31
0.0
  0
LINE
  5
233
330
22
100
AcDbEntity
  8
_4-2_
  6
Continuous
 62
     7
100
AcDbLine
 10
1068.08705307904
 20
1170.867055451687
 30
0.0
 11
1068.078496962737
 21
1170.799965331959
 31
0.0
  0
LINE
  5
234
330
22
100
AcDbEntity
  8
_4-2_
  6
Continuous
 62
     7
100
AcDbLine
 10
1068.078496962737
 20
1170.799965331959
 30
0.0
 11
1068.060397193211
 21
1170.684684043979
 31
0.0
  0
LINE
  5
235
330
22
100
AcDbEntity
  8
_4-2_
  6
Continuous
 62
     7
100
AcDbLine
 10
1068.060397193211
 20
1170.684684043979
 30
0.0
 11
1068.038950017249
 21
1170.569702258078
 31
0.0
  0
LINE
  5
236
330
22
100
AcDbEntity
  8
_4-2_
  6
Continuous
 62
     7
100
AcDbLine
 10
1068.038950017249
 20
1170.569702258078
 30
0.0
 11
1068.015190750982
 21
1170.454792235668
 31
0.0
  0
LINE
  5
237
330
22
100
AcDbEntity
  8
_4-2_
  6
Continuous
 62
     7
100
AcDbLine
 10
1068.015190750982
 20
1170.454792235668
 30
0.0
 11
1067.99015471054
 21
1170.339726238155
 31
0.0
  0
LINE
  5
238
330
22
100
AcDbEntity
  8
_4-2_
  6
Continuous
 62
     7
100
AcDbLine
 10
1067.99015471054
 20
1170.339726238155
 30
0.0
 11
1067.964877212056
 21
1170.224276526949
 31
0.0
  0
LINE
  5
239
330
22
100
AcDbEntity
  8
_4-2_
  6
Continuous
 62
     7
100
AcDbLine
 10
1067.964877212056
 20
1170.224276526949
 30
0.0
 11
1067.950513595251
 21
1170.15705013599
 31
0.0
  0
LINE
  5
23A
330
22
100
AcDbEntity
  8
_4-2_
  6
Continuous
 62
     7
100
AcDbLine
 10
1067.950513595251
 20
1170.15705013599
 30
0.0
 11
1067.934717519316
 21
1170.080730616412
 31
0.0
  0
LINE
  5
23B
330
22
100
AcDbEntity
  8
_4-2_
  6
Continuous
 62
     7
100
AcDbLine
 10
1067.934717519316
 20
1170.080730616412
 30
0.0
 11
1067.907624071668
 21
1169.948981851685
 31
0.0
  0
LINE
  5
23C
330
22
100
AcDbEntity
  8
_4-2_
  6
Continuous
 62
     7
100
AcDbLine
 10
1067.907624071668
 20
1169.948981851685
 30
0.0
 11
1067.878790847825
 21
1169.817916086785
 31
0.0
  0
LINE
  5
23D
330
22
100
AcDbEntity
  8
_4-2_
  6
Continuous
 62
     7
100
AcDbLine
 10
1067.878790847825
 20
1169.817916086785
 30
0.0
 11
1067.84598707176
 21
1169.688567993491
 31
0.0
  0
LINE
  5
23E
330
22
100
AcDbEntity
  8
_4-2_
  6
Continuous
 62
     7
100
AcDbLine
 10
1067.84598707176
 20
1169.688567993491
 30
0.0
 11
1067.806981967448
 21
1169.561972243582
 31
0.0
  0
LINE
  5
23F
330
22
100
AcDbEntity
  8
_4-2_
  6
Continuous
 62
     7
100
AcDbLine
 10
1067.806981967448
 20
1169.561972243582
 30
0.0
 11
1067.759544758865
 21
1169.439163508832
 31
0.0
  0
LINE
  5
240
330
22
100
AcDbEntity
  8
_4-2_
  6
Continuous
 62
     7
100
AcDbLine
 10
1067.759544758865
 20
1169.439163508832
 30
0.0
 11
1067.727288545954
 21
1169.370077367507
 31
0.0
  0
LINE
  5
241
330
22
100
AcDbEntity
  8
_4-2_
  6
Continuous
 62
     7
100
AcDbLine
 10
1067.727288545954
 20
1169.370077367507
 30
0.0
 11
1067.694110126002
 21
1169.308000973021
 31
0.0
  0
LINE
  5
242
330
22
100
AcDbEntity
  8
_4-2_
  6
Continuous
 62
     7
100
AcDbLine
 10
1067.694110126002
 20
1169.308000973021
 30
0.0
 11
1067.629556200316
 21
1169.204611026027
 31
0.0
  0
LINE
  5
243
330
22
100
AcDbEntity
  8
_4-2_
  6
Continuous
 62
     7
100
AcDbLine
 10
1067.629556200316
 20
1169.204611026027
 30
0.0
 11
1067.556712680483
 21
1169.105828793926
 31
0.0
  0
LINE
  5
244
330
22
100
AcDbEntity
  8
_4-2_
  6
Continuous
 62
     7
100
AcDbLine
 10
1067.556712680483
 20
1169.105828793926
 30
0.0
 11
1067.476758509661
 21
1169.011656889915
 31
0.0
  0
LINE
  5
245
330
22
100
AcDbEntity
  8
_4-2_
  6
Continuous
 62
     7
100
AcDbLine
 10
1067.476758509661
 20
1169.011656889915
 30
0.0
 11
1067.390872631007
 21
1168.922097927188
 31
0.0
  0
LINE
  5
246
330
22
100
AcDbEntity
  8
_4-2_
  6
Continuous
 62
     7
100
AcDbLine
 10
1067.390872631007
 20
1168.922097927188
 30
0.0
 11
1067.300233987676
 21
1168.837154518935
 31
0.0
  0
LINE
  5
247
330
22
100
AcDbEntity
  8
_4-2_
  6
Continuous
 62
     7
100
AcDbLine
 10
1067.300233987676
 20
1168.837154518935
 30
0.0
 11
1067.245950422677
 21
1168.790003218944
 31
0.0
  0
LINE
  5
248
330
22
100
AcDbEntity
  8
_4-2_
  6
Continuous
 62
     7
100
AcDbLine
 10
1067.245950422677
 20
1168.790003218944
 30
0.0
 11
1067.181845805183
 21
1168.737318828712
 31
0.0
  0
LINE
  5
249
330
22
100
AcDbEntity
  8
_4-2_
  6
Continuous
 62
     7
100
AcDbLine
 10
1067.181845805183
 20
1168.737318828712
 30
0.0
 11
1067.068542674098
 21
1168.650961416667
 31
0.0
  0
LINE
  5
24A
330
22
100
AcDbEntity
  8
_4-2_
  6
Continuous
 62
     7
100
AcDbLine
 10
1067.068542674098
 20
1168.650961416667
 30
0.0
 11
1066.95215225246
 21
1168.569642499781
 31
0.0
  0
LINE
  5
24B
330
22
100
AcDbEntity
  8
_4-2_
  6
Continuous
 62
     7
100
AcDbLine
 10
1066.95215225246
 20
1168.569642499781
 30
0.0
 11
1066.83317346428
 21
1168.492630061041
 31
0.0
  0
LINE
  5
24C
330
22
100
AcDbEntity
  8
_4-2_
  6
Continuous
 62
     7
100
AcDbLine
 10
1066.83317346428
 20
1168.492630061041
 30
0.0
 11
1066.712105233565
 21
1168.419192083433
 31
0.0
  0
LINE
  5
24D
330
22
100
AcDbEntity
  8
_4-2_
  6
Continuous
 62
     7
100
AcDbLine
 10
1066.712105233565
 20
1168.419192083433
 30
0.0
 11
1066.589446484325
 21
1168.348596549954
 31
0.0
  0
LINE
  5
24E
330
22
100
AcDbEntity
  8
_4-2_
  6
Continuous
 62
     7
100
AcDbLine
 10
1066.589446484325
 20
1168.348596549954
 30
0.0
 11
1066.517772236182
 21
1168.308665095667
 31
0.0
  0
LINE
  5
24F
330
22
100
AcDbEntity
  8
_4-2_
  6
Continuous
 62
     7
100
AcDbLine
 10
1066.517772236182
 20
1168.308665095667
 30
0.0
 11
1066.440855616098
 21
1168.266622990975
 31
0.0
  0
LINE
  5
250
330
22
100
AcDbEntity
  8
_4-2_
  6
Continuous
 62
     7
100
AcDbLine
 10
1066.440855616098
 20
1168.266622990975
 30
0.0
 11
1066.307601393367
 21
1168.195384715222
 31
0.0
  0
LINE
  5
251
330
22
100
AcDbEntity
  8
_4-2_
  6
Continuous
 62
     7
100
AcDbLine
 10
1066.307601393367
 20
1168.195384715222
 30
0.0
 11
1066.173665768657
 21
1168.125313122493
 31
0.0
  0
LINE
  5
252
330
22
100
AcDbEntity
  8
_4-2_
  6
Continuous
 62
     7
100
AcDbLine
 10
1066.173665768657
 20
1168.125313122493
 30
0.0
 11
1066.039197480485
 21
1168.055927741713
 31
0.0
  0
LINE
  5
253
330
22
100
AcDbEntity
  8
_4-2_
  6
Continuous
 62
     7
100
AcDbLine
 10
1066.039197480485
 20
1168.055927741713
 30
0.0
 11
1065.904345267373
 21
1167.986748101802
 31
0.0
  0
LINE
  5
254
330
22
100
AcDbEntity
  8
_4-2_
  6
Continuous
 62
     7
100
AcDbLine
 10
1065.904345267373
 20
1167.986748101802
 30
0.0
 11
1065.769257867838
 21
1167.917293731679
 31
0.0
  0
LINE
  5
255
330
22
100
AcDbEntity
  8
_4-2_
  6
Continuous
 62
     7
100
AcDbLine
 10
1065.769257867838
 20
1167.917293731679
 30
0.0
 11
1065.6908580244
 21
1167.876694985034
 31
0.0
  0
LINE
  5
256
330
22
100
AcDbEntity
  8
_4-2_
  6
Continuous
 62
     7
100
AcDbLine
 10
1065.6908580244
 20
1167.876694985034
 30
0.0
 11
1065.585340410021
 21
1167.821436576173
 31
0.0
  0
LINE
  5
257
330
22
100
AcDbEntity
  8
_4-2_
  6
Continuous
 62
     7
100
AcDbLine
 10
1065.585340410021
 20
1167.821436576173
 30
0.0
 11
1065.404468056341
 21
1167.723621066218
 31
0.0
  0
LINE
  5
258
330
22
100
AcDbEntity
  8
_4-2_
  6
Continuous
 62
     7
100
AcDbLine
 10
1065.404468056341
 20
1167.723621066218
 30
0.0
 11
1065.226525446183
 21
1167.620982570451
 31
0.0
  0
LINE
  5
259
330
22
100
AcDbEntity
  8
_4-2_
  6
Continuous
 62
     7
100
AcDbLine
 10
1065.226525446183
 20
1167.620982570451
 30
0.0
 11
1065.053367053673
 21
1167.511655078335
 31
0.0
  0
LINE
  5
25A
330
22
100
AcDbEntity
  8
_4-2_
  6
Continuous
 62
     7
100
AcDbLine
 10
1065.053367053673
 20
1167.511655078335
 30
0.0
 11
1064.886847352932
 21
1167.393772579334
 31
0.0
  0
LINE
  5
25B
330
22
100
AcDbEntity
  8
_4-2_
  6
Continuous
 62
     7
100
AcDbLine
 10
1064.886847352932
 20
1167.393772579334
 30
0.0
 11
1064.728820818082
 21
1167.265469062911
 31
0.0
  0
LINE
  5
25C
330
22
100
AcDbEntity
  8
_4-2_
  6
Continuous
 62
     7
100
AcDbLine
 10
1064.728820818082
 20
1167.265469062911
 30
0.0
 11
1064.64178775572
 21
1167.185542808022
 31
0.0
  0
LINE
  5
25D
330
22
100
AcDbEntity
  8
_4-2_
  6
Continuous
 62
     7
100
AcDbLine
 10
1064.64178775572
 20
1167.185542808022
 30
0.0
 11
1064.612347127025
 21
1167.156658325332
 31
0.0
  0
LINE
  5
25E
330
22
100
AcDbEntity
  8
_4-2_
  6
Continuous
 62
     7
100
AcDbLine
 10
1064.612347127025
 20
1167.156658325332
 30
0.0
 11
1064.562756442629
 21
1167.105596286867
 31
0.0
  0
LINE
  5
25F
330
22
100
AcDbEntity
  8
_4-2_
  6
Continuous
 62
     7
100
AcDbLine
 10
1064.562756442629
 20
1167.105596286867
 30
0.0
 11
1064.514756374228
 21
1167.052969791661
 31
0.0
  0
LINE
  5
260
330
22
100
AcDbEntity
  8
_4-2_
  6
Continuous
 62
     7
100
AcDbLine
 10
1064.514756374228
 20
1167.052969791661
 30
0.0
 11
1064.468475809648
 21
1166.998816056977
 31
0.0
  0
LINE
  5
261
330
22
100
AcDbEntity
  8
_4-2_
  6
Continuous
 62
     7
100
AcDbLine
 10
1064.468475809648
 20
1166.998816056977
 30
0.0
 11
1064.424043636718
 21
1166.943172300079
 31
0.0
  0
LINE
  5
262
330
22
100
AcDbEntity
  8
_4-2_
  6
Continuous
 62
     7
100
AcDbLine
 10
1064.424043636718
 20
1166.943172300079
 30
0.0
 11
1064.381588743261
 21
1166.886075738236
 31
0.0
  0
LINE
  5
263
330
22
100
AcDbEntity
  8
_4-2_
  6
Continuous
 62
     7
100
AcDbLine
 10
1064.381588743261
 20
1166.886075738236
 30
0.0
 11
1064.357921683018
 21
1166.852308722675
 31
0.0
  0
LINE
  5
264
330
22
100
AcDbEntity
  8
_4-2_
  6
Continuous
 62
     7
100
AcDbLine
 10
1064.357921683018
 20
1166.852308722675
 30
0.0
 11
1064.320863751532
 21
1166.796307840747
 31
0.0
  0
LINE
  5
265
330
22
100
AcDbEntity
  8
_4-2_
  6
Continuous
 62
     7
100
AcDbLine
 10
1064.320863751532
 20
1166.796307840747
 30
0.0
 11
1064.26060546141
 21
1166.697438188141
 31
0.0
  0
LINE
  5
266
330
22
100
AcDbEntity
  8
_4-2_
  6
Continuous
 62
     7
100
AcDbLine
 10
1064.26060546141
 20
1166.697438188141
 30
0.0
 11
1064.20352520574
 21
1166.596556133743
 31
0.0
  0
LINE
  5
267
330
22
100
AcDbEntity
  8
_4-2_
  6
Continuous
 62
     7
100
AcDbLine
 10
1064.20352520574
 20
1166.596556133743
 30
0.0
 11
1064.147968512959
 21
1166.49473116606
 31
0.0
  0
LINE
  5
268
330
22
100
AcDbEntity
  8
_4-2_
  6
Continuous
 62
     7
100
AcDbLine
 10
1064.147968512959
 20
1166.49473116606
 30
0.0
 11
1064.092280911499
 21
1166.393032773589
 31
0.0
  0
LINE
  5
269
330
22
100
AcDbEntity
  8
_4-2_
  6
Continuous
 62
     7
100
AcDbLine
 10
1064.092280911499
 20
1166.393032773589
 30
0.0
 11
1064.034807929796
 21
1166.292530444832
 31
0.0
  0
LINE
  5
26A
330
22
100
AcDbEntity
  8
_4-2_
  6
Continuous
 62
     7
100
AcDbLine
 10
1064.034807929796
 20
1166.292530444832
 30
0.0
 11
1064.00000359135
 21
1166.235208564628
 31
0.0
  0
LINE
  5
26B
330
22
100
AcDbEntity
  8
_4-2_
  6
Continuous
 62
     7
100
AcDbLine
 10
1064.00000359135
 20
1166.235208564628
 30
0.0
 11
1063.962900610181
 21
1166.177451694381
 31
0.0
  0
LINE
  5
26C
330
22
100
AcDbEntity
  8
_4-2_
  6
Continuous
 62
     7
100
AcDbLine
 10
1063.962900610181
 20
1166.177451694381
 30
0.0
 11
1063.895712009076
 21
1166.079987318035
 31
0.0
  0
LINE
  5
26D
330
22
100
AcDbEntity
  8
_4-2_
  6
Continuous
 62
     7
100
AcDbLine
 10
1063.895712009076
 20
1166.079987318035
 30
0.0
 11
1063.825097515344
 21
1165.984785729144
 31
0.0
  0
LINE
  5
26E
330
22
100
AcDbEntity
  8
_4-2_
  6
Continuous
 62
     7
100
AcDbLine
 10
1063.825097515344
 20
1165.984785729144
 30
0.0
 11
1063.751809982597
 21
1165.891362923685
 31
0.0
  0
LINE
  5
26F
330
22
100
AcDbEntity
  8
_4-2_
  6
Continuous
 62
     7
100
AcDbLine
 10
1063.751809982597
 20
1165.891362923685
 30
0.0
 11
1063.676602264443
 21
1165.799234897629
 31
0.0
  0
LINE
  5
270
330
22
100
AcDbEntity
  8
_4-2_
  6
Continuous
 62
     7
100
AcDbLine
 10
1063.676602264443
 20
1165.799234897629
 30
0.0
 11
1063.600227214491
 21
1165.707917646941
 31
0.0
  0
LINE
  5
271
330
22
100
AcDbEntity
  8
_4-2_
  6
Continuous
 62
     7
100
AcDbLine
 10
1063.600227214491
 20
1165.707917646941
 30
0.0
 11
1063.555691477557
 21
1165.655134416065
 31
0.0
  0
LINE
  5
272
330
22
100
AcDbEntity
  8
_4-2_
  6
Continuous
 62
     7
100
AcDbLine
 10
1063.555691477557
 20
1165.655134416065
 30
0.0
 11
1063.499766112619
 21
1165.588983251302
 31
0.0
  0
LINE
  5
273
330
22
100
AcDbEntity
  8
_4-2_
  6
Continuous
 62
     7
100
AcDbLine
 10
1063.499766112619
 20
1165.588983251302
 30
0.0
 11
1063.402839203998
 21
1165.47550026486
 31
0.0
  0
LINE
  5
274
330
22
100
AcDbEntity
  8
_4-2_
  6
Continuous
 62
     7
100
AcDbLine
 10
1063.402839203998
 20
1165.47550026486
 30
0.0
 11
1063.304470973847
 21
1165.36351610697
 31
0.0
  0
LINE
  5
275
330
22
100
AcDbEntity
  8
_4-2_
  6
Continuous
 62
     7
100
AcDbLine
 10
1063.304470973847
 20
1165.36351610697
 30
0.0
 11
1063.203727100143
 21
1165.253933528078
 31
0.0
  0
LINE
  5
276
330
22
100
AcDbEntity
  8
_4-2_
  6
Continuous
 62
     7
100
AcDbLine
 10
1063.203727100143
 20
1165.253933528078
 30
0.0
 11
1063.099673260861
 21
1165.147655278635
 31
0.0
  0
LINE
  5
277
330
22
100
AcDbEntity
  8
_4-2_
  6
Continuous
 62
     7
100
AcDbLine
 10
1063.099673260861
 20
1165.147655278635
 30
0.0
 11
1062.991375133981
 21
1165.045584109086
 31
0.0
  0
LINE
  5
278
330
22
100
AcDbEntity
  8
_4-2_
  6
Continuous
 62
     7
100
AcDbLine
 10
1062.991375133981
 20
1165.045584109086
 30
0.0
 11
1062.926249316349
 21
1164.988666245376
 31
0.0
  0
LINE
  5
279
330
22
100
AcDbEntity
  8
_4-2_
  6
Continuous
 62
     7
100
AcDbLine
 10
1062.926249316349
 20
1164.988666245376
 30
0.0
 11
1062.887444769147
 21
1164.956379199975
 31
0.0
  0
LINE
  5
27A
330
22
100
AcDbEntity
  8
_4-2_
  6
Continuous
 62
     7
100
AcDbLine
 10
1062.887444769147
 20
1164.956379199975
 30
0.0
 11
1062.819024306749
 21
1164.902426006035
 31
0.0
  0
LINE
  5
27B
330
22
100
AcDbEntity
  8
_4-2_
  6
Continuous
 62
     7
100
AcDbLine
 10
1062.819024306749
 20
1164.902426006035
 30
0.0
 11
1062.74871102065
 21
1164.850951085952
 31
0.0
  0
LINE
  5
27C
330
22
100
AcDbEntity
  8
_4-2_
  6
Continuous
 62
     7
100
AcDbLine
 10
1062.74871102065
 20
1164.850951085952
 30
0.0
 11
1062.676535437705
 21
1164.802313154236
 31
0.0
  0
LINE
  5
27D
330
22
100
AcDbEntity
  8
_4-2_
  6
Continuous
 62
     7
100
AcDbLine
 10
1062.676535437705
 20
1164.802313154236
 30
0.0
 11
1062.602528084772
 21
1164.756870925396
 31
0.0
  0
LINE
  5
27E
330
22
100
AcDbEntity
  8
_4-2_
  6
Continuous
 62
     7
100
AcDbLine
 10
1062.602528084772
 20
1164.756870925396
 30
0.0
 11
1062.526719488706
 21
1164.714983113942
 31
0.0
  0
LINE
  5
27F
330
22
100
AcDbEntity
  8
_4-2_
  6
Continuous
 62
     7
100
AcDbLine
 10
1062.526719488706
 20
1164.714983113942
 30
0.0
 11
1062.481937202555
 21
1164.69245816951
 31
0.0
  0
LINE
  5
280
330
22
100
AcDbEntity
  8
_4-2_
  6
Continuous
 62
     7
100
AcDbLine
 10
1062.481937202555
 20
1164.69245816951
 30
0.0
 11
1062.418514770649
 21
1164.663300761162
 31
0.0
  0
LINE
  5
281
330
22
100
AcDbEntity
  8
_4-2_
  6
Continuous
 62
     7
100
AcDbLine
 10
1062.418514770649
 20
1164.663300761162
 30
0.0
 11
1062.306787033742
 21
1164.618621537194
 31
0.0
  0
LINE
  5
282
330
22
100
AcDbEntity
  8
_4-2_
  6
Continuous
 62
     7
100
AcDbLine
 10
1062.306787033742
 20
1164.618621537194
 30
0.0
 11
1062.1925242724
 21
1164.579901950555
 31
0.0
  0
LINE
  5
283
330
22
100
AcDbEntity
  8
_4-2_
  6
Continuous
 62
     7
100
AcDbLine
 10
1062.1925242724
 20
1164.579901950555
 30
0.0
 11
1062.076279985405
 21
1164.545840770388
 31
0.0
  0
LINE
  5
284
330
22
100
AcDbEntity
  8
_4-2_
  6
Continuous
 62
     7
100
AcDbLine
 10
1062.076279985405
 20
1164.545840770388
 30
0.0
 11
1061.958607671546
 21
1164.515136765831
 31
0.0
  0
LINE
  5
285
330
22
100
AcDbEntity
  8
_4-2_
  6
Continuous
 62
     7
100
AcDbLine
 10
1061.958607671546
 20
1164.515136765831
 30
0.0
 11
1061.840060829607
 21
1164.486488706031
 31
0.0
  0
LINE
  5
286
330
22
100
AcDbEntity
  8
_4-2_
  6
Continuous
 62
     7
100
AcDbLine
 10
1061.840060829607
 20
1164.486488706031
 30
0.0
 11
1061.771121059819
 21
1164.470302112615
 31
0.0
  0
LINE
  5
287
330
22
100
AcDbEntity
  8
_4-2_
  6
Continuous
 62
     7
100
AcDbLine
 10
833.6461210598187
 20
1174.935932068581
 30
0.0
 11
833.5643054681426
 21
1174.92454532638
 31
0.0
  0
LINE
  5
288
330
22
100
AcDbEntity
  8
_4-2_
  6
Continuous
 62
     7
100
AcDbLine
 10
833.5643054681426
 20
1174.92454532638
 30
0.0
 11
833.4236342587551
 21
1174.90387858909
 31
0.0
  0
LINE
  5
289
330
22
100
AcDbEntity
  8
_4-2_
  6
Continuous
 62
     7
100
AcDbLine
 10
833.4236342587551
 20
1174.90387858909
 30
0.0
 11
833.2840468148447
 21
1174.880338454177
 31
0.0
  0
LINE
  5
28A
330
22
100
AcDbEntity
  8
_4-2_
  6
Continuous
 62
     7
100
AcDbLine
 10
833.2840468148447
 20
1174.880338454177
 30
0.0
 11
833.1462290639249
 21
1174.852106315536
 31
0.0
  0
LINE
  5
28B
330
22
100
AcDbEntity
  8
_4-2_
  6
Continuous
 62
     7
100
AcDbLine
 10
833.1462290639249
 20
1174.852106315536
 30
0.0
 11
833.010866933515
 21
1174.817363567078
 31
0.0
  0
LINE
  5
28C
330
22
100
AcDbEntity
  8
_4-2_
  6
Continuous
 62
     7
100
AcDbLine
 10
833.010866933515
 20
1174.817363567078
 30
0.0
 11
832.8786463511276
 21
1174.774291602711
 31
0.0
  0
LINE
  5
28D
330
22
100
AcDbEntity
  8
_4-2_
  6
Continuous
 62
     7
100
AcDbLine
 10
832.8786463511276
 20
1174.774291602711
 30
0.0
 11
832.803668161757
 21
1174.744776791278
 31
0.0
  0
LINE
  5
28E
330
22
100
AcDbEntity
  8
_4-2_
  6
Continuous
 62
     7
100
AcDbLine
 10
832.803668161757
 20
1174.744776791278
 30
0.0
 11
832.7460951370127
 21
1174.719188627989
 31
0.0
  0
LINE
  5
28F
330
22
100
AcDbEntity
  8
_4-2_
  6
Continuous
 62
     7
100
AcDbLine
 10
832.7460951370127
 20
1174.719188627989
 30
0.0
 11
832.6487736976297
 21
1174.670179145061
 31
0.0
  0
LINE
  5
290
330
22
100
AcDbEntity
  8
_4-2_
  6
Continuous
 62
     7
100
AcDbLine
 10
832.6487736976297
 20
1174.670179145061
 30
0.0
 11
832.5537714458286
 21
1174.615737261111
 31
0.0
  0
LINE
  5
291
330
22
100
AcDbEntity
  8
_4-2_
  6
Continuous
 62
     7
100
AcDbLine
 10
832.5537714458286
 20
1174.615737261111
 30
0.0
 11
832.4609261234543
 21
1174.55674664289
 31
0.0
  0
LINE
  5
292
330
22
100
AcDbEntity
  8
_4-2_
  6
Continuous
 62
     7
100
AcDbLine
 10
832.4609261234543
 20
1174.55674664289
 30
0.0
 11
832.3700754723459
 21
1174.494090957177
 31
0.0
  0
LINE
  5
293
330
22
100
AcDbEntity
  8
_4-2_
  6
Continuous
 62
     7
100
AcDbLine
 10
832.3700754723459
 20
1174.494090957177
 30
0.0
 11
832.2810572343481
 21
1174.428653870729
 31
0.0
  0
LINE
  5
294
330
22
100
AcDbEntity
  8
_4-2_
  6
Continuous
 62
     7
100
AcDbLine
 10
832.2810572343481
 20
1174.428653870729
 30
0.0
 11
832.2302023298457
 21
1174.389774133428
 31
0.0
  0
LINE
  5
295
330
22
100
AcDbEntity
  8
_4-2_
  6
Continuous
 62
     7
100
AcDbLine
 10
832.2302023298457
 20
1174.389774133428
 30
0.0
 11
832.1710250843452
 21
1174.34338896222
 31
0.0
  0
LINE
  5
296
330
22
100
AcDbEntity
  8
_4-2_
  6
Continuous
 62
     7
100
AcDbLine
 10
832.1710250843452
 20
1174.34338896222
 30
0.0
 11
832.07057583818
 21
1174.261998374654
 31
0.0
  0
LINE
  5
297
330
22
100
AcDbEntity
  8
_4-2_
  6
Continuous
 62
     7
100
AcDbLine
 10
832.07057583818
 20
1174.261998374654
 30
0.0
 11
831.9719091116859
 21
1174.178965987641
 31
0.0
  0
LINE
  5
298
330
22
100
AcDbEntity
  8
_4-2_
  6
Continuous
 62
     7
100
AcDbLine
 10
831.9719091116859
 20
1174.178965987641
 30
0.0
 11
831.8747713032697
 21
1174.09446715131
 31
0.0
  0
LINE
  5
299
330
22
100
AcDbEntity
  8
_4-2_
  6
Continuous
 62
     7
100
AcDbLine
 10
831.8747713032697
 20
1174.09446715131
 30
0.0
 11
831.7789088113416
 21
1174.008677215795
 31
0.0
  0
LINE
  5
29A
330
22
100
AcDbEntity
  8
_4-2_
  6
Continuous
 62
     7
100
AcDbLine
 10
831.7789088113416
 20
1174.008677215795
 30
0.0
 11
831.6840680343064
 21
1173.921771531229
 31
0.0
  0
LINE
  5
29B
330
22
100
AcDbEntity
  8
_4-2_
  6
Continuous
 62
     7
100
AcDbLine
 10
831.6840680343064
 20
1173.921771531229
 30
0.0
 11
831.6294286011768
 21
1173.870924095033
 31
0.0
  0
LINE
  5
29C
330
22
100
AcDbEntity
  8
_4-2_
  6
Continuous
 62
     7
100
AcDbLine
 10
831.6294286011768
 20
1173.870924095033
 30
0.0
 11
831.572509742177
 21
1173.817402174149
 31
0.0
  0
LINE
  5
29D
330
22
100
AcDbEntity
  8
_4-2_
  6
Continuous
 62
     7
100
AcDbLine
 10
831.572509742177
 20
1173.817402174149
 30
0.0
 11
831.475196149158
 21
1173.724153825207
 31
0.0
  0
LINE
  5
29E
330
22
100
AcDbEntity
  8
_4-2_
  6
Continuous
 62
     7
100
AcDbLine
 10
831.475196149158
 20
1173.724153825207
 30
0.0
 11
831.3793549126566
 21
1173.629309941725
 31
0.0
  0
LINE
  5
29F
330
22
100
AcDbEntity
  8
_4-2_
  6
Continuous
 62
     7
100
AcDbLine
 10
831.3793549126566
 20
1173.629309941725
 30
0.0
 11
831.2854876383321
 21
1173.532441767038
 31
0.0
  0
LINE
  5
2A0
330
22
100
AcDbEntity
  8
_4-2_
  6
Continuous
 62
     7
100
AcDbLine
 10
831.2854876383321
 20
1173.532441767038
 30
0.0
 11
831.1940959318345
 21
1173.433120544471
 31
0.0
  0
LINE
  5
2A1
330
22
100
AcDbEntity
  8
_4-2_
  6
Continuous
 62
     7
100
AcDbLine
 10
831.1940959318345
 20
1173.433120544471
 30
0.0
 11
831.1056813988168
 21
1173.330917517355
 31
0.0
  0
LINE
  5
2A2
330
22
100
AcDbEntity
  8
_4-2_
  6
Continuous
 62
     7
100
AcDbLine
 10
831.1056813988168
 20
1173.330917517355
 30
0.0
 11
831.0559627692665
 21
1173.270150366363
 31
0.0
  0
LINE
  5
2A3
330
22
100
AcDbEntity
  8
_4-2_
  6
Continuous
 62
     7
100
AcDbLine
 10
831.0559627692665
 20
1173.270150366363
 30
0.0
 11
831.0130094239568
 21
1173.215366804149
 31
0.0
  0
LINE
  5
2A4
330
22
100
AcDbEntity
  8
_4-2_
  6
Continuous
 62
     7
100
AcDbLine
 10
831.0130094239568
 20
1173.215366804149
 30
0.0
 11
830.9416264440809
 21
1173.118733616702
 31
0.0
  0
LINE
  5
2A5
330
22
100
AcDbEntity
  8
_4-2_
  6
Continuous
 62
     7
100
AcDbLine
 10
830.9416264440809
 20
1173.118733616702
 30
0.0
 11
830.874143513499
 21
1173.019380402206
 31
0.0
  0
LINE
  5
2A6
330
22
100
AcDbEntity
  8
_4-2_
  6
Continuous
 62
     7
100
AcDbLine
 10
830.874143513499
 20
1173.019380402206
 30
0.0
 11
830.8111589938571
 21
1172.917351241439
 31
0.0
  0
LINE
  5
2A7
330
22
100
AcDbEntity
  8
_4-2_
  6
Continuous
 62
     7
100
AcDbLine
 10
830.8111589938571
 20
1172.917351241439
 30
0.0
 11
830.7532712468022
 21
1172.812690215171
 31
0.0
  0
LINE
  5
2A8
330
22
100
AcDbEntity
  8
_4-2_
  6
Continuous
 62
     7
100
AcDbLine
 10
830.7532712468022
 20
1172.812690215171
 30
0.0
 11
830.7010786339841
 21
1172.705441404168
 31
0.0
  0
LINE
  5
2A9
330
22
100
AcDbEntity
  8
_4-2_
  6
Continuous
 62
     7
100
AcDbLine
 10
830.7010786339841
 20
1172.705441404168
 30
0.0
 11
830.6736522146589
 21
1172.642068740938
 31
0.0
  0
LINE
  5
2AA
330
22
100
AcDbEntity
  8
_4-2_
  6
Continuous
 62
     7
100
AcDbLine
 10
830.6736522146589
 20
1172.642068740938
 30
0.0
 11
830.6458217688678
 21
1172.570877807977
 31
0.0
  0
LINE
  5
2AB
330
22
100
AcDbEntity
  8
_4-2_
  6
Continuous
 62
     7
100
AcDbLine
 10
830.6458217688678
 20
1172.570877807977
 30
0.0
 11
830.6037526261102
 21
1172.445947521816
 31
0.0
  0
LINE
  5
2AC
330
22
100
AcDbEntity
  8
_4-2_
  6
Continuous
 62
     7
100
AcDbLine
 10
830.6037526261102
 20
1172.445947521816
 30
0.0
 11
830.5683754064247
 21
1172.318633710031
 31
0.0
  0
LINE
  5
2AD
330
22
100
AcDbEntity
  8
_4-2_
  6
Continuous
 62
     7
100
AcDbLine
 10
830.5683754064247
 20
1172.318633710031
 30
0.0
 11
830.5387661103427
 21
1172.189384287025
 31
0.0
  0
LINE
  5
2AE
330
22
100
AcDbEntity
  8
_4-2_
  6
Continuous
 62
     7
100
AcDbLine
 10
830.5387661103427
 20
1172.189384287025
 30
0.0
 11
830.5140007383997
 21
1172.058647167207
 31
0.0
  0
LINE
  5
2AF
330
22
100
AcDbEntity
  8
_4-2_
  6
Continuous
 62
     7
100
AcDbLine
 10
830.5140007383997
 20
1172.058647167207
 30
0.0
 11
830.4931552911272
 21
1171.926870264985
 31
0.0
  0
LINE
  5
2B0
330
22
100
AcDbEntity
  8
_4-2_
  6
Continuous
 62
     7
100
AcDbLine
 10
830.4931552911272
 20
1171.926870264985
 30
0.0
 11
830.4824969373553
 21
1171.850139734965
 31
0.0
  0
LINE
  5
2B1
330
22
100
AcDbEntity
  8
_4-2_
  6
Continuous
 62
     7
100
AcDbLine
 10
830.4824969373553
 20
1171.850139734965
 30
0.0
 11
830.4707988128129
 21
1171.757354128664
 31
0.0
  0
LINE
  5
2B2
330
22
100
AcDbEntity
  8
_4-2_
  6
Continuous
 62
     7
100
AcDbLine
 10
830.4707988128129
 20
1171.757354128664
 30
0.0
 11
830.4539820871317
 21
1171.597153962861
 31
0.0
  0
LINE
  5
2B3
330
22
100
AcDbEntity
  8
_4-2_
  6
Continuous
 62
     7
100
AcDbLine
 10
830.4539820871317
 20
1171.597153962861
 30
0.0
 11
830.4421956825702
 21
1171.436906882497
 31
0.0
  0
LINE
  5
2B4
330
22
100
AcDbEntity
  8
_4-2_
  6
Continuous
 62
     7
100
AcDbLine
 10
830.4421956825702
 20
1171.436906882497
 30
0.0
 11
830.4363543755776
 21
1171.276889484602
 31
0.0
  0
LINE
  5
2B5
330
22
100
AcDbEntity
  8
_4-2_
  6
Continuous
 62
     7
100
AcDbLine
 10
830.4363543755776
 20
1171.276889484602
 30
0.0
 11
830.4373729426092
 21
1171.117378366207
 31
0.0
  0
LINE
  5
2B6
330
22
100
AcDbEntity
  8
_4-2_
  6
Continuous
 62
     7
100
AcDbLine
 10
830.4373729426092
 20
1171.117378366207
 30
0.0
 11
830.4461661601099
 21
1170.958650124336
 31
0.0
  0
LINE
  5
2B7
330
22
100
AcDbEntity
  8
_4-2_
  6
Continuous
 62
     7
100
AcDbLine
 10
830.4461661601099
 20
1170.958650124336
 30
0.0
 11
830.4551890405976
 21
1170.867055451687
 31
0.0
  0
LINE
  5
2B8
330
22
100
AcDbEntity
  8
_4-2_
  6
Continuous
 62
     7
100
AcDbLine
 10
830.4551890405976
 20
1170.867055451687
 30
0.0
 11
830.4637451569007
 21
1170.799965331959
 31
0.0
  0
LINE
  5
2B9
330
22
100
AcDbEntity
  8
_4-2_
  6
Continuous
 62
     7
100
AcDbLine
 10
830.4637451569007
 20
1170.799965331959
 30
0.0
 11
830.4818449264255
 21
1170.684684043979
 31
0.0
  0
LINE
  5
2BA
330
22
100
AcDbEntity
  8
_4-2_
  6
Continuous
 62
     7
100
AcDbLine
 10
830.4818449264255
 20
1170.684684043979
 30
0.0
 11
830.503292102388
 21
1170.569702258078
 31
0.0
  0
LINE
  5
2BB
330
22
100
AcDbEntity
  8
_4-2_
  6
Continuous
 62
     7
100
AcDbLine
 10
830.503292102388
 20
1170.569702258078
 30
0.0
 11
830.5270513686545
 21
1170.454792235668
 31
0.0
  0
LINE
  5
2BC
330
22
100
AcDbEntity
  8
_4-2_
  6
Continuous
 62
     7
100
AcDbLine
 10
830.5270513686545
 20
1170.454792235668
 30
0.0
 11
830.5520874090971
 21
1170.339726238155
 31
0.0
  0
LINE
  5
2BD
330
22
100
AcDbEntity
  8
_4-2_
  6
Continuous
 62
     7
100
AcDbLine
 10
830.5520874090971
 20
1170.339726238155
 30
0.0
 11
830.5773649075817
 21
1170.224276526949
 31
0.0
  0
LINE
  5
2BE
330
22
100
AcDbEntity
  8
_4-2_
  6
Continuous
 62
     7
100
AcDbLine
 10
830.5773649075817
 20
1170.224276526949
 30
0.0
 11
830.5917285243864
 21
1170.15705013599
 31
0.0
  0
LINE
  5
2BF
330
22
100
AcDbEntity
  8
_4-2_
  6
Continuous
 62
     7
100
AcDbLine
 10
830.5917285243864
 20
1170.15705013599
 30
0.0
 11
830.6075246003215
 21
1170.080730616412
 31
0.0
  0
LINE
  5
2C0
330
22
100
AcDbEntity
  8
_4-2_
  6
Continuous
 62
     7
100
AcDbLine
 10
830.6075246003215
 20
1170.080730616412
 30
0.0
 11
830.6346180479691
 21
1169.948981851685
 31
0.0
  0
LINE
  5
2C1
330
22
100
AcDbEntity
  8
_4-2_
  6
Continuous
 62
     7
100
AcDbLine
 10
830.6346180479691
 20
1169.948981851685
 30
0.0
 11
830.6634512718117
 21
1169.817916086785
 31
0.0
  0
LINE
  5
2C2
330
22
100
AcDbEntity
  8
_4-2_
  6
Continuous
 62
     7
100
AcDbLine
 10
830.6634512718117
 20
1169.817916086785
 30
0.0
 11
830.696255047877
 21
1169.688567993491
 31
0.0
  0
LINE
  5
2C3
330
22
100
AcDbEntity
  8
_4-2_
  6
Continuous
 62
     7
100
AcDbLine
 10
830.696255047877
 20
1169.688567993491
 30
0.0
 11
830.7352601521879
 21
1169.561972243582
 31
0.0
  0
LINE
  5
2C4
330
22
100
AcDbEntity
  8
_4-2_
  6
Continuous
 62
     7
100
AcDbLine
 10
830.7352601521879
 20
1169.561972243582
 30
0.0
 11
830.7826973607721
 21
1169.439163508832
 31
0.0
  0
LINE
  5
2C5
330
22
100
AcDbEntity
  8
_4-2_
  6
Continuous
 62
     7
100
AcDbLine
 10
830.7826973607721
 20
1169.439163508832
 30
0.0
 11
830.8149535736831
 21
1169.370077367507
 31
0.0
  0
LINE
  5
2C6
330
22
100
AcDbEntity
  8
_4-2_
  6
Continuous
 62
     7
100
AcDbLine
 10
830.8149535736831
 20
1169.370077367507
 30
0.0
 11
830.8481319936342
 21
1169.308000973021
 31
0.0
  0
LINE
  5
2C7
330
22
100
AcDbEntity
  8
_4-2_
  6
Continuous
 62
     7
100
AcDbLine
 10
830.8481319936342
 20
1169.308000973021
 30
0.0
 11
830.9126859193211
 21
1169.204611026027
 31
0.0
  0
LINE
  5
2C8
330
22
100
AcDbEntity
  8
_4-2_
  6
Continuous
 62
     7
100
AcDbLine
 10
830.9126859193211
 20
1169.204611026027
 30
0.0
 11
830.9855294391534
 21
1169.105828793926
 31
0.0
  0
LINE
  5
2C9
330
22
100
AcDbEntity
  8
_4-2_
  6
Continuous
 62
     7
100
AcDbLine
 10
830.9855294391534
 20
1169.105828793926
 30
0.0
 11
831.0654836099763
 21
1169.011656889915
 31
0.0
  0
LINE
  5
2CA
330
22
100
AcDbEntity
  8
_4-2_
  6
Continuous
 62
     7
100
AcDbLine
 10
831.0654836099763
 20
1169.011656889915
 30
0.0
 11
831.1513694886295
 21
1168.922097927188
 31
0.0
  0
LINE
  5
2CB
330
22
100
AcDbEntity
  8
_4-2_
  6
Continuous
 62
     7
100
AcDbLine
 10
831.1513694886295
 20
1168.922097927188
 30
0.0
 11
831.242008131961
 21
1168.837154518935
 31
0.0
  0
LINE
  5
2CC
330
22
100
AcDbEntity
  8
_4-2_
  6
Continuous
 62
     7
100
AcDbLine
 10
831.242008131961
 20
1168.837154518935
 30
0.0
 11
831.2962916969592
 21
1168.790003218944
 31
0.0
  0
LINE
  5
2CD
330
22
100
AcDbEntity
  8
_4-2_
  6
Continuous
 62
     7
100
AcDbLine
 10
831.2962916969592
 20
1168.790003218944
 30
0.0
 11
831.3603963144542
 21
1168.737318828712
 31
0.0
  0
LINE
  5
2CE
330
22
100
AcDbEntity
  8
_4-2_
  6
Continuous
 62
     7
100
AcDbLine
 10
831.3603963144542
 20
1168.737318828712
 30
0.0
 11
831.4736994455378
 21
1168.650961416667
 31
0.0
  0
LINE
  5
2CF
330
22
100
AcDbEntity
  8
_4-2_
  6
Continuous
 62
     7
100
AcDbLine
 10
831.4736994455378
 20
1168.650961416667
 30
0.0
 11
831.5900898671769
 21
1168.569642499781
 31
0.0
  0
LINE
  5
2D0
330
22
100
AcDbEntity
  8
_4-2_
  6
Continuous
 62
     7
100
AcDbLine
 10
831.5900898671769
 20
1168.569642499781
 30
0.0
 11
831.7090686553566
 21
1168.492630061041
 31
0.0
  0
LINE
  5
2D1
330
22
100
AcDbEntity
  8
_4-2_
  6
Continuous
 62
     7
100
AcDbLine
 10
831.7090686553566
 20
1168.492630061041
 30
0.0
 11
831.8301368860714
 21
1168.419192083433
 31
0.0
  0
LINE
  5
2D2
330
22
100
AcDbEntity
  8
_4-2_
  6
Continuous
 62
     7
100
AcDbLine
 10
831.8301368860714
 20
1168.419192083433
 30
0.0
 11
831.9527956353109
 21
1168.348596549954
 31
0.0
  0
LINE
  5
2D3
330
22
100
AcDbEntity
  8
_4-2_
  6
Continuous
 62
     7
100
AcDbLine
 10
831.9527956353109
 20
1168.348596549954
 30
0.0
 11
832.0244698834537
 21
1168.308665095667
 31
0.0
  0
LINE
  5
2D4
330
22
100
AcDbEntity
  8
_4-2_
  6
Continuous
 62
     7
100
AcDbLine
 10
832.0244698834537
 20
1168.308665095667
 30
0.0
 11
832.1013865035396
 21
1168.266622990975
 31
0.0
  0
LINE
  5
2D5
330
22
100
AcDbEntity
  8
_4-2_
  6
Continuous
 62
     7
100
AcDbLine
 10
832.1013865035396
 20
1168.266622990975
 30
0.0
 11
832.2346407262703
 21
1168.195384715222
 31
0.0
  0
LINE
  5
2D6
330
22
100
AcDbEntity
  8
_4-2_
  6
Continuous
 62
     7
100
AcDbLine
 10
832.2346407262703
 20
1168.195384715222
 30
0.0
 11
832.3685763509795
 21
1168.125313122493
 31
0.0
  0
LINE
  5
2D7
330
22
100
AcDbEntity
  8
_4-2_
  6
Continuous
 62
     7
100
AcDbLine
 10
832.3685763509795
 20
1168.125313122493
 30
0.0
 11
832.5030446391517
 21
1168.055927741713
 31
0.0
  0
LINE
  5
2D8
330
22
100
AcDbEntity
  8
_4-2_
  6
Continuous
 62
     7
100
AcDbLine
 10
832.5030446391517
 20
1168.055927741713
 30
0.0
 11
832.6378968522643
 21
1167.986748101802
 31
0.0
  0
LINE
  5
2D9
330
22
100
AcDbEntity
  8
_4-2_
  6
Continuous
 62
     7
100
AcDbLine
 10
832.6378968522643
 20
1167.986748101802
 30
0.0
 11
832.7729842517998
 21
1167.917293731679
 31
0.0
  0
LINE
  5
2DA
330
22
100
AcDbEntity
  8
_4-2_
  6
Continuous
 62
     7
100
AcDbLine
 10
832.7729842517998
 20
1167.917293731679
 30
0.0
 11
832.8513840952368
 21
1167.876694985034
 31
0.0
  0
LINE
  5
2DB
330
22
100
AcDbEntity
  8
_4-2_
  6
Continuous
 62
     7
100
AcDbLine
 10
832.8513840952368
 20
1167.876694985034
 30
0.0
 11
832.956901709616
 21
1167.821436576173
 31
0.0
  0
LINE
  5
2DC
330
22
100
AcDbEntity
  8
_4-2_
  6
Continuous
 62
     7
100
AcDbLine
 10
832.956901709616
 20
1167.821436576173
 30
0.0
 11
833.1377740632953
 21
1167.723621066218
 31
0.0
  0
LINE
  5
2DD
330
22
100
AcDbEntity
  8
_4-2_
  6
Continuous
 62
     7
100
AcDbLine
 10
833.1377740632953
 20
1167.723621066218
 30
0.0
 11
833.3157166734542
 21
1167.620982570451
 31
0.0
  0
LINE
  5
2DE
330
22
100
AcDbEntity
  8
_4-2_
  6
Continuous
 62
     7
100
AcDbLine
 10
833.3157166734542
 20
1167.620982570451
 30
0.0
 11
833.4888750659645
 21
1167.511655078335
 31
0.0
  0
LINE
  5
2DF
330
22
100
AcDbEntity
  8
_4-2_
  6
Continuous
 62
     7
100
AcDbLine
 10
833.4888750659645
 20
1167.511655078335
 30
0.0
 11
833.6553947667047
 21
1167.393772579334
 31
0.0
  0
LINE
  5
2E0
330
22
100
AcDbEntity
  8
_4-2_
  6
Continuous
 62
     7
100
AcDbLine
 10
833.6553947667047
 20
1167.393772579334
 30
0.0
 11
833.8134213015552
 21
1167.265469062911
 31
0.0
  0
LINE
  5
2E1
330
22
100
AcDbEntity
  8
_4-2_
  6
Continuous
 62
     7
100
AcDbLine
 10
833.8134213015552
 20
1167.265469062911
 30
0.0
 11
833.9004543639179
 21
1167.185542808022
 31
0.0
  0
LINE
  5
2E2
330
22
100
AcDbEntity
  8
_4-2_
  6
Continuous
 62
     7
100
AcDbLine
 10
833.9004543639179
 20
1167.185542808022
 30
0.0
 11
833.9298949926112
 21
1167.156658325332
 31
0.0
  0
LINE
  5
2E3
330
22
100
AcDbEntity
  8
_4-2_
  6
Continuous
 62
     7
100
AcDbLine
 10
833.9298949926112
 20
1167.156658325332
 30
0.0
 11
833.979485677008
 21
1167.105596286867
 31
0.0
  0
LINE
  5
2E4
330
22
100
AcDbEntity
  8
_4-2_
  6
Continuous
 62
     7
100
AcDbLine
 10
833.979485677008
 20
1167.105596286867
 30
0.0
 11
834.0274857454083
 21
1167.052969791661
 31
0.0
  0
LINE
  5
2E5
330
22
100
AcDbEntity
  8
_4-2_
  6
Continuous
 62
     7
100
AcDbLine
 10
834.0274857454083
 20
1167.052969791661
 30
0.0
 11
834.0737663099885
 21
1166.998816056977
 31
0.0
  0
LINE
  5
2E6
330
22
100
AcDbEntity
  8
_4-2_
  6
Continuous
 62
     7
100
AcDbLine
 10
834.0737663099885
 20
1166.998816056977
 30
0.0
 11
834.1181984829185
 21
1166.943172300079
 31
0.0
  0
LINE
  5
2E7
330
22
100
AcDbEntity
  8
_4-2_
  6
Continuous
 62
     7
100
AcDbLine
 10
834.1181984829185
 20
1166.943172300079
 30
0.0
 11
834.1606533763748
 21
1166.886075738236
 31
0.0
  0
LINE
  5
2E8
330
22
100
AcDbEntity
  8
_4-2_
  6
Continuous
 62
     7
100
AcDbLine
 10
834.1606533763748
 20
1166.886075738236
 30
0.0
 11
834.1843204366179
 21
1166.852308722675
 31
0.0
  0
LINE
  5
2E9
330
22
100
AcDbEntity
  8
_4-2_
  6
Continuous
 62
     7
100
AcDbLine
 10
834.1843204366179
 20
1166.852308722675
 30
0.0
 11
834.2213783681049
 21
1166.796307840747
 31
0.0
  0
LINE
  5
2EA
330
22
100
AcDbEntity
  8
_4-2_
  6
Continuous
 62
     7
100
AcDbLine
 10
834.2213783681049
 20
1166.796307840747
 30
0.0
 11
834.2816366582267
 21
1166.697438188141
 31
0.0
  0
LINE
  5
2EB
330
22
100
AcDbEntity
  8
_4-2_
  6
Continuous
 62
     7
100
AcDbLine
 10
834.2816366582267
 20
1166.697438188141
 30
0.0
 11
834.3387169138962
 21
1166.596556133743
 31
0.0
  0
LINE
  5
2EC
330
22
100
AcDbEntity
  8
_4-2_
  6
Continuous
 62
     7
100
AcDbLine
 10
834.3387169138962
 20
1166.596556133743
 30
0.0
 11
834.3942736066775
 21
1166.49473116606
 31
0.0
  0
LINE
  5
2ED
330
22
100
AcDbEntity
  8
_4-2_
  6
Continuous
 62
     7
100
AcDbLine
 10
834.3942736066775
 20
1166.49473116606
 30
0.0
 11
834.4499612081378
 21
1166.393032773589
 31
0.0
  0
LINE
  5
2EE
330
22
100
AcDbEntity
  8
_4-2_
  6
Continuous
 62
     7
100
AcDbLine
 10
834.4499612081378
 20
1166.393032773589
 30
0.0
 11
834.5074341898405
 21
1166.292530444832
 31
0.0
  0
LINE
  5
2EF
330
22
100
AcDbEntity
  8
_4-2_
  6
Continuous
 62
     7
100
AcDbLine
 10
834.5074341898405
 20
1166.292530444832
 30
0.0
 11
834.5422385282857
 21
1166.235208564628
 31
0.0
  0
LINE
  5
2F0
330
22
100
AcDbEntity
  8
_4-2_
  6
Continuous
 62
     7
100
AcDbLine
 10
834.5422385282857
 20
1166.235208564628
 30
0.0
 11
834.5793415094556
 21
1166.177451694381
 31
0.0
  0
LINE
  5
2F1
330
22
100
AcDbEntity
  8
_4-2_
  6
Continuous
 62
     7
100
AcDbLine
 10
834.5793415094556
 20
1166.177451694381
 30
0.0
 11
834.6465301105611
 21
1166.079987318035
 31
0.0
  0
LINE
  5
2F2
330
22
100
AcDbEntity
  8
_4-2_
  6
Continuous
 62
     7
100
AcDbLine
 10
834.6465301105611
 20
1166.079987318035
 30
0.0
 11
834.7171446042919
 21
1165.984785729144
 31
0.0
  0
LINE
  5
2F3
330
22
100
AcDbEntity
  8
_4-2_
  6
Continuous
 62
     7
100
AcDbLine
 10
834.7171446042919
 20
1165.984785729144
 30
0.0
 11
834.7904321370387
 21
1165.891362923685
 31
0.0
  0
LINE
  5
2F4
330
22
100
AcDbEntity
  8
_4-2_
  6
Continuous
 62
     7
100
AcDbLine
 10
834.7904321370387
 20
1165.891362923685
 30
0.0
 11
834.8656398551939
 21
1165.799234897629
 31
0.0
  0
LINE
  5
2F5
330
22
100
AcDbEntity
  8
_4-2_
  6
Continuous
 62
     7
100
AcDbLine
 10
834.8656398551939
 20
1165.799234897629
 30
0.0
 11
834.9420149051464
 21
1165.707917646941
 31
0.0
  0
LINE
  5
2F6
330
22
100
AcDbEntity
  8
_4-2_
  6
Continuous
 62
     7
100
AcDbLine
 10
834.9420149051464
 20
1165.707917646941
 30
0.0
 11
834.9865506420799
 21
1165.655134416065
 31
0.0
  0
LINE
  5
2F7
330
22
100
AcDbEntity
  8
_4-2_
  6
Continuous
 62
     7
100
AcDbLine
 10
834.9865506420799
 20
1165.655134416065
 30
0.0
 11
835.0424760070184
 21
1165.588983251302
 31
0.0
  0
LINE
  5
2F8
330
22
100
AcDbEntity
  8
_4-2_
  6
Continuous
 62
     7
100
AcDbLine
 10
835.0424760070184
 20
1165.588983251302
 30
0.0
 11
835.139402915639
 21
1165.47550026486
 31
0.0
  0
LINE
  5
2F9
330
22
100
AcDbEntity
  8
_4-2_
  6
Continuous
 62
     7
100
AcDbLine
 10
835.139402915639
 20
1165.47550026486
 30
0.0
 11
835.2377711457902
 21
1165.36351610697
 31
0.0
  0
LINE
  5
2FA
330
22
100
AcDbEntity
  8
_4-2_
  6
Continuous
 62
     7
100
AcDbLine
 10
835.2377711457902
 20
1165.36351610697
 30
0.0
 11
835.3385150194933
 21
1165.253933528078
 31
0.0
  0
LINE
  5
2FB
330
22
100
AcDbEntity
  8
_4-2_
  6
Continuous
 62
     7
100
AcDbLine
 10
835.3385150194933
 20
1165.253933528078
 30
0.0
 11
835.4425688587751
 21
1165.147655278635
 31
0.0
  0
LINE
  5
2FC
330
22
100
AcDbEntity
  8
_4-2_
  6
Continuous
 62
     7
100
AcDbLine
 10
835.4425688587751
 20
1165.147655278635
 30
0.0
 11
835.5508669856554
 21
1165.045584109086
 31
0.0
  0
LINE
  5
2FD
330
22
100
AcDbEntity
  8
_4-2_
  6
Continuous
 62
     7
100
AcDbLine
 10
835.5508669856554
 20
1165.045584109086
 30
0.0
 11
835.6159928032875
 21
1164.988666245376
 31
0.0
  0
LINE
  5
2FE
330
22
100
AcDbEntity
  8
_4-2_
  6
Continuous
 62
     7
100
AcDbLine
 10
835.6159928032875
 20
1164.988666245376
 30
0.0
 11
835.6547973504902
 21
1164.956379199975
 31
0.0
  0
LINE
  5
2FF
330
22
100
AcDbEntity
  8
_4-2_
  6
Continuous
 62
     7
100
AcDbLine
 10
835.6547973504902
 20
1164.956379199975
 30
0.0
 11
835.7232178128876
 21
1164.902426006035
 31
0.0
  0
LINE
  5
300
330
22
100
AcDbEntity
  8
_4-2_
  6
Continuous
 62
     7
100
AcDbLine
 10
835.7232178128876
 20
1164.902426006035
 30
0.0
 11
835.7935310989873
 21
1164.850951085952
 31
0.0
  0
LINE
  5
301
330
22
100
AcDbEntity
  8
_4-2_
  6
Continuous
 62
     7
100
AcDbLine
 10
835.7935310989873
 20
1164.850951085952
 30
0.0
 11
835.8657066819315
 21
1164.802313154236
 31
0.0
  0
LINE
  5
302
330
22
100
AcDbEntity
  8
_4-2_
  6
Continuous
 62
     7
100
AcDbLine
 10
835.8657066819315
 20
1164.802313154236
 30
0.0
 11
835.9397140348651
 21
1164.756870925396
 31
0.0
  0
LINE
  5
303
330
22
100
AcDbEntity
  8
_4-2_
  6
Continuous
 62
     7
100
AcDbLine
 10
835.9397140348651
 20
1164.756870925396
 30
0.0
 11
836.0155226309299
 21
1164.714983113942
 31
0.0
  0
LINE
  5
304
330
22
100
AcDbEntity
  8
_4-2_
  6
Continuous
 62
     7
100
AcDbLine
 10
836.0155226309299
 20
1164.714983113942
 30
0.0
 11
836.0603049170819
 21
1164.69245816951
 31
0.0
  0
LINE
  5
305
330
22
100
AcDbEntity
  8
_4-2_
  6
Continuous
 62
     7
100
AcDbLine
 10
836.0603049170819
 20
1164.69245816951
 30
0.0
 11
836.1237273489868
 21
1164.663300761162
 31
0.0
  0
LINE
  5
306
330
22
100
AcDbEntity
  8
_4-2_
  6
Continuous
 62
     7
100
AcDbLine
 10
836.1237273489868
 20
1164.663300761162
 30
0.0
 11
836.2354550858945
 21
1164.618621537194
 31
0.0
  0
LINE
  5
307
330
22
100
AcDbEntity
  8
_4-2_
  6
Continuous
 62
     7
100
AcDbLine
 10
836.2354550858945
 20
1164.618621537194
 30
0.0
 11
836.3497178472366
 21
1164.579901950555
 31
0.0
  0
LINE
  5
308
330
22
100
AcDbEntity
  8
_4-2_
  6
Continuous
 62
     7
100
AcDbLine
 10
836.3497178472366
 20
1164.579901950555
 30
0.0
 11
836.4659621342308
 21
1164.545840770388
 31
0.0
  0
LINE
  5
309
330
22
100
AcDbEntity
  8
_4-2_
  6
Continuous
 62
     7
100
AcDbLine
 10
836.4659621342308
 20
1164.545840770388
 30
0.0
 11
836.5836344480905
 21
1164.515136765831
 31
0.0
  0
LINE
  5
30A
330
22
100
AcDbEntity
  8
_4-2_
  6
Continuous
 62
     7
100
AcDbLine
 10
836.5836344480905
 20
1164.515136765831
 30
0.0
 11
836.7021812900302
 21
1164.486488706031
 31
0.0
  0
LINE
  5
30B
330
22
100
AcDbEntity
  8
_4-2_
  6
Continuous
 62
     7
100
AcDbLine
 10
836.7021812900302
 20
1164.486488706031
 30
0.0
 11
836.7711210598187
 21
1164.470302112615
 31
0.0
  0
LINE
  5
30C
330
22
100
AcDbEntity
  8
_4-B_
  6
Continuous
 62
     7
100
AcDbLine
 10
793.6993528123648
 20
1208.687724526748
 30
0.0
 11
793.6993528123648
 21
1171.187724526748
 31
0.0
  0
POINT
  5
30D
330
22
100
AcDbEntity
  8
_4-B_
 62
     1
100
AcDbPoint
 10
793.6993528123648
 20
1171.187724526748
 30
0.0
  0
LINE
  5
30E
330
22
100
AcDbEntity
  8
_4-B_
  6
Continuous
 62
     7
100
AcDbLine
 10
793.6993528123648
 20
1171.187724526748
 30
0.0
 11
826.7705478450475
 21
1171.187724526748
 31
0.0
  0
LINE
  5
30F
330
22
100
AcDbEntity
  8
_4-2_
  6
Continuous
 62
     7
100
AcDbLine
 10
1058.646121059819
 20
949.3127245267485
 30
0.0
 11
1333.646121059817
 21
949.3127245267485
 31
0.0
  0
LINE
  5
310
330
22
100
AcDbEntity
  8
_4-4_
  6
Continuous
 62
     2
100
AcDbLine
 10
1094.896121059818
 20
952.4377245267485
 30
0.0
 11
1333.646121059817
 21
952.4377245267485
 31
0.0
  0
LINE
  5
311
330
22
100
AcDbEntity
  8
_4-4_
  6
Continuous
 62
     2
100
AcDbLine
 10
803.6461210598188
 20
952.4377245267485
 30
0.0
 11
683.6461210598187
 21
952.4377245267485
 31
0.0
  0
LINE
  5
312
330
22
100
AcDbEntity
  8
_4-2_
  6
Continuous
 62
     7
100
AcDbLine
 10
839.8961210598187
 20
949.3127245267485
 30
0.0
 11
683.6461210598187
 21
949.3127245267485
 31
0.0
  0
LINE
  5
313
330
22
100
AcDbEntity
  8
_4-4_
  6
Continuous
 62
     2
100
AcDbLine
 10
964.8961210598187
 20
1187.220695348935
 30
0.0
 11
964.8961210598187
 21
855.5627245267485
 31
0.0
  0
LINE
  5
314
330
22
100
AcDbEntity
  8
_4-4_
  6
Continuous
 62
     2
100
AcDbLine
 10
933.6461210598187
 20
1187.220695348935
 30
0.0
 11
933.6461210598187
 21
855.5627245267485
 31
0.0
  0
LINE
  5
315
330
22
100
AcDbEntity
  8
_4-D_
  6
Continuous
 62
     4
100
AcDbLine
 10
933.6461210598187
 20
889.51792111583
 30
0.0
 11
964.8961210598214
 21
858.2679211158279
 31
0.0
  0
LINE
  5
316
330
22
100
AcDbEntity
  8
_4-D_
  6
Continuous
 62
     4
100
AcDbLine
 10
940.4400217279711
 20
855.5627245267485
 30
0.0
 11
964.8961210598214
 21
880.0188238585972
 31
0.0
  0
LINE
  5
317
330
22
100
AcDbEntity
  8
_4-D_
  6
Continuous
 62
     4
100
AcDbLine
 10
933.6461210598187
 20
863.0014168213298
 30
0.0
 11
941.0848133544002
 21
855.5627245267485
 31
0.0
  0
LINE
  5
318
330
22
100
AcDbEntity
  8
_4-E_
  6
Continuous
 62
     4
100
AcDbLine
 10
964.8961210598187
 20
1164.995175717985
 30
0.0
 11
999.2136698685824
 21
1199.312724526748
 31
0.0
  0
LINE
  5
319
330
22
100
AcDbEntity
  8
_4-E_
  6
Continuous
 62
     4
100
AcDbLine
 10
964.8961210598187
 20
1150.853040094254
 30
0.0
 11
1013.355805492313
 21
1199.312724526748
 31
0.0
  0
LINE
  5
31A
330
22
100
AcDbEntity
  8
_4-E_
  6
Continuous
 62
     4
100
AcDbLine
 10
964.8961210598187
 20
1157.924107906119
 30
0.0
 11
1006.284737680449
 21
1199.312724526748
 31
0.0
  0
LINE
  5
31B
330
22
100
AcDbEntity
  8
_4-E_
  6
Continuous
 62
     4
100
AcDbLine
 10
964.8961210598187
 20
964.9951757179834
 30
0.0
 11
1058.646121059819
 21
1058.745175717983
 31
0.0
  0
LINE
  5
31C
330
22
100
AcDbEntity
  8
_4-E_
  6
Continuous
 62
     4
100
AcDbLine
 10
964.8961210598187
 20
950.8530400942571
 30
0.0
 11
1058.646121059819
 21
1044.603040094252
 31
0.0
  0
LINE
  5
31D
330
22
100
AcDbEntity
  8
_4-E_
  6
Continuous
 62
     4
100
AcDbLine
 10
964.8961210598187
 20
957.9241079061169
 30
0.0
 11
1058.646121059819
 21
1051.674107906117
 31
0.0
  0
LINE
  5
31E
330
22
100
AcDbEntity
  8
_4-E_
  6
Continuous
 62
     4
100
AcDbLine
 10
1055.463669868585
 20
855.5627245267508
 30
0.0
 11
1149.213669868584
 21
949.3127245267485
 31
0.0
  0
LINE
  5
31F
330
22
100
AcDbEntity
  8
_4-E_
  6
Continuous
 62
     4
100
AcDbLine
 10
1062.534737680449
 20
855.5627245267508
 30
0.0
 11
1156.284737680448
 21
949.3127245267485
 31
0.0
  0
LINE
  5
320
330
22
100
AcDbEntity
  8
_4-E_
  6
Continuous
 62
     4
100
AcDbLine
 10
1069.605805492312
 20
855.5627245267508
 30
0.0
 11
1163.355805492313
 21
949.3127245267485
 31
0.0
  0
LINE
  5
321
330
22
100
AcDbEntity
  8
_4-E_
  6
Continuous
 62
     4
100
AcDbLine
 10
1255.463669868584
 20
855.5627245267485
 30
0.0
 11
1333.646121059817
 21
933.7451757179834
 31
0.0
  0
LINE
  5
322
330
22
100
AcDbEntity
  8
_4-E_
  6
Continuous
 62
     4
100
AcDbLine
 10
1269.605805492311
 20
855.5627245267485
 30
0.0
 11
1333.646121059817
 21
919.6030400942547
 31
0.0
  0
LINE
  5
323
330
22
100
AcDbEntity
  8
_4-E_
  6
Continuous
 62
     4
100
AcDbLine
 10
1262.534737680448
 20
855.5627245267485
 30
0.0
 11
1333.646121059817
 21
926.6741079061192
 31
0.0
  0
LINE
  5
324
330
22
100
AcDbEntity
  8
_4-E_
  6
Continuous
 62
     4
100
AcDbLine
 10
824.213669868585
 20
855.5627245267485
 30
0.0
 11
933.6461210598187
 21
964.9951757179834
 31
0.0
  0
LINE
  5
325
330
22
100
AcDbEntity
  8
_4-E_
  6
Continuous
 62
     4
100
AcDbLine
 10
838.3558054923113
 20
855.5627245267485
 30
0.0
 11
933.6461210598187
 21
950.8530400942547
 31
0.0
  0
LINE
  5
326
330
22
100
AcDbEntity
  8
_4-E_
  6
Continuous
 62
     4
100
AcDbLine
 10
831.2847376804493
 20
855.5627245267485
 30
0.0
 11
933.6461210598187
 21
957.9241079061192
 31
0.0
  0
LINE
  5
327
330
22
100
AcDbEntity
  8
_4-E_
  6
Continuous
 62
     4
100
AcDbLine
 10
683.6461210598187
 20
914.9951757179834
 30
0.0
 11
717.963669868586
 21
949.3127245267485
 31
0.0
  0
LINE
  5
328
330
22
100
AcDbEntity
  8
_4-E_
  6
Continuous
 62
     4
100
AcDbLine
 10
839.8961210598187
 20
1071.245175717983
 30
0.0
 11
933.6461210598187
 21
1164.995175717983
 31
0.0
  0
LINE
  5
329
330
22
100
AcDbEntity
  8
_4-E_
  6
Continuous
 62
     4
100
AcDbLine
 10
683.6461210598187
 20
907.9241079061192
 30
0.0
 11
725.0347376804492
 21
949.3127245267485
 31
0.0
  0
LINE
  5
32A
330
22
100
AcDbEntity
  8
_4-E_
  6
Continuous
 62
     4
100
AcDbLine
 10
839.8961210598187
 20
1064.174107906119
 30
0.0
 11
933.6461210598187
 21
1157.924107906119
 31
0.0
  0
LINE
  5
32B
330
22
100
AcDbEntity
  8
_4-E_
  6
Continuous
 62
     4
100
AcDbLine
 10
683.6461210598187
 20
900.8530400942547
 30
0.0
 11
732.1058054923126
 21
949.3127245267485
 31
0.0
  0
LINE
  5
32C
330
22
100
AcDbEntity
  8
_4-E_
  6
Continuous
 62
     4
100
AcDbLine
 10
839.8961210598187
 20
1057.103040094252
 30
0.0
 11
933.6461210598187
 21
1150.853040094252
 31
0.0
  0
LINE
  5
32D
330
22
100
AcDbEntity
  8
_4-A_
  6
Continuous
 62
     7
100
AcDbLine
 10
947.5977340211612
 20
1190.459166135553
 30
0.0
 11
1020.816913996722
 21
1317.278505941756
 31
0.0
  0
TEXT
  5
32E
330
22
100
AcDbEntity
  8
_4-A_
 62
     7
100
AcDbText
 10
1120.320492164604
 20
1209.778505941756
 30
0.0
 40
15.0
  1
プルーフシーラー
100
AcDbText
  0
TEXT
  5
32F
330
22
100
AcDbEntity
  8
_4-A_
 62
     7
100
AcDbText
 10
1120.320492164604
 20
1234.778505941755
 30
0.0
 40
15.0
  1
ロンシーラントＬ
100
AcDbText
  0
TEXT
  5
330
330
22
100
AcDbEntity
  8
_4-A_
 62
     7
100
AcDbText
 10
1120.320492164604
 20
1109.778505941755
 30
0.0
 40
15.0
  1
塩ビシート 接着工法
100
AcDbText
  0
LINE
  5
331
330
22
100
AcDbEntity
  8
_4-A_
  6
Continuous
 62
     7
100
AcDbLine
 10
1110.320492164604
 20
1117.278505941755
 30
0.0
 11
1083.82410923294
 21
1117.278505941755
 31
0.0
  0
TEXT
  5
332
330
22
100
AcDbEntity
  8
_4-A_
 62
     7
100
AcDbText
 10
1181.80441404635
 20
1009.778505941756
 30
0.0
 40
15.0
  1
プルーフシーラー
100
AcDbText
  0
TEXT
  5
333
330
22
100
AcDbEntity
  8
_4-A_
 62
     7
100
AcDbText
 10
1181.80441404635
 20
984.7785059417558
 30
0.0
 40
15.0
  1
塩ビシート 接着工法
100
AcDbText
  0
LINE
  5
334
330
22
100
AcDbEntity
  8
_4-A_
  6
Continuous
 62
     7
100
AcDbLine
 10
1171.80441404635
 20
992.2785059417559
 30
0.0
 11
1147.881599213213
 21
992.2785059417559
 31
0.0
  0
LINE
  5
335
330
22
100
AcDbEntity
  8
_4-A_
  6
Continuous
 62
     7
100
AcDbLine
 10
1124.879513338534
 20
952.4377245267485
 30
0.0
 11
1147.881599213213
 21
992.2785059417559
 31
0.0
  0
LINE
  5
336
330
22
100
AcDbEntity
  8
_4-A_
  6
Continuous
 62
     7
100
AcDbLine
 10
1171.80441404635
 20
1017.278505941756
 30
0.0
 11
1130.252343882578
 21
1017.278505941756
 31
0.0
  0
LINE
  5
337
330
22
100
AcDbEntity
  8
_4-A_
  6
Continuous
 62
     7
100
AcDbLine
 10
1095.696342217371
 20
957.4257553511799
 30
0.0
 11
1130.252343882578
 21
1017.278505941756
 31
0.0
  0
LINE
  5
338
330
22
100
AcDbEntity
  8
_4-A_
  6
Continuous
 62
     7
100
AcDbLine
 10
1061.771121059819
 20
1079.081609967195
 30
0.0
 11
1083.82410923294
 21
1117.278505941755
 31
0.0
  0
LINE
  5
339
330
22
100
AcDbEntity
  8
_4-A_
  6
Continuous
 62
     7
100
AcDbLine
 10
1110.320492164604
 20
1217.278505941755
 30
0.0
 11
1093.650080432974
 21
1217.278505941755
 31
0.0
  0
LINE
  5
33A
330
22
100
AcDbEntity
  8
_4-A_
  6
Continuous
 62
     7
100
AcDbLine
 10
1067.40034580308
 20
1171.81263187758
 30
0.0
 11
1093.650080432974
 21
1217.278505941755
 31
0.0
  0
LINE
  5
33B
330
22
100
AcDbEntity
  8
_4-A_
  6
Continuous
 62
     7
100
AcDbLine
 10
1110.320492164604
 20
1242.278505941756
 30
0.0
 11
1078.466702688635
 21
1242.278505941756
 31
0.0
  0
LINE
  5
33C
330
22
100
AcDbEntity
  8
_4-A_
  6
Continuous
 62
     7
100
AcDbLine
 10
1054.574129691095
 20
1200.895355586467
 30
0.0
 11
1078.466702688635
 21
1242.278505941756
 31
0.0
  0
LINE
  5
33D
330
22
100
AcDbEntity
  8
_4-A_
  6
Continuous
 62
     7
100
AcDbLine
 10
983.5692827217279
 20
1207.589626791887
 30
0.0
 11
1032.464429896273
 21
1292.278505941756
 31
0.0
  0
LINE
  5
33E
330
22
100
AcDbEntity
  8
_4-A_
  6
Continuous
 62
     7
100
AcDbLine
 10
1062.474424339176
 20
1317.278505941756
 30
0.0
 11
1020.816913996722
 21
1317.278505941756
 31
0.0
  0
TEXT
  5
33F
330
22
100
AcDbEntity
  8
_4-A_
 62
     7
100
AcDbText
 10
1072.474424339176
 20
1309.778505941756
 30
0.0
 40
15.0
  1
バックアップ材の上、シール材充填
100
AcDbText
  0
TEXT
  5
340
330
22
100
AcDbEntity
  8
_4-A_
 62
     7
100
AcDbText
 10
1072.474424339176
 20
1284.778505941756
 30
0.0
 40
15.0
  1
増し貼りシート
100
AcDbText
  0
LINE
  5
341
330
22
100
AcDbEntity
  8
_4-A_
  6
Continuous
 62
     7
100
AcDbLine
 10
1062.474424339176
 20
1292.278505941756
 30
0.0
 11
1032.464429896273
 21
1292.278505941756
 31
0.0
  0
TEXT
  5
342
330
22
100
AcDbEntity
  8
_4-B_
 62
     7
100
AcDbText
 10
788.6993528123648
 20
1167.562872365883
 30
0.0
 40
15.0
  1
50以上
 50
90.0
100
AcDbText
  0
LINE
  5
343
330
22
100
AcDbEntity
  8
_4-A_
  6
Continuous
 62
     7
100
AcDbLine
 10
1025.21706849484
 20
833.5597938618455
 30
0.0
 11
998.6670436718393
 21
833.5597938618455
 31
0.0
  0
LINE
  5
344
330
22
100
AcDbEntity
  8
_4-A_
  6
Continuous
 62
     7
100
AcDbLine
 10
955.7143467480555
 20
907.9560472559455
 30
0.0
 11
998.6670436718393
 21
833.5597938618455
 31
0.0
  0
TEXT
  5
345
330
22
100
AcDbEntity
  8
_4-A_
 62
     7
100
AcDbText
 10
1035.21706849484
 20
826.0597938618456
 30
0.0
 40
15.0
  1
発泡スチロール(別途)
100
AcDbText
  0
LINE
  5
346
330
22
100
AcDbEntity
  8
_4-2_
  6
Continuous
 62
     7
100
AcDbLine
 10
938.8543557394845
 20
1191.665374947481
 30
0.0
 11
957.8403510628172
 21
1180.703805436724
 31
0.0
  0
LINE
  5
347
330
22
100
AcDbEntity
  8
_4-2_
  6
Continuous
 62
     7
100
AcDbLine
 10
940.7511160578279
 20
1180.659697951832
 30
0.0
 11
959.7243448374284
 21
1191.61389669513
 31
0.0
  0
ARC
  5
348
330
22
100
AcDbEntity
  8
_4-2_
  6
Continuous
 62
     7
100
AcDbCircle
 10
944.8961210598188
 20
292.4377245267504
 30
0.0
 40
5.0
100
AcDbArc
 50
180.0
 51
270.0
  0
LINE
  5
349
330
22
100
AcDbEntity
  8
_4-2_
  6
Continuous
 62
     7
100
AcDbLine
 10
972.3979135179865
 20
290.5627245267481
 30
0.0
 11
972.4093002601884
 21
290.6445401184253
 31
0.0
  0
LINE
  5
34A
330
22
100
AcDbEntity
  8
_4-2_
  6
Continuous
 62
     7
100
AcDbLine
 10
972.4093002601884
 20
290.6445401184253
 30
0.0
 11
972.4299669974753
 21
290.7852113278106
 31
0.0
  0
LINE
  5
34B
330
22
100
AcDbEntity
  8
_4-2_
  6
Continuous
 62
     7
100
AcDbLine
 10
972.4299669974753
 20
290.7852113278106
 30
0.0
 11
972.4535071323916
 21
290.9247987717224
 31
0.0
  0
LINE
  5
34C
330
22
100
AcDbEntity
  8
_4-2_
  6
Continuous
 62
     7
100
AcDbLine
 10
972.4535071323916
 20
290.9247987717224
 30
0.0
 11
972.4817392710324
 21
291.062616522642
 31
0.0
  0
LINE
  5
34D
330
22
100
AcDbEntity
  8
_4-2_
  6
Continuous
 62
     7
100
AcDbLine
 10
972.4817392710324
 20
291.062616522642
 30
0.0
 11
972.5164820194889
 21
291.1979786530553
 31
0.0
  0
LINE
  5
34E
330
22
100
AcDbEntity
  8
_4-2_
  6
Continuous
 62
     7
100
AcDbLine
 10
972.5164820194889
 20
291.1979786530553
 30
0.0
 11
972.5595539838568
 21
291.3301992354416
 31
0.0
  0
LINE
  5
34F
330
22
100
AcDbEntity
  8
_4-2_
  6
Continuous
 62
     7
100
AcDbLine
 10
972.5595539838568
 20
291.3301992354416
 30
0.0
 11
972.5890687952899
 21
291.4051774248098
 31
0.0
  0
LINE
  5
350
330
22
100
AcDbEntity
  8
_4-2_
  6
Continuous
 62
     7
100
AcDbLine
 10
972.5890687952899
 20
291.4051774248098
 30
0.0
 11
972.6146569585793
 21
291.4627504495541
 31
0.0
  0
LINE
  5
351
330
22
100
AcDbEntity
  8
_4-2_
  6
Continuous
 62
     7
100
AcDbLine
 10
972.6146569585793
 20
291.4627504495541
 30
0.0
 11
972.6636664415055
 21
291.5600718889383
 31
0.0
  0
LINE
  5
352
330
22
100
AcDbEntity
  8
_4-2_
  6
Continuous
 62
     7
100
AcDbLine
 10
972.6636664415055
 20
291.5600718889383
 30
0.0
 11
972.7181083254592
 21
291.6550741407393
 31
0.0
  0
LINE
  5
353
330
22
100
AcDbEntity
  8
_4-2_
  6
Continuous
 62
     7
100
AcDbLine
 10
972.7181083254592
 20
291.6550741407393
 30
0.0
 11
972.7770989436766
 21
291.7479194631135
 31
0.0
  0
LINE
  5
354
330
22
100
AcDbEntity
  8
_4-2_
  6
Continuous
 62
     7
100
AcDbLine
 10
972.7770989436766
 20
291.7479194631135
 30
0.0
 11
972.8397546293919
 21
291.8387701142199
 31
0.0
  0
LINE
  5
355
330
22
100
AcDbEntity
  8
_4-2_
  6
Continuous
 62
     7
100
AcDbLine
 10
972.8397546293919
 20
291.8387701142199
 30
0.0
 11
972.90519171584
 21
291.9277883522175
 31
0.0
  0
LINE
  5
356
330
22
100
AcDbEntity
  8
_4-2_
  6
Continuous
 62
     7
100
AcDbLine
 10
972.90519171584
 20
291.9277883522175
 30
0.0
 11
972.9440714531399
 21
291.9786432567223
 31
0.0
  0
LINE
  5
357
330
22
100
AcDbEntity
  8
_4-2_
  6
Continuous
 62
     7
100
AcDbLine
 10
972.9440714531399
 20
291.9786432567223
 30
0.0
 11
972.9904566243485
 21
292.0378205022228
 31
0.0
  0
LINE
  5
358
330
22
100
AcDbEntity
  8
_4-2_
  6
Continuous
 62
     7
100
AcDbLine
 10
972.9904566243485
 20
292.0378205022228
 30
0.0
 11
973.0718472119143
 21
292.138269748388
 31
0.0
  0
LINE
  5
359
330
22
100
AcDbEntity
  8
_4-2_
  6
Continuous
 62
     7
100
AcDbLine
 10
973.0718472119143
 20
292.138269748388
 30
0.0
 11
973.1548795989267
 21
292.2369364748799
 31
0.0
  0
LINE
  5
35A
330
22
100
AcDbEntity
  8
_4-2_
  6
Continuous
 62
     7
100
AcDbLine
 10
973.1548795989267
 20
292.2369364748799
 30
0.0
 11
973.2393784352561
 21
292.3340742832959
 31
0.0
  0
LINE
  5
35B
330
22
100
AcDbEntity
  8
_4-2_
  6
Continuous
 62
     7
100
AcDbLine
 10
973.2393784352561
 20
292.3340742832959
 30
0.0
 11
973.3251683707726
 21
292.4299367752285
 31
0.0
  0
LINE
  5
35C
330
22
100
AcDbEntity
  8
_4-2_
  6
Continuous
 62
     7
100
AcDbLine
 10
973.3251683707726
 20
292.4299367752285
 30
0.0
 11
973.4120740553393
 21
292.5247775522614
 31
0.0
  0
LINE
  5
35D
330
22
100
AcDbEntity
  8
_4-2_
  6
Continuous
 62
     7
100
AcDbLine
 10
973.4120740553393
 20
292.5247775522614
 30
0.0
 11
973.4629214915353
 21
292.5794169853901
 31
0.0
  0
LINE
  5
35E
330
22
100
AcDbEntity
  8
_4-2_
  6
Continuous
 62
     7
100
AcDbLine
 10
973.4629214915353
 20
292.5794169853901
 30
0.0
 11
973.516443412419
 21
292.6363358443898
 31
0.0
  0
LINE
  5
35F
330
22
100
AcDbEntity
  8
_4-2_
  6
Continuous
 62
     7
100
AcDbLine
 10
973.516443412419
 20
292.6363358443898
 30
0.0
 11
973.6096917613608
 21
292.7336494374088
 31
0.0
  0
LINE
  5
360
330
22
100
AcDbEntity
  8
_4-2_
  6
Continuous
 62
     7
100
AcDbLine
 10
973.6096917613608
 20
292.7336494374088
 30
0.0
 11
973.7045356448422
 21
292.8294906739113
 31
0.0
  0
LINE
  5
361
330
22
100
AcDbEntity
  8
_4-2_
  6
Continuous
 62
     7
100
AcDbLine
 10
973.7045356448422
 20
292.8294906739113
 30
0.0
 11
973.8014038195315
 21
292.9233579482359
 31
0.0
  0
LINE
  5
362
330
22
100
AcDbEntity
  8
_4-2_
  6
Continuous
 62
     7
100
AcDbLine
 10
973.8014038195315
 20
292.9233579482359
 30
0.0
 11
973.9007250420977
 21
293.0147496547345
 31
0.0
  0
LINE
  5
363
330
22
100
AcDbEntity
  8
_4-2_
  6
Continuous
 62
     7
100
AcDbLine
 10
973.9007250420977
 20
293.0147496547345
 30
0.0
 11
974.0029280692109
 21
293.10316418775
 31
0.0
  0
LINE
  5
364
330
22
100
AcDbEntity
  8
_4-2_
  6
Continuous
 62
     7
100
AcDbLine
 10
974.0029280692109
 20
293.10316418775
 30
0.0
 11
974.0636952202041
 21
293.1528828173025
 31
0.0
  0
LINE
  5
365
330
22
100
AcDbEntity
  8
_4-2_
  6
Continuous
 62
     7
100
AcDbLine
 10
974.0636952202041
 20
293.1528828173025
 30
0.0
 11
974.1184787824179
 21
293.19583616261
 31
0.0
  0
LINE
  5
366
330
22
100
AcDbEntity
  8
_4-2_
  6
Continuous
 62
     7
100
AcDbLine
 10
974.1184787824179
 20
293.19583616261
 30
0.0
 11
974.2151119698675
 21
293.267219142487
 31
0.0
  0
LINE
  5
367
330
22
100
AcDbEntity
  8
_4-2_
  6
Continuous
 62
     7
100
AcDbLine
 10
974.2151119698675
 20
293.267219142487
 30
0.0
 11
974.3144651843612
 21
293.3347020730677
 31
0.0
  0
LINE
  5
368
330
22
100
AcDbEntity
  8
_4-2_
  6
Continuous
 62
     7
100
AcDbLine
 10
974.3144651843612
 20
293.3347020730677
 30
0.0
 11
974.4164943451288
 21
293.3976865927109
 31
0.0
  0
LINE
  5
369
330
22
100
AcDbEntity
  8
_4-2_
  6
Continuous
 62
     7
100
AcDbLine
 10
974.4164943451288
 20
293.3976865927109
 30
0.0
 11
974.5211553713975
 21
293.4555743397634
 31
0.0
  0
LINE
  5
36A
330
22
100
AcDbEntity
  8
_4-2_
  6
Continuous
 62
     7
100
AcDbLine
 10
974.5211553713975
 20
293.4555743397634
 30
0.0
 11
974.6284041823999
 21
293.5077669525837
 31
0.0
  0
LINE
  5
36B
330
22
100
AcDbEntity
  8
_4-2_
  6
Continuous
 62
     7
100
AcDbLine
 10
974.6284041823999
 20
293.5077669525837
 30
0.0
 11
974.6917768456302
 21
293.53519337191
 31
0.0
  0
LINE
  5
36C
330
22
100
AcDbEntity
  8
_4-2_
  6
Continuous
 62
     7
100
AcDbLine
 10
974.6917768456302
 20
293.53519337191
 30
0.0
 11
974.7629677785923
 21
293.563023817698
 31
0.0
  0
LINE
  5
36D
330
22
100
AcDbEntity
  8
_4-2_
  6
Continuous
 62
     7
100
AcDbLine
 10
974.7629677785923
 20
293.563023817698
 30
0.0
 11
974.887898064752
 21
293.6050929604578
 31
0.0
  0
LINE
  5
36E
330
22
100
AcDbEntity
  8
_4-2_
  6
Continuous
 62
     7
100
AcDbLine
 10
974.887898064752
 20
293.6050929604578
 30
0.0
 11
975.0152118765376
 21
293.6404701801432
 31
0.0
  0
LINE
  5
36F
330
22
100
AcDbEntity
  8
_4-2_
  6
Continuous
 62
     7
100
AcDbLine
 10
975.0152118765376
 20
293.6404701801432
 30
0.0
 11
975.1444612995427
 21
293.6700794762252
 31
0.0
  0
LINE
  5
370
330
22
100
AcDbEntity
  8
_4-2_
  6
Continuous
 62
     7
100
AcDbLine
 10
975.1444612995427
 20
293.6700794762252
 30
0.0
 11
975.2751984193615
 21
293.6948448481683
 31
0.0
  0
LINE
  5
371
330
22
100
AcDbEntity
  8
_4-2_
  6
Continuous
 62
     7
100
AcDbLine
 10
975.2751984193615
 20
293.6948448481683
 30
0.0
 11
975.4069753215832
 21
293.7156902954409
 31
0.0
  0
LINE
  5
372
330
22
100
AcDbEntity
  8
_4-2_
  6
Continuous
 62
     7
100
AcDbLine
 10
975.4069753215832
 20
293.7156902954409
 30
0.0
 11
975.4837058516018
 21
293.7263486492127
 31
0.0
  0
LINE
  5
373
330
22
100
AcDbEntity
  8
_4-2_
  6
Continuous
 62
     7
100
AcDbLine
 10
975.4837058516018
 20
293.7263486492127
 30
0.0
 11
975.5764914579035
 21
293.7380467737551
 31
0.0
  0
LINE
  5
374
330
22
100
AcDbEntity
  8
_4-2_
  6
Continuous
 62
     7
100
AcDbLine
 10
975.5764914579035
 20
293.7380467737551
 30
0.0
 11
975.7366916237069
 21
293.7548634994339
 31
0.0
  0
LINE
  5
375
330
22
100
AcDbEntity
  8
_4-2_
  6
Continuous
 62
     7
100
AcDbLine
 10
975.7366916237069
 20
293.7548634994339
 30
0.0
 11
975.8969387040712
 21
293.7666499039977
 31
0.0
  0
LINE
  5
376
330
22
100
AcDbEntity
  8
_4-2_
  6
Continuous
 62
     7
100
AcDbLine
 10
975.8969387040712
 20
293.7666499039977
 30
0.0
 11
976.0569561019652
 21
293.7724912109882
 31
0.0
  0
LINE
  5
377
330
22
100
AcDbEntity
  8
_4-2_
  6
Continuous
 62
     7
100
AcDbLine
 10
976.0569561019652
 20
293.7724912109882
 30
0.0
 11
976.2164672203617
 21
293.7714726439611
 31
0.0
  0
LINE
  5
378
330
22
100
AcDbEntity
  8
_4-2_
  6
Continuous
 62
     7
100
AcDbLine
 10
976.2164672203617
 20
293.7714726439611
 30
0.0
 11
976.3751954622316
 21
293.7626794264558
 31
0.0
  0
LINE
  5
379
330
22
100
AcDbEntity
  8
_4-2_
  6
Continuous
 62
     7
100
AcDbLine
 10
976.3751954622316
 20
293.7626794264558
 30
0.0
 11
976.4667901348783
 21
293.7536565459703
 31
0.0
  0
LINE
  5
37A
330
22
100
AcDbEntity
  8
_4-2_
  6
Continuous
 62
     7
100
AcDbLine
 10
976.4667901348783
 20
293.7536565459703
 30
0.0
 11
976.5338802546065
 21
293.7451004296661
 31
0.0
  0
LINE
  5
37B
330
22
100
AcDbEntity
  8
_4-2_
  6
Continuous
 62
     7
100
AcDbLine
 10
976.5338802546065
 20
293.7451004296661
 30
0.0
 11
976.6491615425874
 21
293.7270006601413
 31
0.0
  0
LINE
  5
37C
330
22
100
AcDbEntity
  8
_4-2_
  6
Continuous
 62
     7
100
AcDbLine
 10
976.6491615425874
 20
293.7270006601413
 30
0.0
 11
976.7641433284891
 21
293.70555348418
 31
0.0
  0
LINE
  5
37D
330
22
100
AcDbEntity
  8
_4-2_
  6
Continuous
 62
     7
100
AcDbLine
 10
976.7641433284891
 20
293.70555348418
 30
0.0
 11
976.8790533509001
 21
293.6817942179134
 31
0.0
  0
LINE
  5
37E
330
22
100
AcDbEntity
  8
_4-2_
  6
Continuous
 62
     7
100
AcDbLine
 10
976.8790533509001
 20
293.6817942179134
 30
0.0
 11
976.9941193484131
 21
293.6567581774709
 31
0.0
  0
LINE
  5
37F
330
22
100
AcDbEntity
  8
_4-2_
  6
Continuous
 62
     7
100
AcDbLine
 10
976.9941193484131
 20
293.6567581774709
 30
0.0
 11
977.1095690596176
 21
293.6314806789862
 31
0.0
  0
LINE
  5
380
330
22
100
AcDbEntity
  8
_4-2_
  6
Continuous
 62
     7
100
AcDbLine
 10
977.1095690596176
 20
293.6314806789862
 30
0.0
 11
977.1767954505783
 21
293.6171170621804
 31
0.0
  0
LINE
  5
381
330
22
100
AcDbEntity
  8
_4-2_
  6
Continuous
 62
     7
100
AcDbLine
 10
977.1767954505783
 20
293.6171170621804
 30
0.0
 11
977.2531149701578
 21
293.6013209862442
 31
0.0
  0
LINE
  5
382
330
22
100
AcDbEntity
  8
_4-2_
  6
Continuous
 62
     7
100
AcDbLine
 10
977.2531149701578
 20
293.6013209862442
 30
0.0
 11
977.3848637348848
 21
293.574227538599
 31
0.0
  0
LINE
  5
383
330
22
100
AcDbEntity
  8
_4-2_
  6
Continuous
 62
     7
100
AcDbLine
 10
977.3848637348848
 20
293.574227538599
 30
0.0
 11
977.5159294997827
 21
293.5453943147552
 31
0.0
  0
LINE
  5
384
330
22
100
AcDbEntity
  8
_4-2_
  6
Continuous
 62
     7
100
AcDbLine
 10
977.5159294997827
 20
293.5453943147552
 30
0.0
 11
977.645277593076
 21
293.5125905386911
 31
0.0
  0
LINE
  5
385
330
22
100
AcDbEntity
  8
_4-2_
  6
Continuous
 62
     7
100
AcDbLine
 10
977.645277593076
 20
293.5125905386911
 30
0.0
 11
977.7718733429852
 21
293.4735854343801
 31
0.0
  0
LINE
  5
386
330
22
100
AcDbEntity
  8
_4-2_
  6
Continuous
 62
     7
100
AcDbLine
 10
977.7718733429852
 20
293.4735854343801
 30
0.0
 11
977.8946820777353
 21
293.4261482257937
 31
0.0
  0
LINE
  5
387
330
22
100
AcDbEntity
  8
_4-2_
  6
Continuous
 62
     7
100
AcDbLine
 10
977.8946820777353
 20
293.4261482257937
 30
0.0
 11
977.9637682190593
 21
293.3938920128838
 31
0.0
  0
LINE
  5
388
330
22
100
AcDbEntity
  8
_4-2_
  6
Continuous
 62
     7
100
AcDbLine
 10
977.9637682190593
 20
293.3938920128838
 30
0.0
 11
978.0258446135471
 21
293.3607135929326
 31
0.0
  0
LINE
  5
389
330
22
100
AcDbEntity
  8
_4-2_
  6
Continuous
 62
     7
100
AcDbLine
 10
978.0258446135471
 20
293.3607135929326
 30
0.0
 11
978.1292345605409
 21
293.2961596672446
 31
0.0
  0
LINE
  5
38A
330
22
100
AcDbEntity
  8
_4-2_
  6
Continuous
 62
     7
100
AcDbLine
 10
978.1292345605409
 20
293.2961596672446
 30
0.0
 11
978.2280167926396
 21
293.2233161474135
 31
0.0
  0
LINE
  5
38B
330
22
100
AcDbEntity
  8
_4-2_
  6
Continuous
 62
     7
100
AcDbLine
 10
978.2280167926396
 20
293.2233161474135
 30
0.0
 11
978.322188696652
 21
293.1433619765918
 31
0.0
  0
LINE
  5
38C
330
22
100
AcDbEntity
  8
_4-2_
  6
Continuous
 62
     7
100
AcDbLine
 10
978.322188696652
 20
293.1433619765918
 30
0.0
 11
978.4117476593801
 21
293.0574760979373
 31
0.0
  0
LINE
  5
38D
330
22
100
AcDbEntity
  8
_4-2_
  6
Continuous
 62
     7
100
AcDbLine
 10
978.4117476593801
 20
293.0574760979373
 30
0.0
 11
978.4966910676336
 21
292.966837454607
 31
0.0
  0
LINE
  5
38E
330
22
100
AcDbEntity
  8
_4-2_
  6
Continuous
 62
     7
100
AcDbLine
 10
978.4966910676336
 20
292.966837454607
 30
0.0
 11
978.5438423676247
 21
292.9125538896089
 31
0.0
  0
LINE
  5
38F
330
22
100
AcDbEntity
  8
_4-2_
  6
Continuous
 62
     7
100
AcDbLine
 10
978.5438423676247
 20
292.9125538896089
 30
0.0
 11
978.5965267578568
 21
292.8484492721138
 31
0.0
  0
LINE
  5
390
330
22
100
AcDbEntity
  8
_4-2_
  6
Continuous
 62
     7
100
AcDbLine
 10
978.5965267578568
 20
292.8484492721138
 30
0.0
 11
978.6828841698987
 21
292.7351461410278
 31
0.0
  0
LINE
  5
391
330
22
100
AcDbEntity
  8
_4-2_
  6
Continuous
 62
     7
100
AcDbLine
 10
978.6828841698987
 20
292.7351461410278
 30
0.0
 11
978.7642030867855
 21
292.6187557193923
 31
0.0
  0
LINE
  5
392
330
22
100
AcDbEntity
  8
_4-2_
  6
Continuous
 62
     7
100
AcDbLine
 10
978.7642030867855
 20
292.6187557193923
 30
0.0
 11
978.8412155255272
 21
292.4997769312101
 31
0.0
  0
LINE
  5
393
330
22
100
AcDbEntity
  8
_4-2_
  6
Continuous
 62
     7
100
AcDbLine
 10
978.8412155255272
 20
292.4997769312101
 30
0.0
 11
978.9146535031337
 21
292.3787087004955
 31
0.0
  0
LINE
  5
394
330
22
100
AcDbEntity
  8
_4-2_
  6
Continuous
 62
     7
100
AcDbLine
 10
978.9146535031337
 20
292.3787087004955
 30
0.0
 11
978.9852490366136
 21
292.2560499512558
 31
0.0
  0
LINE
  5
395
330
22
100
AcDbEntity
  8
_4-2_
  6
Continuous
 62
     7
100
AcDbLine
 10
978.9852490366136
 20
292.2560499512558
 30
0.0
 11
979.0251804909004
 21
292.1843757031131
 31
0.0
  0
LINE
  5
396
330
22
100
AcDbEntity
  8
_4-2_
  6
Continuous
 62
     7
100
AcDbLine
 10
979.0251804909004
 20
292.1843757031131
 30
0.0
 11
979.0672225955912
 21
292.1074590830282
 31
0.0
  0
LINE
  5
397
330
22
100
AcDbEntity
  8
_4-2_
  6
Continuous
 62
     7
100
AcDbLine
 10
979.0672225955912
 20
292.1074590830282
 30
0.0
 11
979.1384608713471
 21
291.9742048602977
 31
0.0
  0
LINE
  5
398
330
22
100
AcDbEntity
  8
_4-2_
  6
Continuous
 62
     7
100
AcDbLine
 10
979.1384608713471
 20
291.9742048602977
 30
0.0
 11
979.2085324640753
 21
291.8402692355874
 31
0.0
  0
LINE
  5
399
330
22
100
AcDbEntity
  8
_4-2_
  6
Continuous
 62
     7
100
AcDbLine
 10
979.2085324640753
 20
291.8402692355874
 30
0.0
 11
979.2779178448547
 21
291.7058009474152
 31
0.0
  0
LINE
  5
39A
330
22
100
AcDbEntity
  8
_4-2_
  6
Continuous
 62
     7
100
AcDbLine
 10
979.2779178448547
 20
291.7058009474152
 30
0.0
 11
979.3470974847661
 21
291.5709487343036
 31
0.0
  0
LINE
  5
39B
330
22
100
AcDbEntity
  8
_4-2_
  6
Continuous
 62
     7
100
AcDbLine
 10
979.3470974847661
 20
291.5709487343036
 30
0.0
 11
979.4165518548892
 21
291.4358613347684
 31
0.0
  0
LINE
  5
39C
330
22
100
AcDbEntity
  8
_4-2_
  6
Continuous
 62
     7
100
AcDbLine
 10
979.4165518548892
 20
291.4358613347684
 30
0.0
 11
979.4571506015344
 21
291.3574614913311
 31
0.0
  0
LINE
  5
39D
330
22
100
AcDbEntity
  8
_4-2_
  6
Continuous
 62
     7
100
AcDbLine
 10
979.4571506015344
 20
291.3574614913311
 30
0.0
 11
979.5124090103932
 21
291.2519438769521
 31
0.0
  0
LINE
  5
39E
330
22
100
AcDbEntity
  8
_4-2_
  6
Continuous
 62
     7
100
AcDbLine
 10
979.5124090103932
 20
291.2519438769521
 30
0.0
 11
979.6102245203503
 21
291.0710715232715
 31
0.0
  0
LINE
  5
39F
330
22
100
AcDbEntity
  8
_4-2_
  6
Continuous
 62
     7
100
AcDbLine
 10
979.6102245203503
 20
291.0710715232715
 30
0.0
 11
979.7128630161168
 21
290.8931289131162
 31
0.0
  0
LINE
  5
3A0
330
22
100
AcDbEntity
  8
_4-2_
  6
Continuous
 62
     7
100
AcDbLine
 10
979.7128630161168
 20
290.8931289131162
 30
0.0
 11
979.8221905082332
 21
290.7199705206033
 31
0.0
  0
LINE
  5
3A1
330
22
100
AcDbEntity
  8
_4-2_
  6
Continuous
 62
     7
100
AcDbLine
 10
979.8221905082332
 20
290.7199705206033
 30
0.0
 11
979.9400730072328
 21
290.5534508198609
 31
0.0
  0
LINE
  5
3A2
330
22
100
AcDbEntity
  8
_4-2_
  6
Continuous
 62
     7
100
AcDbLine
 10
979.9400730072328
 20
290.5534508198609
 30
0.0
 11
980.0683765236554
 21
290.3954242850129
 31
0.0
  0
LINE
  5
3A3
330
22
100
AcDbEntity
  8
_4-2_
  6
Continuous
 62
     7
100
AcDbLine
 10
980.0683765236554
 20
290.3954242850129
 30
0.0
 11
980.1483027785463
 21
290.3083912226491
 31
0.0
  0
LINE
  5
3A4
330
22
100
AcDbEntity
  8
_4-2_
  6
Continuous
 62
     7
100
AcDbLine
 10
980.1483027785463
 20
290.3083912226491
 30
0.0
 11
980.1771872612365
 21
290.2789505939556
 31
0.0
  0
LINE
  5
3A5
330
22
100
AcDbEntity
  8
_4-2_
  6
Continuous
 62
     7
100
AcDbLine
 10
980.1771872612365
 20
290.2789505939556
 30
0.0
 11
980.2282492996992
 21
290.2293599095598
 31
0.0
  0
LINE
  5
3A6
330
22
100
AcDbEntity
  8
_4-2_
  6
Continuous
 62
     7
100
AcDbLine
 10
980.2282492996992
 20
290.2293599095598
 30
0.0
 11
980.2808757949057
 21
290.1813598411575
 31
0.0
  0
LINE
  5
3A7
330
22
100
AcDbEntity
  8
_4-2_
  6
Continuous
 62
     7
100
AcDbLine
 10
980.2808757949057
 20
290.1813598411575
 30
0.0
 11
980.3350295295908
 21
290.1350792765782
 31
0.0
  0
LINE
  5
3A8
330
22
100
AcDbEntity
  8
_4-2_
  6
Continuous
 62
     7
100
AcDbLine
 10
980.3350295295908
 20
290.1350792765782
 30
0.0
 11
980.3906732864875
 21
290.0906471036494
 31
0.0
  0
LINE
  5
3A9
330
22
100
AcDbEntity
  8
_4-2_
  6
Continuous
 62
     7
100
AcDbLine
 10
980.3906732864875
 20
290.0906471036494
 30
0.0
 11
980.4477698483321
 21
290.0481922101919
 31
0.0
  0
LINE
  5
3AA
330
22
100
AcDbEntity
  8
_4-2_
  6
Continuous
 62
     7
100
AcDbLine
 10
980.4477698483321
 20
290.0481922101919
 30
0.0
 11
980.4815368638909
 21
290.0245251499489
 31
0.0
  0
LINE
  5
3AB
330
22
100
AcDbEntity
  8
_4-2_
  6
Continuous
 62
     7
100
AcDbLine
 10
980.4815368638909
 20
290.0245251499489
 30
0.0
 11
980.5375377458222
 21
289.9874672184608
 31
0.0
  0
LINE
  5
3AC
330
22
100
AcDbEntity
  8
_4-2_
  6
Continuous
 62
     7
100
AcDbLine
 10
980.5375377458222
 20
289.9874672184608
 30
0.0
 11
980.6364073984283
 21
289.9272089283402
 31
0.0
  0
LINE
  5
3AD
330
22
100
AcDbEntity
  8
_4-2_
  6
Continuous
 62
     7
100
AcDbLine
 10
980.6364073984283
 20
289.9272089283402
 30
0.0
 11
980.7372894528233
 21
289.8701286726708
 31
0.0
  0
LINE
  5
3AE
330
22
100
AcDbEntity
  8
_4-2_
  6
Continuous
 62
     7
100
AcDbLine
 10
980.7372894528233
 20
289.8701286726708
 30
0.0
 11
980.8391144205073
 21
289.8145719798906
 31
0.0
  0
LINE
  5
3AF
330
22
100
AcDbEntity
  8
_4-2_
  6
Continuous
 62
     7
100
AcDbLine
 10
980.8391144205073
 20
289.8145719798906
 30
0.0
 11
980.9408128129776
 21
289.758884378429
 31
0.0
  0
LINE
  5
3B0
330
22
100
AcDbEntity
  8
_4-2_
  6
Continuous
 62
     7
100
AcDbLine
 10
980.9408128129776
 20
289.758884378429
 30
0.0
 11
981.0413151417352
 21
289.7014113967264
 31
0.0
  0
LINE
  5
3B1
330
22
100
AcDbEntity
  8
_4-2_
  6
Continuous
 62
     7
100
AcDbLine
 10
981.0413151417352
 20
289.7014113967264
 30
0.0
 11
981.0986370219378
 21
289.6666070582812
 31
0.0
  0
LINE
  5
3B2
330
22
100
AcDbEntity
  8
_4-2_
  6
Continuous
 62
     7
100
AcDbLine
 10
981.0986370219378
 20
289.6666070582812
 30
0.0
 11
981.1563938921878
 21
289.6295040771104
 31
0.0
  0
LINE
  5
3B3
330
22
100
AcDbEntity
  8
_4-2_
  6
Continuous
 62
     7
100
AcDbLine
 10
981.1563938921878
 20
289.6295040771104
 30
0.0
 11
981.2538582685338
 21
289.5623154760067
 31
0.0
  0
LINE
  5
3B4
330
22
100
AcDbEntity
  8
_4-2_
  6
Continuous
 62
     7
100
AcDbLine
 10
981.2538582685338
 20
289.5623154760067
 30
0.0
 11
981.3490598574228
 21
289.4917009822773
 31
0.0
  0
LINE
  5
3B5
330
22
100
AcDbEntity
  8
_4-2_
  6
Continuous
 62
     7
100
AcDbLine
 10
981.3490598574228
 20
289.4917009822773
 30
0.0
 11
981.4424826628824
 21
289.4184134495293
 31
0.0
  0
LINE
  5
3B6
330
22
100
AcDbEntity
  8
_4-2_
  6
Continuous
 62
     7
100
AcDbLine
 10
981.4424826628824
 20
289.4184134495293
 30
0.0
 11
981.5346106889407
 21
289.3432057313742
 31
0.0
  0
LINE
  5
3B7
330
22
100
AcDbEntity
  8
_4-2_
  6
Continuous
 62
     7
100
AcDbLine
 10
981.5346106889407
 20
289.3432057313742
 30
0.0
 11
981.6259279396259
 21
289.2668306814215
 31
0.0
  0
LINE
  5
3B8
330
22
100
AcDbEntity
  8
_4-2_
  6
Continuous
 62
     7
100
AcDbLine
 10
981.6259279396259
 20
289.2668306814215
 30
0.0
 11
981.6787111705034
 21
289.2222949444879
 31
0.0
  0
LINE
  5
3B9
330
22
100
AcDbEntity
  8
_4-2_
  6
Continuous
 62
     7
100
AcDbLine
 10
981.6787111705034
 20
289.2222949444879
 30
0.0
 11
981.7448623352639
 21
289.1663695795517
 31
0.0
  0
LINE
  5
3BA
330
22
100
AcDbEntity
  8
_4-2_
  6
Continuous
 62
     7
100
AcDbLine
 10
981.7448623352639
 20
289.1663695795517
 30
0.0
 11
981.858345321708
 21
289.0694426709289
 31
0.0
  0
LINE
  5
3BB
330
22
100
AcDbEntity
  8
_4-2_
  6
Continuous
 62
     7
100
AcDbLine
 10
981.858345321708
 20
289.0694426709289
 30
0.0
 11
981.9703294795987
 21
288.9710744407777
 31
0.0
  0
LINE
  5
3BC
330
22
100
AcDbEntity
  8
_4-2_
  6
Continuous
 62
     7
100
AcDbLine
 10
981.9703294795987
 20
288.9710744407777
 30
0.0
 11
982.0799120584887
 21
288.8703305670735
 31
0.0
  0
LINE
  5
3BD
330
22
100
AcDbEntity
  8
_4-2_
  6
Continuous
 62
     7
100
AcDbLine
 10
982.0799120584887
 20
288.8703305670735
 30
0.0
 11
982.1861903079327
 21
288.7662767277918
 31
0.0
  0
LINE
  5
3BE
330
22
100
AcDbEntity
  8
_4-2_
  6
Continuous
 62
     7
100
AcDbLine
 10
982.1861903079327
 20
288.7662767277918
 30
0.0
 11
982.2882614774817
 21
288.6579786009104
 31
0.0
  0
LINE
  5
3BF
330
22
100
AcDbEntity
  8
_4-2_
  6
Continuous
 62
     7
100
AcDbLine
 10
982.2882614774817
 20
288.6579786009104
 30
0.0
 11
982.3451793411935
 21
288.5928527832805
 31
0.0
  0
LINE
  5
3C0
330
22
100
AcDbEntity
  8
_4-2_
  6
Continuous
 62
     7
100
AcDbLine
 10
982.3451793411935
 20
288.5928527832805
 30
0.0
 11
982.3774663865911
 21
288.5540482360778
 31
0.0
  0
LINE
  5
3C1
330
22
100
AcDbEntity
  8
_4-2_
  6
Continuous
 62
     7
100
AcDbLine
 10
982.3774663865911
 20
288.5540482360778
 30
0.0
 11
982.4314195805321
 21
288.4856277736792
 31
0.0
  0
LINE
  5
3C2
330
22
100
AcDbEntity
  8
_4-2_
  6
Continuous
 62
     7
100
AcDbLine
 10
982.4314195805321
 20
288.4856277736792
 30
0.0
 11
982.4828945006148
 21
288.4153144875806
 31
0.0
  0
LINE
  5
3C3
330
22
100
AcDbEntity
  8
_4-2_
  6
Continuous
 62
     7
100
AcDbLine
 10
982.4828945006148
 20
288.4153144875806
 30
0.0
 11
982.5315324323309
 21
288.3431389046352
 31
0.0
  0
LINE
  5
3C4
330
22
100
AcDbEntity
  8
_4-2_
  6
Continuous
 62
     7
100
AcDbLine
 10
982.5315324323309
 20
288.3431389046352
 30
0.0
 11
982.5769746611715
 21
288.2691315517007
 31
0.0
  0
LINE
  5
3C5
330
22
100
AcDbEntity
  8
_4-2_
  6
Continuous
 62
     7
100
AcDbLine
 10
982.5769746611715
 20
288.2691315517007
 30
0.0
 11
982.6188624726258
 21
288.1933229556369
 31
0.0
  0
LINE
  5
3C6
330
22
100
AcDbEntity
  8
_4-2_
  6
Continuous
 62
     7
100
AcDbLine
 10
982.6188624726258
 20
288.1933229556369
 30
0.0
 11
982.6413874170553
 21
288.1485406694849
 31
0.0
  0
LINE
  5
3C7
330
22
100
AcDbEntity
  8
_4-2_
  6
Continuous
 62
     7
100
AcDbLine
 10
982.6413874170553
 20
288.1485406694849
 30
0.0
 11
982.6705448254047
 21
288.0851182375788
 31
0.0
  0
LINE
  5
3C8
330
22
100
AcDbEntity
  8
_4-2_
  6
Continuous
 62
     7
100
AcDbLine
 10
982.6705448254047
 20
288.0851182375788
 30
0.0
 11
982.7152240493736
 21
287.9733905006736
 31
0.0
  0
LINE
  5
3C9
330
22
100
AcDbEntity
  8
_4-2_
  6
Continuous
 62
     7
100
AcDbLine
 10
982.7152240493736
 20
287.9733905006736
 30
0.0
 11
982.753943636013
 21
287.8591277393314
 31
0.0
  0
LINE
  5
3CA
330
22
100
AcDbEntity
  8
_4-2_
  6
Continuous
 62
     7
100
AcDbLine
 10
982.753943636013
 20
287.8591277393314
 30
0.0
 11
982.7880048161818
 21
287.7428834523373
 31
0.0
  0
LINE
  5
3CB
330
22
100
AcDbEntity
  8
_4-2_
  6
Continuous
 62
     7
100
AcDbLine
 10
982.7880048161818
 20
287.7428834523373
 30
0.0
 11
982.8187088207355
 21
287.6252111384762
 31
0.0
  0
LINE
  5
3CC
330
22
100
AcDbEntity
  8
_4-2_
  6
Continuous
 62
     7
100
AcDbLine
 10
982.8187088207355
 20
287.6252111384762
 30
0.0
 11
982.8473568805348
 21
287.5066642965377
 31
0.0
  0
LINE
  5
3CD
330
22
100
AcDbEntity
  8
_4-2_
  6
Continuous
 62
     7
100
AcDbLine
 10
982.8473568805348
 20
287.5066642965377
 30
0.0
 11
982.8635434739531
 21
287.4377245267481
 31
0.0
  0
LINE
  5
3CE
330
22
100
AcDbEntity
  8
_4-2_
  6
Continuous
 62
     7
100
AcDbLine
 10
939.8961210598187
 20
287.4377245267481
 30
0.0
 11
976.1461210598188
 21
287.4377245267481
 31
0.0
  0
ARC
  5
3CF
330
22
100
AcDbEntity
  8
_4-4_
  6
Continuous
 62
     2
100
AcDbCircle
 10
944.8961210598188
 20
292.4377245267504
 30
0.0
 40
1.875
100
AcDbArc
 50
180.0
 51
270.0
  0
LINE
  5
3D0
330
22
100
AcDbEntity
  8
_4-4_
  6
Continuous
 62
     2
100
AcDbLine
 10
976.1461210598188
 20
290.5627245267481
 30
0.0
 11
976.1461210598188
 21
287.4377245267481
 31
0.0
  0
LINE
  5
3D1
330
22
100
AcDbEntity
  8
_4-4_
  6
Continuous
 62
     2
100
AcDbLine
 10
944.8961210598188
 20
290.5627245267481
 30
0.0
 11
976.1461210598188
 21
290.5627245267481
 31
0.0
  0
LINE
  5
3D2
330
22
100
AcDbEntity
  8
_4-2_
  6
Continuous
 62
     7
100
AcDbLine
 10
939.8961210598187
 20
534.312724526748
 30
0.0
 11
945.5211210598177
 21
534.312724526748
 31
0.0
  0
LINE
  5
3D3
330
22
100
AcDbEntity
  8
_4-4_
  6
Continuous
 62
     2
100
AcDbLine
 10
943.0211210598187
 20
292.4377245267504
 30
0.0
 11
943.0211210598187
 21
510.2726610172878
 31
0.0
  0
LINE
  5
3D4
330
22
100
AcDbEntity
  8
_4-D_
  6
Continuous
 62
     7
100
AcDbLine
 10
941.1461210598188
 20
534.312724526748
 30
0.0
 11
941.1461210598188
 21
513.2750657530952
 31
0.0
  0
LINE
  5
3D5
330
22
100
AcDbEntity
  8
_4-D_
  6
Continuous
 62
     7
100
AcDbLine
 10
941.1461210598188
 20
513.2750657530952
 30
0.0
 11
939.8961210598187
 21
511.110002243635
 31
0.0
  0
LINE
  5
3D6
330
22
100
AcDbEntity
  8
_4-D_
  6
Continuous
 62
     4
100
AcDbLine
 10
945.4866522631627
 20
534.312724526748
 30
0.0
 11
945.5053022423999
 21
534.3313745059861
 31
0.0
  0
LINE
  5
3D7
330
22
100
AcDbEntity
  8
_4-D_
  6
Continuous
 62
     4
100
AcDbLine
 10
942.835001833715
 20
534.312724526748
 30
0.0
 11
944.32914926179
 21
535.8068719548231
 31
0.0
  0
LINE
  5
3D8
330
22
100
AcDbEntity
  8
_4-D_
  6
Continuous
 62
     4
100
AcDbLine
 10
940.1833514042673
 20
534.312724526748
 30
0.0
 11
943.2347599793944
 21
537.364133101875
 31
0.0
  0
LINE
  5
3D9
330
22
100
AcDbEntity
  8
_4-D_
  6
Continuous
 62
     4
100
AcDbLine
 10
939.8961210598187
 20
536.6771446117483
 30
0.0
 11
942.2247850216864
 21
539.0058085736147
 31
0.0
  0
LINE
  5
3DA
330
22
100
AcDbEntity
  8
_4-D_
  6
Continuous
 62
     4
100
AcDbLine
 10
939.8961210598153
 20
539.3287950412029
 30
0.0
 11
941.3030307901792
 21
540.7357047715679
 31
0.0
  0
LINE
  5
3DB
330
22
100
AcDbEntity
  8
_4-D_
  6
Continuous
 62
     4
100
AcDbLine
 10
939.8961210598153
 20
541.9804454706483
 30
0.0
 11
940.4747096673858
 21
542.5590340782211
 31
0.0
  0
LINE
  5
3DC
330
22
100
AcDbEntity
  8
_4-D_
  6
Continuous
 62
     4
100
AcDbLine
 10
939.89612105982
 20
512.649915699382
 30
0.0
 11
940.4597685042528
 21
512.0862682549493
 31
0.0
  0
LINE
  5
3DD
330
22
100
AcDbEntity
  8
_4-D_
  6
Continuous
 62
     4
100
AcDbLine
 10
939.8961210598164
 20
516.1854496053108
 30
0.0
 11
941.1461210598199
 21
514.9354496053085
 31
0.0
  0
LINE
  5
3DE
330
22
100
AcDbEntity
  8
_4-D_
  6
Continuous
 62
     4
100
AcDbLine
 10
939.8961210598164
 20
519.7209835112487
 30
0.0
 11
941.1461210598222
 21
518.4709835112442
 31
0.0
  0
LINE
  5
3DF
330
22
100
AcDbEntity
  8
_4-D_
  6
Continuous
 62
     4
100
AcDbLine
 10
939.8961210598178
 20
523.2565174171752
 30
0.0
 11
941.1461210598178
 21
522.0065174171752
 31
0.0
  0
LINE
  5
3E0
330
22
100
AcDbEntity
  8
_4-D_
  6
Continuous
 62
     4
100
AcDbLine
 10
939.8961210598178
 20
526.7920513231108
 30
0.0
 11
941.1461210598199
 21
525.5420513231086
 31
0.0
  0
LINE
  5
3E1
330
22
100
AcDbEntity
  8
_4-D_
  6
Continuous
 62
     4
100
AcDbLine
 10
939.8961210598153
 20
530.3275852290418
 30
0.0
 11
941.1461210598199
 21
529.0775852290351
 31
0.0
  0
LINE
  5
3E2
330
22
100
AcDbEntity
  8
_4-D_
  6
Continuous
 62
     4
100
AcDbLine
 10
939.8961210598178
 20
533.8631191349775
 30
0.0
 11
941.1461210598199
 21
532.6131191349752
 31
0.0
  0
ARC
  5
3E3
330
22
100
AcDbEntity
  8
_4-2_
  6
Continuous
 62
     7
100
AcDbCircle
 10
872.3961210598188
 20
292.4377245267504
 30
0.0
 40
5.0
100
AcDbArc
 50
270.0
 51
0.0
  0
LINE
  5
3E4
330
22
100
AcDbEntity
  8
_4-2_
  6
Continuous
 62
     7
100
AcDbLine
 10
844.8943286016525
 20
290.5627245267481
 30
0.0
 11
844.8829418594492
 21
290.6445401184253
 31
0.0
  0
LINE
  5
3E5
330
22
100
AcDbEntity
  8
_4-2_
  6
Continuous
 62
     7
100
AcDbLine
 10
844.8829418594492
 20
290.6445401184253
 30
0.0
 11
844.8622751221613
 21
290.7852113278106
 31
0.0
  0
LINE
  5
3E6
330
22
100
AcDbEntity
  8
_4-2_
  6
Continuous
 62
     7
100
AcDbLine
 10
844.8622751221613
 20
290.7852113278106
 30
0.0
 11
844.8387349872447
 21
290.9247987717224
 31
0.0
  0
LINE
  5
3E7
330
22
100
AcDbEntity
  8
_4-2_
  6
Continuous
 62
     7
100
AcDbLine
 10
844.8387349872447
 20
290.9247987717224
 30
0.0
 11
844.8105028486052
 21
291.062616522642
 31
0.0
  0
LINE
  5
3E8
330
22
100
AcDbEntity
  8
_4-2_
  6
Continuous
 62
     7
100
AcDbLine
 10
844.8105028486052
 20
291.062616522642
 30
0.0
 11
844.7757601001486
 21
291.1979786530553
 31
0.0
  0
LINE
  5
3E9
330
22
100
AcDbEntity
  8
_4-2_
  6
Continuous
 62
     7
100
AcDbLine
 10
844.7757601001486
 20
291.1979786530553
 30
0.0
 11
844.7326881357808
 21
291.3301992354416
 31
0.0
  0
LINE
  5
3EA
330
22
100
AcDbEntity
  8
_4-2_
  6
Continuous
 62
     7
100
AcDbLine
 10
844.7326881357808
 20
291.3301992354416
 30
0.0
 11
844.7031733243475
 21
291.4051774248098
 31
0.0
  0
LINE
  5
3EB
330
22
100
AcDbEntity
  8
_4-2_
  6
Continuous
 62
     7
100
AcDbLine
 10
844.7031733243475
 20
291.4051774248098
 30
0.0
 11
844.6775851610581
 21
291.4627504495541
 31
0.0
  0
LINE
  5
3EC
330
22
100
AcDbEntity
  8
_4-2_
  6
Continuous
 62
     7
100
AcDbLine
 10
844.6775851610581
 20
291.4627504495541
 30
0.0
 11
844.628575678133
 21
291.5600718889383
 31
0.0
  0
LINE
  5
3ED
330
22
100
AcDbEntity
  8
_4-2_
  6
Continuous
 62
     7
100
AcDbLine
 10
844.628575678133
 20
291.5600718889383
 30
0.0
 11
844.5741337941772
 21
291.6550741407393
 31
0.0
  0
LINE
  5
3EE
330
22
100
AcDbEntity
  8
_4-2_
  6
Continuous
 62
     7
100
AcDbLine
 10
844.5741337941772
 20
291.6550741407393
 30
0.0
 11
844.5151431759594
 21
291.7479194631135
 31
0.0
  0
LINE
  5
3EF
330
22
100
AcDbEntity
  8
_4-2_
  6
Continuous
 62
     7
100
AcDbLine
 10
844.5151431759594
 20
291.7479194631135
 30
0.0
 11
844.4524874902446
 21
291.8387701142199
 31
0.0
  0
LINE
  5
3F0
330
22
100
AcDbEntity
  8
_4-2_
  6
Continuous
 62
     7
100
AcDbLine
 10
844.4524874902446
 20
291.8387701142199
 30
0.0
 11
844.3870504037963
 21
291.9277883522175
 31
0.0
  0
LINE
  5
3F1
330
22
100
AcDbEntity
  8
_4-2_
  6
Continuous
 62
     7
100
AcDbLine
 10
844.3870504037963
 20
291.9277883522175
 30
0.0
 11
844.3481706664975
 21
291.9786432567223
 31
0.0
  0
LINE
  5
3F2
330
22
100
AcDbEntity
  8
_4-2_
  6
Continuous
 62
     7
100
AcDbLine
 10
844.3481706664975
 20
291.9786432567223
 30
0.0
 11
844.3017854952879
 21
292.0378205022228
 31
0.0
  0
LINE
  5
3F3
330
22
100
AcDbEntity
  8
_4-2_
  6
Continuous
 62
     7
100
AcDbLine
 10
844.3017854952879
 20
292.0378205022228
 30
0.0
 11
844.2203949077233
 21
292.138269748388
 31
0.0
  0
LINE
  5
3F4
330
22
100
AcDbEntity
  8
_4-2_
  6
Continuous
 62
     7
100
AcDbLine
 10
844.2203949077233
 20
292.138269748388
 30
0.0
 11
844.1373625207104
 21
292.2369364748799
 31
0.0
  0
LINE
  5
3F5
330
22
100
AcDbEntity
  8
_4-2_
  6
Continuous
 62
     7
100
AcDbLine
 10
844.1373625207104
 20
292.2369364748799
 30
0.0
 11
844.0528636843792
 21
292.3340742832959
 31
0.0
  0
LINE
  5
3F6
330
22
100
AcDbEntity
  8
_4-2_
  6
Continuous
 62
     7
100
AcDbLine
 10
844.0528636843792
 20
292.3340742832959
 30
0.0
 11
843.9670737488663
 21
292.4299367752285
 31
0.0
  0
LINE
  5
3F7
330
22
100
AcDbEntity
  8
_4-2_
  6
Continuous
 62
     7
100
AcDbLine
 10
843.9670737488663
 20
292.4299367752285
 30
0.0
 11
843.8801680642981
 21
292.5247775522614
 31
0.0
  0
LINE
  5
3F8
330
22
100
AcDbEntity
  8
_4-2_
  6
Continuous
 62
     7
100
AcDbLine
 10
843.8801680642981
 20
292.5247775522614
 30
0.0
 11
843.8293206281022
 21
292.5794169853901
 31
0.0
  0
LINE
  5
3F9
330
22
100
AcDbEntity
  8
_4-2_
  6
Continuous
 62
     7
100
AcDbLine
 10
843.8293206281022
 20
292.5794169853901
 30
0.0
 11
843.7757987072185
 21
292.6363358443898
 31
0.0
  0
LINE
  5
3FA
330
22
100
AcDbEntity
  8
_4-2_
  6
Continuous
 62
     7
100
AcDbLine
 10
843.7757987072185
 20
292.6363358443898
 30
0.0
 11
843.6825503582767
 21
292.7336494374088
 31
0.0
  0
LINE
  5
3FB
330
22
100
AcDbEntity
  8
_4-2_
  6
Continuous
 62
     7
100
AcDbLine
 10
843.6825503582767
 20
292.7336494374088
 30
0.0
 11
843.5877064747943
 21
292.8294906739113
 31
0.0
  0
LINE
  5
3FC
330
22
100
AcDbEntity
  8
_4-2_
  6
Continuous
 62
     7
100
AcDbLine
 10
843.5877064747943
 20
292.8294906739113
 30
0.0
 11
843.4908383001046
 21
292.9233579482359
 31
0.0
  0
LINE
  5
3FD
330
22
100
AcDbEntity
  8
_4-2_
  6
Continuous
 62
     7
100
AcDbLine
 10
843.4908383001046
 20
292.9233579482359
 30
0.0
 11
843.3915170775387
 21
293.0147496547345
 31
0.0
  0
LINE
  5
3FE
330
22
100
AcDbEntity
  8
_4-2_
  6
Continuous
 62
     7
100
AcDbLine
 10
843.3915170775387
 20
293.0147496547345
 30
0.0
 11
843.2893140504242
 21
293.10316418775
 31
0.0
  0
LINE
  5
3FF
330
22
100
AcDbEntity
  8
_4-2_
  6
Continuous
 62
     7
100
AcDbLine
 10
843.2893140504242
 20
293.10316418775
 30
0.0
 11
843.2285468994347
 21
293.1528828173025
 31
0.0
  0
LINE
  5
400
330
22
100
AcDbEntity
  8
_4-2_
  6
Continuous
 62
     7
100
AcDbLine
 10
843.2285468994347
 20
293.1528828173025
 30
0.0
 11
843.1737633372197
 21
293.19583616261
 31
0.0
  0
LINE
  5
401
330
22
100
AcDbEntity
  8
_4-2_
  6
Continuous
 62
     7
100
AcDbLine
 10
843.1737633372197
 20
293.19583616261
 30
0.0
 11
843.077130149769
 21
293.267219142487
 31
0.0
  0
LINE
  5
402
330
22
100
AcDbEntity
  8
_4-2_
  6
Continuous
 62
     7
100
AcDbLine
 10
843.077130149769
 20
293.267219142487
 30
0.0
 11
842.9777769352753
 21
293.3347020730677
 31
0.0
  0
LINE
  5
403
330
22
100
AcDbEntity
  8
_4-2_
  6
Continuous
 62
     7
100
AcDbLine
 10
842.9777769352753
 20
293.3347020730677
 30
0.0
 11
842.875747774509
 21
293.3976865927109
 31
0.0
  0
LINE
  5
404
330
22
100
AcDbEntity
  8
_4-2_
  6
Continuous
 62
     7
100
AcDbLine
 10
842.875747774509
 20
293.3976865927109
 30
0.0
 11
842.7710867482399
 21
293.4555743397634
 31
0.0
  0
LINE
  5
405
330
22
100
AcDbEntity
  8
_4-2_
  6
Continuous
 62
     7
100
AcDbLine
 10
842.7710867482399
 20
293.4555743397634
 30
0.0
 11
842.6638379372375
 21
293.5077669525837
 31
0.0
  0
LINE
  5
406
330
22
100
AcDbEntity
  8
_4-2_
  6
Continuous
 62
     7
100
AcDbLine
 10
842.6638379372375
 20
293.5077669525837
 30
0.0
 11
842.6004652740072
 21
293.53519337191
 31
0.0
  0
LINE
  5
407
330
22
100
AcDbEntity
  8
_4-2_
  6
Continuous
 62
     7
100
AcDbLine
 10
842.6004652740072
 20
293.53519337191
 30
0.0
 11
842.529274341045
 21
293.563023817698
 31
0.0
  0
LINE
  5
408
330
22
100
AcDbEntity
  8
_4-2_
  6
Continuous
 62
     7
100
AcDbLine
 10
842.529274341045
 20
293.563023817698
 30
0.0
 11
842.4043440548857
 21
293.6050929604578
 31
0.0
  0
LINE
  5
409
330
22
100
AcDbEntity
  8
_4-2_
  6
Continuous
 62
     7
100
AcDbLine
 10
842.4043440548857
 20
293.6050929604578
 30
0.0
 11
842.2770302430999
 21
293.6404701801432
 31
0.0
  0
LINE
  5
40A
330
22
100
AcDbEntity
  8
_4-2_
  6
Continuous
 62
     7
100
AcDbLine
 10
842.2770302430999
 20
293.6404701801432
 30
0.0
 11
842.1477808200949
 21
293.6700794762252
 31
0.0
  0
LINE
  5
40B
330
22
100
AcDbEntity
  8
_4-2_
  6
Continuous
 62
     7
100
AcDbLine
 10
842.1477808200949
 20
293.6700794762252
 30
0.0
 11
842.0170437002763
 21
293.6948448481683
 31
0.0
  0
LINE
  5
40C
330
22
100
AcDbEntity
  8
_4-2_
  6
Continuous
 62
     7
100
AcDbLine
 10
842.0170437002763
 20
293.6948448481683
 30
0.0
 11
841.8852667980534
 21
293.7156902954409
 31
0.0
  0
LINE
  5
40D
330
22
100
AcDbEntity
  8
_4-2_
  6
Continuous
 62
     7
100
AcDbLine
 10
841.8852667980534
 20
293.7156902954409
 30
0.0
 11
841.8085362680344
 21
293.7263486492127
 31
0.0
  0
LINE
  5
40E
330
22
100
AcDbEntity
  8
_4-2_
  6
Continuous
 62
     7
100
AcDbLine
 10
841.8085362680344
 20
293.7263486492127
 30
0.0
 11
841.7157506617328
 21
293.7380467737551
 31
0.0
  0
LINE
  5
40F
330
22
100
AcDbEntity
  8
_4-2_
  6
Continuous
 62
     7
100
AcDbLine
 10
841.7157506617328
 20
293.7380467737551
 30
0.0
 11
841.5555504959304
 21
293.7548634994339
 31
0.0
  0
LINE
  5
410
330
22
100
AcDbEntity
  8
_4-2_
  6
Continuous
 62
     7
100
AcDbLine
 10
841.5555504959304
 20
293.7548634994339
 30
0.0
 11
841.3953034155666
 21
293.7666499039977
 31
0.0
  0
LINE
  5
411
330
22
100
AcDbEntity
  8
_4-2_
  6
Continuous
 62
     7
100
AcDbLine
 10
841.3953034155666
 20
293.7666499039977
 30
0.0
 11
841.2352860176735
 21
293.7724912109882
 31
0.0
  0
LINE
  5
412
330
22
100
AcDbEntity
  8
_4-2_
  6
Continuous
 62
     7
100
AcDbLine
 10
841.2352860176735
 20
293.7724912109882
 30
0.0
 11
841.0757748992759
 21
293.7714726439611
 31
0.0
  0
LINE
  5
413
330
22
100
AcDbEntity
  8
_4-2_
  6
Continuous
 62
     7
100
AcDbLine
 10
841.0757748992759
 20
293.7714726439611
 30
0.0
 11
840.917046657406
 21
293.7626794264558
 31
0.0
  0
LINE
  5
414
330
22
100
AcDbEntity
  8
_4-2_
  6
Continuous
 62
     7
100
AcDbLine
 10
840.917046657406
 20
293.7626794264558
 30
0.0
 11
840.825451984759
 21
293.7536565459703
 31
0.0
  0
LINE
  5
415
330
22
100
AcDbEntity
  8
_4-2_
  6
Continuous
 62
     7
100
AcDbLine
 10
840.825451984759
 20
293.7536565459703
 30
0.0
 11
840.7583618650287
 21
293.7451004296661
 31
0.0
  0
LINE
  5
416
330
22
100
AcDbEntity
  8
_4-2_
  6
Continuous
 62
     7
100
AcDbLine
 10
840.7583618650287
 20
293.7451004296661
 30
0.0
 11
840.6430805770478
 21
293.7270006601413
 31
0.0
  0
LINE
  5
417
330
22
100
AcDbEntity
  8
_4-2_
  6
Continuous
 62
     7
100
AcDbLine
 10
840.6430805770478
 20
293.7270006601413
 30
0.0
 11
840.5280987911485
 21
293.70555348418
 31
0.0
  0
LINE
  5
418
330
22
100
AcDbEntity
  8
_4-2_
  6
Continuous
 62
     7
100
AcDbLine
 10
840.5280987911485
 20
293.70555348418
 30
0.0
 11
840.4131887687377
 21
293.6817942179134
 31
0.0
  0
LINE
  5
419
330
22
100
AcDbEntity
  8
_4-2_
  6
Continuous
 62
     7
100
AcDbLine
 10
840.4131887687377
 20
293.6817942179134
 30
0.0
 11
840.2981227712244
 21
293.6567581774709
 31
0.0
  0
LINE
  5
41A
330
22
100
AcDbEntity
  8
_4-2_
  6
Continuous
 62
     7
100
AcDbLine
 10
840.2981227712244
 20
293.6567581774709
 30
0.0
 11
840.1826730600202
 21
293.6314806789862
 31
0.0
  0
LINE
  5
41B
330
22
100
AcDbEntity
  8
_4-2_
  6
Continuous
 62
     7
100
AcDbLine
 10
840.1826730600202
 20
293.6314806789862
 30
0.0
 11
840.115446669059
 21
293.6171170621804
 31
0.0
  0
LINE
  5
41C
330
22
100
AcDbEntity
  8
_4-2_
  6
Continuous
 62
     7
100
AcDbLine
 10
840.115446669059
 20
293.6171170621804
 30
0.0
 11
840.0391271494784
 21
293.6013209862442
 31
0.0
  0
LINE
  5
41D
330
22
100
AcDbEntity
  8
_4-2_
  6
Continuous
 62
     7
100
AcDbLine
 10
840.0391271494784
 20
293.6013209862442
 30
0.0
 11
839.9073783847516
 21
293.574227538599
 31
0.0
  0
LINE
  5
41E
330
22
100
AcDbEntity
  8
_4-2_
  6
Continuous
 62
     7
100
AcDbLine
 10
839.9073783847516
 20
293.574227538599
 30
0.0
 11
839.7763126198535
 21
293.5453943147552
 31
0.0
  0
LINE
  5
41F
330
22
100
AcDbEntity
  8
_4-2_
  6
Continuous
 62
     7
100
AcDbLine
 10
839.7763126198535
 20
293.5453943147552
 30
0.0
 11
839.6469645265606
 21
293.5125905386911
 31
0.0
  0
LINE
  5
420
330
22
100
AcDbEntity
  8
_4-2_
  6
Continuous
 62
     7
100
AcDbLine
 10
839.6469645265606
 20
293.5125905386911
 30
0.0
 11
839.5203687766521
 21
293.4735854343801
 31
0.0
  0
LINE
  5
421
330
22
100
AcDbEntity
  8
_4-2_
  6
Continuous
 62
     7
100
AcDbLine
 10
839.5203687766521
 20
293.4735854343801
 30
0.0
 11
839.3975600419034
 21
293.4261482257937
 31
0.0
  0
LINE
  5
422
330
22
100
AcDbEntity
  8
_4-2_
  6
Continuous
 62
     7
100
AcDbLine
 10
839.3975600419034
 20
293.4261482257937
 30
0.0
 11
839.3284739005762
 21
293.3938920128838
 31
0.0
  0
LINE
  5
423
330
22
100
AcDbEntity
  8
_4-2_
  6
Continuous
 62
     7
100
AcDbLine
 10
839.3284739005762
 20
293.3938920128838
 30
0.0
 11
839.2663975060903
 21
293.3607135929326
 31
0.0
  0
LINE
  5
424
330
22
100
AcDbEntity
  8
_4-2_
  6
Continuous
 62
     7
100
AcDbLine
 10
839.2663975060903
 20
293.3607135929326
 30
0.0
 11
839.1630075590953
 21
293.2961596672446
 31
0.0
  0
LINE
  5
425
330
22
100
AcDbEntity
  8
_4-2_
  6
Continuous
 62
     7
100
AcDbLine
 10
839.1630075590953
 20
293.2961596672446
 30
0.0
 11
839.0642253269957
 21
293.2233161474135
 31
0.0
  0
LINE
  5
426
330
22
100
AcDbEntity
  8
_4-2_
  6
Continuous
 62
     7
100
AcDbLine
 10
839.0642253269957
 20
293.2233161474135
 30
0.0
 11
838.9700534229856
 21
293.1433619765918
 31
0.0
  0
LINE
  5
427
330
22
100
AcDbEntity
  8
_4-2_
  6
Continuous
 62
     7
100
AcDbLine
 10
838.9700534229856
 20
293.1433619765918
 30
0.0
 11
838.8804944602576
 21
293.0574760979373
 31
0.0
  0
LINE
  5
428
330
22
100
AcDbEntity
  8
_4-2_
  6
Continuous
 62
     7
100
AcDbLine
 10
838.8804944602576
 20
293.0574760979373
 30
0.0
 11
838.795551052004
 21
292.966837454607
 31
0.0
  0
LINE
  5
429
330
22
100
AcDbEntity
  8
_4-2_
  6
Continuous
 62
     7
100
AcDbLine
 10
838.795551052004
 20
292.966837454607
 30
0.0
 11
838.748399752013
 21
292.9125538896089
 31
0.0
  0
LINE
  5
42A
330
22
100
AcDbEntity
  8
_4-2_
  6
Continuous
 62
     7
100
AcDbLine
 10
838.748399752013
 20
292.9125538896089
 30
0.0
 11
838.695715361781
 21
292.8484492721138
 31
0.0
  0
LINE
  5
42B
330
22
100
AcDbEntity
  8
_4-2_
  6
Continuous
 62
     7
100
AcDbLine
 10
838.695715361781
 20
292.8484492721138
 30
0.0
 11
838.6093579497387
 21
292.7351461410278
 31
0.0
  0
LINE
  5
42C
330
22
100
AcDbEntity
  8
_4-2_
  6
Continuous
 62
     7
100
AcDbLine
 10
838.6093579497387
 20
292.7351461410278
 30
0.0
 11
838.5280390328507
 21
292.6187557193923
 31
0.0
  0
LINE
  5
42D
330
22
100
AcDbEntity
  8
_4-2_
  6
Continuous
 62
     7
100
AcDbLine
 10
838.5280390328507
 20
292.6187557193923
 30
0.0
 11
838.4510265941102
 21
292.4997769312101
 31
0.0
  0
LINE
  5
42E
330
22
100
AcDbEntity
  8
_4-2_
  6
Continuous
 62
     7
100
AcDbLine
 10
838.4510265941102
 20
292.4997769312101
 30
0.0
 11
838.377588616505
 21
292.3787087004955
 31
0.0
  0
LINE
  5
42F
330
22
100
AcDbEntity
  8
_4-2_
  6
Continuous
 62
     7
100
AcDbLine
 10
838.377588616505
 20
292.3787087004955
 30
0.0
 11
838.3069930830229
 21
292.2560499512558
 31
0.0
  0
LINE
  5
430
330
22
100
AcDbEntity
  8
_4-2_
  6
Continuous
 62
     7
100
AcDbLine
 10
838.3069930830229
 20
292.2560499512558
 30
0.0
 11
838.2670616287358
 21
292.1843757031131
 31
0.0
  0
LINE
  5
431
330
22
100
AcDbEntity
  8
_4-2_
  6
Continuous
 62
     7
100
AcDbLine
 10
838.2670616287358
 20
292.1843757031131
 30
0.0
 11
838.2250195240439
 21
292.1074590830282
 31
0.0
  0
LINE
  5
432
330
22
100
AcDbEntity
  8
_4-2_
  6
Continuous
 62
     7
100
AcDbLine
 10
838.2250195240439
 20
292.1074590830282
 30
0.0
 11
838.1537812482891
 21
291.9742048602977
 31
0.0
  0
LINE
  5
433
330
22
100
AcDbEntity
  8
_4-2_
  6
Continuous
 62
     7
100
AcDbLine
 10
838.1537812482891
 20
291.9742048602977
 30
0.0
 11
838.0837096555623
 21
291.8402692355874
 31
0.0
  0
LINE
  5
434
330
22
100
AcDbEntity
  8
_4-2_
  6
Continuous
 62
     7
100
AcDbLine
 10
838.0837096555623
 20
291.8402692355874
 30
0.0
 11
838.0143242747825
 21
291.7058009474152
 31
0.0
  0
LINE
  5
435
330
22
100
AcDbEntity
  8
_4-2_
  6
Continuous
 62
     7
100
AcDbLine
 10
838.0143242747825
 20
291.7058009474152
 30
0.0
 11
837.9451446348717
 21
291.5709487343036
 31
0.0
  0
LINE
  5
436
330
22
100
AcDbEntity
  8
_4-2_
  6
Continuous
 62
     7
100
AcDbLine
 10
837.9451446348717
 20
291.5709487343036
 30
0.0
 11
837.8756902647475
 21
291.4358613347684
 31
0.0
  0
LINE
  5
437
330
22
100
AcDbEntity
  8
_4-2_
  6
Continuous
 62
     7
100
AcDbLine
 10
837.8756902647475
 20
291.4358613347684
 30
0.0
 11
837.835091518103
 21
291.3574614913311
 31
0.0
  0
LINE
  5
438
330
22
100
AcDbEntity
  8
_4-2_
  6
Continuous
 62
     7
100
AcDbLine
 10
837.835091518103
 20
291.3574614913311
 30
0.0
 11
837.7798331092446
 21
291.2519438769521
 31
0.0
  0
LINE
  5
439
330
22
100
AcDbEntity
  8
_4-2_
  6
Continuous
 62
     7
100
AcDbLine
 10
837.7798331092446
 20
291.2519438769521
 30
0.0
 11
837.682017599287
 21
291.0710715232715
 31
0.0
  0
LINE
  5
43A
330
22
100
AcDbEntity
  8
_4-2_
  6
Continuous
 62
     7
100
AcDbLine
 10
837.682017599287
 20
291.0710715232715
 30
0.0
 11
837.5793791035206
 21
290.8931289131162
 31
0.0
  0
LINE
  5
43B
330
22
100
AcDbEntity
  8
_4-2_
  6
Continuous
 62
     7
100
AcDbLine
 10
837.5793791035206
 20
290.8931289131162
 30
0.0
 11
837.4700516114044
 21
290.7199705206033
 31
0.0
  0
LINE
  5
43C
330
22
100
AcDbEntity
  8
_4-2_
  6
Continuous
 62
     7
100
AcDbLine
 10
837.4700516114044
 20
290.7199705206033
 30
0.0
 11
837.3521691124036
 21
290.5534508198609
 31
0.0
  0
LINE
  5
43D
330
22
100
AcDbEntity
  8
_4-2_
  6
Continuous
 62
     7
100
AcDbLine
 10
837.3521691124036
 20
290.5534508198609
 30
0.0
 11
837.2238655959822
 21
290.3954242850129
 31
0.0
  0
LINE
  5
43E
330
22
100
AcDbEntity
  8
_4-2_
  6
Continuous
 62
     7
100
AcDbLine
 10
837.2238655959822
 20
290.3954242850129
 30
0.0
 11
837.1439393410909
 21
290.3083912226491
 31
0.0
  0
LINE
  5
43F
330
22
100
AcDbEntity
  8
_4-2_
  6
Continuous
 62
     7
100
AcDbLine
 10
837.1439393410909
 20
290.3083912226491
 30
0.0
 11
837.1150548583997
 21
290.2789505939556
 31
0.0
  0
LINE
  5
440
330
22
100
AcDbEntity
  8
_4-2_
  6
Continuous
 62
     7
100
AcDbLine
 10
837.1150548583997
 20
290.2789505939556
 30
0.0
 11
837.0639928199373
 21
290.2293599095598
 31
0.0
  0
LINE
  5
441
330
22
100
AcDbEntity
  8
_4-2_
  6
Continuous
 62
     7
100
AcDbLine
 10
837.0639928199373
 20
290.2293599095598
 30
0.0
 11
837.0113663247307
 21
290.1813598411575
 31
0.0
  0
LINE
  5
442
330
22
100
AcDbEntity
  8
_4-2_
  6
Continuous
 62
     7
100
AcDbLine
 10
837.0113663247307
 20
290.1813598411575
 30
0.0
 11
836.9572125900466
 21
290.1350792765782
 31
0.0
  0
LINE
  5
443
330
22
100
AcDbEntity
  8
_4-2_
  6
Continuous
 62
     7
100
AcDbLine
 10
836.9572125900466
 20
290.1350792765782
 30
0.0
 11
836.9015688331487
 21
290.0906471036494
 31
0.0
  0
LINE
  5
444
330
22
100
AcDbEntity
  8
_4-2_
  6
Continuous
 62
     7
100
AcDbLine
 10
836.9015688331487
 20
290.0906471036494
 30
0.0
 11
836.8444722713045
 21
290.0481922101919
 31
0.0
  0
LINE
  5
445
330
22
100
AcDbEntity
  8
_4-2_
  6
Continuous
 62
     7
100
AcDbLine
 10
836.8444722713045
 20
290.0481922101919
 30
0.0
 11
836.8107052557443
 21
290.0245251499489
 31
0.0
  0
LINE
  5
446
330
22
100
AcDbEntity
  8
_4-2_
  6
Continuous
 62
     7
100
AcDbLine
 10
836.8107052557443
 20
290.0245251499489
 30
0.0
 11
836.7547043738156
 21
289.9874672184608
 31
0.0
  0
LINE
  5
447
330
22
100
AcDbEntity
  8
_4-2_
  6
Continuous
 62
     7
100
AcDbLine
 10
836.7547043738156
 20
289.9874672184608
 30
0.0
 11
836.655834721208
 21
289.9272089283402
 31
0.0
  0
LINE
  5
448
330
22
100
AcDbEntity
  8
_4-2_
  6
Continuous
 62
     7
100
AcDbLine
 10
836.655834721208
 20
289.9272089283402
 30
0.0
 11
836.5549526668143
 21
289.8701286726708
 31
0.0
  0
LINE
  5
449
330
22
100
AcDbEntity
  8
_4-2_
  6
Continuous
 62
     7
100
AcDbLine
 10
836.5549526668143
 20
289.8701286726708
 30
0.0
 11
836.4531276991304
 21
289.8145719798906
 31
0.0
  0
LINE
  5
44A
330
22
100
AcDbEntity
  8
_4-2_
  6
Continuous
 62
     7
100
AcDbLine
 10
836.4531276991304
 20
289.8145719798906
 30
0.0
 11
836.3514293066598
 21
289.758884378429
 31
0.0
  0
LINE
  5
44B
330
22
100
AcDbEntity
  8
_4-2_
  6
Continuous
 62
     7
100
AcDbLine
 10
836.3514293066598
 20
289.758884378429
 30
0.0
 11
836.2509269779023
 21
289.7014113967264
 31
0.0
  0
LINE
  5
44C
330
22
100
AcDbEntity
  8
_4-2_
  6
Continuous
 62
     7
100
AcDbLine
 10
836.2509269779023
 20
289.7014113967264
 30
0.0
 11
836.1936050976973
 21
289.6666070582812
 31
0.0
  0
LINE
  5
44D
330
22
100
AcDbEntity
  8
_4-2_
  6
Continuous
 62
     7
100
AcDbLine
 10
836.1936050976973
 20
289.6666070582812
 30
0.0
 11
836.1358482274486
 21
289.6295040771104
 31
0.0
  0
LINE
  5
44E
330
22
100
AcDbEntity
  8
_4-2_
  6
Continuous
 62
     7
100
AcDbLine
 10
836.1358482274486
 20
289.6295040771104
 30
0.0
 11
836.0383838511026
 21
289.5623154760067
 31
0.0
  0
LINE
  5
44F
330
22
100
AcDbEntity
  8
_4-2_
  6
Continuous
 62
     7
100
AcDbLine
 10
836.0383838511026
 20
289.5623154760067
 30
0.0
 11
835.9431822622136
 21
289.4917009822773
 31
0.0
  0
LINE
  5
450
330
22
100
AcDbEntity
  8
_4-2_
  6
Continuous
 62
     7
100
AcDbLine
 10
835.9431822622136
 20
289.4917009822773
 30
0.0
 11
835.8497594567561
 21
289.4184134495293
 31
0.0
  0
LINE
  5
451
330
22
100
AcDbEntity
  8
_4-2_
  6
Continuous
 62
     7
100
AcDbLine
 10
835.8497594567561
 20
289.4184134495293
 30
0.0
 11
835.7576314306967
 21
289.3432057313742
 31
0.0
  0
LINE
  5
452
330
22
100
AcDbEntity
  8
_4-2_
  6
Continuous
 62
     7
100
AcDbLine
 10
835.7576314306967
 20
289.3432057313742
 30
0.0
 11
835.6663141800114
 21
289.2668306814215
 31
0.0
  0
LINE
  5
453
330
22
100
AcDbEntity
  8
_4-2_
  6
Continuous
 62
     7
100
AcDbLine
 10
835.6663141800114
 20
289.2668306814215
 30
0.0
 11
835.6135309491342
 21
289.2222949444879
 31
0.0
  0
LINE
  5
454
330
22
100
AcDbEntity
  8
_4-2_
  6
Continuous
 62
     7
100
AcDbLine
 10
835.6135309491342
 20
289.2222949444879
 30
0.0
 11
835.5473797843739
 21
289.1663695795517
 31
0.0
  0
LINE
  5
455
330
22
100
AcDbEntity
  8
_4-2_
  6
Continuous
 62
     7
100
AcDbLine
 10
835.5473797843739
 20
289.1663695795517
 30
0.0
 11
835.4338967979296
 21
289.0694426709289
 31
0.0
  0
LINE
  5
456
330
22
100
AcDbEntity
  8
_4-2_
  6
Continuous
 62
     7
100
AcDbLine
 10
835.4338967979296
 20
289.0694426709289
 30
0.0
 11
835.3219126400389
 21
288.9710744407777
 31
0.0
  0
LINE
  5
457
330
22
100
AcDbEntity
  8
_4-2_
  6
Continuous
 62
     7
100
AcDbLine
 10
835.3219126400389
 20
288.9710744407777
 30
0.0
 11
835.2123300611479
 21
288.8703305670735
 31
0.0
  0
LINE
  5
458
330
22
100
AcDbEntity
  8
_4-2_
  6
Continuous
 62
     7
100
AcDbLine
 10
835.2123300611479
 20
288.8703305670735
 30
0.0
 11
835.1060518117046
 21
288.7662767277918
 31
0.0
  0
LINE
  5
459
330
22
100
AcDbEntity
  8
_4-2_
  6
Continuous
 62
     7
100
AcDbLine
 10
835.1060518117046
 20
288.7662767277918
 30
0.0
 11
835.0039806421555
 21
288.6579786009104
 31
0.0
  0
LINE
  5
45A
330
22
100
AcDbEntity
  8
_4-2_
  6
Continuous
 62
     7
100
AcDbLine
 10
835.0039806421555
 20
288.6579786009104
 30
0.0
 11
834.9470627784429
 21
288.5928527832805
 31
0.0
  0
LINE
  5
45B
330
22
100
AcDbEntity
  8
_4-2_
  6
Continuous
 62
     7
100
AcDbLine
 10
834.9470627784429
 20
288.5928527832805
 30
0.0
 11
834.9147757330465
 21
288.5540482360778
 31
0.0
  0
LINE
  5
45C
330
22
100
AcDbEntity
  8
_4-2_
  6
Continuous
 62
     7
100
AcDbLine
 10
834.9147757330465
 20
288.5540482360778
 30
0.0
 11
834.8608225391043
 21
288.4856277736792
 31
0.0
  0
LINE
  5
45D
330
22
100
AcDbEntity
  8
_4-2_
  6
Continuous
 62
     7
100
AcDbLine
 10
834.8608225391043
 20
288.4856277736792
 30
0.0
 11
834.8093476190214
 21
288.4153144875806
 31
0.0
  0
LINE
  5
45E
330
22
100
AcDbEntity
  8
_4-2_
  6
Continuous
 62
     7
100
AcDbLine
 10
834.8093476190214
 20
288.4153144875806
 30
0.0
 11
834.7607096873057
 21
288.3431389046352
 31
0.0
  0
LINE
  5
45F
330
22
100
AcDbEntity
  8
_4-2_
  6
Continuous
 62
     7
100
AcDbLine
 10
834.7607096873057
 20
288.3431389046352
 30
0.0
 11
834.7152674584672
 21
288.2691315517007
 31
0.0
  0
LINE
  5
460
330
22
100
AcDbEntity
  8
_4-2_
  6
Continuous
 62
     7
100
AcDbLine
 10
834.7152674584672
 20
288.2691315517007
 30
0.0
 11
834.6733796470104
 21
288.1933229556369
 31
0.0
  0
LINE
  5
461
330
22
100
AcDbEntity
  8
_4-2_
  6
Continuous
 62
     7
100
AcDbLine
 10
834.6733796470104
 20
288.1933229556369
 30
0.0
 11
834.65085470258
 21
288.1485406694849
 31
0.0
  0
LINE
  5
462
330
22
100
AcDbEntity
  8
_4-2_
  6
Continuous
 62
     7
100
AcDbLine
 10
834.65085470258
 20
288.1485406694849
 30
0.0
 11
834.6216972942325
 21
288.0851182375788
 31
0.0
  0
LINE
  5
463
330
22
100
AcDbEntity
  8
_4-2_
  6
Continuous
 62
     7
100
AcDbLine
 10
834.6216972942325
 20
288.0851182375788
 30
0.0
 11
834.577018070264
 21
287.9733905006736
 31
0.0
  0
LINE
  5
464
330
22
100
AcDbEntity
  8
_4-2_
  6
Continuous
 62
     7
100
AcDbLine
 10
834.577018070264
 20
287.9733905006736
 30
0.0
 11
834.5382984836234
 21
287.8591277393314
 31
0.0
  0
LINE
  5
465
330
22
100
AcDbEntity
  8
_4-2_
  6
Continuous
 62
     7
100
AcDbLine
 10
834.5382984836234
 20
287.8591277393314
 30
0.0
 11
834.5042373034559
 21
287.7428834523373
 31
0.0
  0
LINE
  5
466
330
22
100
AcDbEntity
  8
_4-2_
  6
Continuous
 62
     7
100
AcDbLine
 10
834.5042373034559
 20
287.7428834523373
 30
0.0
 11
834.473533298901
 21
287.6252111384762
 31
0.0
  0
LINE
  5
467
330
22
100
AcDbEntity
  8
_4-2_
  6
Continuous
 62
     7
100
AcDbLine
 10
834.473533298901
 20
287.6252111384762
 30
0.0
 11
834.4448852391026
 21
287.5066642965377
 31
0.0
  0
LINE
  5
468
330
22
100
AcDbEntity
  8
_4-2_
  6
Continuous
 62
     7
100
AcDbLine
 10
834.4448852391026
 20
287.5066642965377
 30
0.0
 11
834.4286986456845
 21
287.4377245267481
 31
0.0
  0
LINE
  5
469
330
22
100
AcDbEntity
  8
_4-2_
  6
Continuous
 62
     7
100
AcDbLine
 10
877.3961210598187
 20
287.4377245267481
 30
0.0
 11
841.1461210598188
 21
287.4377245267481
 31
0.0
  0
ARC
  5
46A
330
22
100
AcDbEntity
  8
_4-4_
  6
Continuous
 62
     2
100
AcDbCircle
 10
872.3961210598188
 20
292.4377245267504
 30
0.0
 40
1.875
100
AcDbArc
 50
270.0
 51
0.0
  0
LINE
  5
46B
330
22
100
AcDbEntity
  8
_4-4_
  6
Continuous
 62
     2
100
AcDbLine
 10
841.1461210598188
 20
290.5627245267481
 30
0.0
 11
841.1461210598188
 21
287.4377245267481
 31
0.0
  0
LINE
  5
46C
330
22
100
AcDbEntity
  8
_4-4_
  6
Continuous
 62
     2
100
AcDbLine
 10
872.3961210598188
 20
290.5627245267481
 30
0.0
 11
841.1461210598188
 21
290.5627245267481
 31
0.0
  0
LINE
  5
46D
330
22
100
AcDbEntity
  8
_4-2_
  6
Continuous
 62
     7
100
AcDbLine
 10
877.3961210598187
 20
534.312724526748
 30
0.0
 11
871.7711210598178
 21
534.312724526748
 31
0.0
  0
LINE
  5
46E
330
22
100
AcDbEntity
  8
_4-4_
  6
Continuous
 62
     2
100
AcDbLine
 10
874.2711210598187
 20
292.4377245267504
 30
0.0
 11
874.2711210598187
 21
510.2726610172878
 31
0.0
  0
LINE
  5
46F
330
22
100
AcDbEntity
  8
_4-D_
  6
Continuous
 62
     7
100
AcDbLine
 10
876.1461210598188
 20
534.312724526748
 30
0.0
 11
876.1461210598188
 21
513.2750657530952
 31
0.0
  0
LINE
  5
470
330
22
100
AcDbEntity
  8
_4-D_
  6
Continuous
 62
     7
100
AcDbLine
 10
876.1461210598188
 20
513.2750657530952
 30
0.0
 11
877.3961210598187
 21
511.110002243635
 31
0.0
  0
LINE
  5
471
330
22
100
AcDbEntity
  8
_4-D_
  6
Continuous
 62
     4
100
AcDbLine
 10
871.8055898564749
 20
534.312724526748
 30
0.0
 11
871.7869398772368
 21
534.3313745059861
 31
0.0
  0
LINE
  5
472
330
22
100
AcDbEntity
  8
_4-D_
  6
Continuous
 62
     4
100
AcDbLine
 10
874.4572402859226
 20
534.312724526748
 30
0.0
 11
872.9630928578476
 21
535.8068719548231
 31
0.0
  0
LINE
  5
473
330
22
100
AcDbEntity
  8
_4-D_
  6
Continuous
 62
     4
100
AcDbLine
 10
877.1088907153702
 20
534.312724526748
 30
0.0
 11
874.0574821402423
 21
537.364133101875
 31
0.0
  0
LINE
  5
474
330
22
100
AcDbEntity
  8
_4-D_
  6
Continuous
 62
     4
100
AcDbLine
 10
877.3961210598178
 20
536.6771446117483
 30
0.0
 11
875.0674570979501
 21
539.0058085736147
 31
0.0
  0
LINE
  5
475
330
22
100
AcDbEntity
  8
_4-D_
  6
Continuous
 62
     4
100
AcDbLine
 10
877.3961210598223
 20
539.3287950412029
 30
0.0
 11
875.9892113294572
 21
540.7357047715679
 31
0.0
  0
LINE
  5
476
330
22
100
AcDbEntity
  8
_4-D_
  6
Continuous
 62
     4
100
AcDbLine
 10
877.3961210598232
 20
541.9804454706483
 30
0.0
 11
876.8175324522507
 21
542.5590340782211
 31
0.0
  0
LINE
  5
477
330
22
100
AcDbEntity
  8
_4-D_
  6
Continuous
 62
     4
100
AcDbLine
 10
877.3961210598178
 20
512.649915699382
 30
0.0
 11
876.832473615385
 21
512.0862682549493
 31
0.0
  0
LINE
  5
478
330
22
100
AcDbEntity
  8
_4-D_
  6
Continuous
 62
     4
100
AcDbLine
 10
877.39612105982
 20
516.1854496053108
 30
0.0
 11
876.1461210598177
 21
514.9354496053085
 31
0.0
  0
LINE
  5
479
330
22
100
AcDbEntity
  8
_4-D_
  6
Continuous
 62
     4
100
AcDbLine
 10
877.39612105982
 20
519.7209835112487
 30
0.0
 11
876.1461210598154
 21
518.4709835112442
 31
0.0
  0
LINE
  5
47A
330
22
100
AcDbEntity
  8
_4-D_
  6
Continuous
 62
     4
100
AcDbLine
 10
877.39612105982
 20
523.2565174171752
 30
0.0
 11
876.1461210598188
 21
522.0065174171752
 31
0.0
  0
LINE
  5
47B
330
22
100
AcDbEntity
  8
_4-D_
  6
Continuous
 62
     4
100
AcDbLine
 10
877.3961210598187
 20
526.7920513231108
 30
0.0
 11
876.1461210598165
 21
525.5420513231086
 31
0.0
  0
LINE
  5
47C
330
22
100
AcDbEntity
  8
_4-D_
  6
Continuous
 62
     4
100
AcDbLine
 10
877.3961210598223
 20
530.3275852290418
 30
0.0
 11
876.1461210598165
 21
529.0775852290351
 31
0.0
  0
LINE
  5
47D
330
22
100
AcDbEntity
  8
_4-D_
  6
Continuous
 62
     4
100
AcDbLine
 10
877.3961210598187
 20
533.8631191349775
 30
0.0
 11
876.1461210598177
 21
532.6131191349752
 31
0.0
  0
POINT
  5
47E
330
22
100
AcDbEntity
  8
_4-B_
 62
     1
100
AcDbPoint
 10
976.1461210598188
 20
361.011967027436
 30
0.0
  0
POINT
  5
47F
330
22
100
AcDbEntity
  8
_4-B_
 62
     1
100
AcDbPoint
 10
943.0211210598187
 20
361.011967027436
 30
0.0
  0
LINE
  5
480
330
22
100
AcDbEntity
  8
_4-B_
  6
Continuous
 62
     7
100
AcDbLine
 10
943.0211210598187
 20
361.011967027436
 30
0.0
 11
976.1461210598188
 21
361.011967027436
 31
0.0
  0
LINE
  5
481
330
22
100
AcDbEntity
  8
_4-B_
  6
Continuous
 62
     7
100
AcDbLine
 10
976.1461210598188
 20
361.011967027436
 30
0.0
 11
976.1461210598188
 21
308.1912545509424
 31
0.0
  0
ARC
  5
482
330
22
100
AcDbEntity
  8
_4-2_
  6
Continuous
 62
     7
100
AcDbCircle
 10
893.0211210598187
 20
149.4325999081177
 30
0.0
 40
29.81241592781808
100
AcDbArc
 50
58.39161865876501
 51
121.608381341235
  0
ARC
  5
483
330
22
100
AcDbEntity
  8
_4-2_
  6
Continuous
 62
     7
100
AcDbCircle
 10
893.0211210598187
 20
611.6028431061628
 30
0.0
 40
29.81241592781809
100
AcDbArc
 50
238.391618658765
 51
301.608381341235
  0
LINE
  5
484
330
22
100
AcDbEntity
  8
_4-E_
  6
Continuous
 62
     4
100
AcDbLine
 10
828.1774175303709
 20
190.562724526748
 30
0.0
 11
877.3961210598187
 21
239.7814280561981
 31
0.0
  0
LINE
  5
485
330
22
100
AcDbEntity
  8
_4-E_
  6
Continuous
 62
     4
100
AcDbLine
 10
835.2484853422364
 20
190.562724526748
 30
0.0
 11
877.3961210598187
 21
232.7103602443314
 31
0.0
  0
LINE
  5
486
330
22
100
AcDbEntity
  8
_4-E_
  6
Continuous
 62
     4
100
AcDbLine
 10
842.3195531540985
 20
190.562724526748
 30
0.0
 11
877.3961210598187
 21
225.6392924324693
 31
0.0
  0
LINE
  5
487
330
22
100
AcDbEntity
  8
_4-E_
  6
Continuous
 62
     4
100
AcDbLine
 10
683.6461210598187
 20
246.0314280561958
 30
0.0
 11
721.9274175303709
 21
284.3127245267481
 31
0.0
  0
LINE
  5
488
330
22
100
AcDbEntity
  8
_4-E_
  6
Continuous
 62
     4
100
AcDbLine
 10
683.6461210598187
 20
238.9603602443314
 30
0.0
 11
728.9984853422364
 21
284.3127245267481
 31
0.0
  0
LINE
  5
489
330
22
100
AcDbEntity
  8
_4-E_
  6
Continuous
 62
     4
100
AcDbLine
 10
683.6461210598187
 20
231.889292432467
 30
0.0
 11
736.069553154101
 21
284.3127245267481
 31
0.0
  0
LINE
  5
48A
330
22
100
AcDbEntity
  8
_4-2_
  6
Continuous
 62
     7
100
AcDbLine
 10
877.3961210598187
 20
284.3127245267481
 30
0.0
 11
683.6461210598187
 21
284.3127245267481
 31
0.0
  0
LINE
  5
48B
330
22
100
AcDbEntity
  8
_4-4_
  6
Continuous
 62
     2
100
AcDbLine
 10
841.1461210598188
 20
287.4377245267481
 30
0.0
 11
683.6461210598187
 21
287.4377245267481
 31
0.0
  0
LINE
  5
48C
330
22
100
AcDbEntity
  8
_4-4_
  6
Continuous
 62
     2
100
AcDbLine
 10
976.1461210598188
 20
287.4377245267481
 30
0.0
 11
1333.646121059819
 21
287.4377245267481
 31
0.0
  0
LINE
  5
48D
330
22
100
AcDbEntity
  8
_4-2_
  6
Continuous
 62
     7
100
AcDbLine
 10
939.8961210598187
 20
284.3127245267481
 30
0.0
 11
1333.646121059819
 21
284.3127245267481
 31
0.0
  0
TEXT
  5
48E
330
22
100
AcDbEntity
  8
_4-A_
 62
     7
100
AcDbText
 10
993.9006208756143
 20
435.8217128940888
 30
0.0
 40
15.0
  1
塩ビシート 接着工法
100
AcDbText
  0
LINE
  5
48F
330
22
100
AcDbEntity
  8
_4-A_
  6
Continuous
 62
     7
100
AcDbLine
 10
983.9006208756144
 20
443.3217128940889
 30
0.0
 11
957.4042379439489
 21
443.3217128940889
 31
0.0
  0
TEXT
  5
490
330
22
100
AcDbEntity
  8
_4-A_
 62
     7
100
AcDbText
 10
1035.61757648995
 20
585.8217128940889
 30
0.0
 40
15.0
  1
ロンシーラントＳ
100
AcDbText
  0
TEXT
  5
491
330
22
100
AcDbEntity
  8
_4-A_
 62
     7
100
AcDbText
 10
1035.61757648995
 20
535.8217128940889
 30
0.0
 40
15.0
  1
ロンシーラントＴＢ
100
AcDbText
  0
TEXT
  5
492
330
22
100
AcDbEntity
  8
_4-A_
 62
     7
100
AcDbText
 10
1035.61757648995
 20
560.8217128940889
 30
0.0
 40
15.0
  1
ステンレスバンド
100
AcDbText
  0
LINE
  5
493
330
22
100
AcDbEntity
  8
_4-A_
  6
Continuous
 62
     7
100
AcDbLine
 10
943.0211210598187
 20
418.4094236795742
 30
0.0
 11
957.4042379439489
 21
443.3217128940889
 31
0.0
  0
TEXT
  5
494
330
22
100
AcDbEntity
  8
_4-A_
 62
     7
100
AcDbText
 10
1063.53302358819
 20
360.8217128940889
 30
0.0
 40
15.0
  1
プルーフシーラー
100
AcDbText
  0
TEXT
  5
495
330
22
100
AcDbEntity
  8
_4-A_
 62
     7
100
AcDbText
 10
1063.53302358819
 20
335.8217128940889
 30
0.0
 40
15.0
  1
塩ビシート 接着工法
100
AcDbText
  0
LINE
  5
496
330
22
100
AcDbEntity
  8
_4-A_
  6
Continuous
 62
     7
100
AcDbLine
 10
1053.53302358819
 20
343.3217128940889
 30
0.0
 11
1029.610208755053
 21
343.3217128940889
 31
0.0
  0
LINE
  5
497
330
22
100
AcDbEntity
  8
_4-A_
  6
Continuous
 62
     7
100
AcDbLine
 10
997.3455730277791
 20
287.4377245267481
 30
0.0
 11
1029.610208755053
 21
343.3217128940889
 31
0.0
  0
LINE
  5
498
330
22
100
AcDbEntity
  8
_4-A_
  6
Continuous
 62
     7
100
AcDbLine
 10
976.8873554915087
 20
292.6069257332886
 30
0.0
 11
1020.60130824043
 21
368.3217128940889
 31
0.0
  0
LINE
  5
499
330
22
100
AcDbEntity
  8
_4-A_
  6
Continuous
 62
     7
100
AcDbLine
 10
1053.53302358819
 20
368.3217128940889
 30
0.0
 11
1020.60130824043
 21
368.3217128940889
 31
0.0
  0
LINE
  5
49A
330
22
100
AcDbEntity
  8
_4-A_
  6
Continuous
 62
     7
100
AcDbLine
 10
940.4285350995005
 20
514.2020307352133
 30
0.0
 11
957.2407914326422
 21
543.3217128940889
 31
0.0
  0
LINE
  5
49B
330
22
100
AcDbEntity
  8
_4-A_
  6
Continuous
 62
     7
100
AcDbLine
 10
1025.61757648995
 20
543.3217128940889
 30
0.0
 11
957.2407914326422
 21
543.3217128940889
 31
0.0
  0
LINE
  5
49C
330
22
100
AcDbEntity
  8
_4-A_
  6
Continuous
 62
     7
100
AcDbLine
 10
1025.61757648995
 20
568.3217128940889
 30
0.0
 11
966.9685118593221
 21
568.3217128940889
 31
0.0
  0
LINE
  5
49D
330
22
100
AcDbEntity
  8
_4-A_
  6
Continuous
 62
     7
100
AcDbLine
 10
945.0390148655833
 20
530.338709916504
 30
0.0
 11
966.9685118593221
 21
568.3217128940889
 31
0.0
  0
LINE
  5
49E
330
22
100
AcDbEntity
  8
_4-A_
  6
Continuous
 62
     7
100
AcDbLine
 10
1025.61757648995
 20
593.3217128940889
 30
0.0
 11
973.7258388172072
 21
593.3217128940889
 31
0.0
  0
LINE
  5
49F
330
22
100
AcDbEntity
  8
_4-A_
  6
Continuous
 62
     7
100
AcDbLine
 10
941.4763714099738
 20
537.4639968277226
 30
0.0
 11
973.7258388172072
 21
593.3217128940889
 31
0.0
  0
LINE
  5
4A0
330
22
100
AcDbEntity
  8
_4-E_
  6
Continuous
 62
     4
100
AcDbLine
 10
984.2064347717709
 20
190.5627245267503
 30
0.0
 11
1077.95643477177
 21
284.3127245267481
 31
0.0
  0
LINE
  5
4A1
330
22
100
AcDbEntity
  8
_4-E_
  6
Continuous
 62
     4
100
AcDbLine
 10
991.2775025836353
 20
190.5627245267503
 30
0.0
 11
1085.027502583635
 21
284.3127245267481
 31
0.0
  0
LINE
  5
4A2
330
22
100
AcDbEntity
  8
_4-E_
  6
Continuous
 62
     4
100
AcDbLine
 10
998.3485703954995
 20
190.5627245267503
 30
0.0
 11
1092.098570395499
 21
284.3127245267481
 31
0.0
  0
LINE
  5
4A3
330
22
100
AcDbEntity
  8
_4-E_
  6
Continuous
 62
     4
100
AcDbLine
 10
1184.20643477177
 20
190.562724526748
 30
0.0
 11
1277.95643477177
 21
284.3127245267481
 31
0.0
  0
LINE
  5
4A4
330
22
100
AcDbEntity
  8
_4-E_
  6
Continuous
 62
     4
100
AcDbLine
 10
1191.277502583635
 20
190.562724526748
 30
0.0
 11
1285.027502583635
 21
284.3127245267481
 31
0.0
  0
LINE
  5
4A5
330
22
100
AcDbEntity
  8
_4-E_
  6
Continuous
 62
     4
100
AcDbLine
 10
1198.348570395497
 20
190.562724526748
 30
0.0
 11
1292.098570395499
 21
284.3127245267481
 31
0.0
  0
LINE
  5
4A6
330
22
100
AcDbEntity
  8
_4-3_
  6
Continuous
 62
     3
100
AcDbLine
 10
683.6461210598187
 20
190.562724526748
 30
0.0
 11
877.3961210598187
 21
190.562724526748
 31
0.0
  0
LINE
  5
4A7
330
22
100
AcDbEntity
  8
_4-3_
  6
Continuous
 62
     3
100
AcDbLine
 10
939.8961210598187
 20
190.562724526748
 30
0.0
 11
1333.646121059819
 21
190.562724526748
 31
0.0
  0
LINE
  5
4A8
330
22
100
AcDbEntity
  8
_4-4_
  6
Continuous
 62
     2
100
AcDbLine
 10
944.2711210598188
 20
512.437724526748
 30
0.0
 11
943.0211210598187
 21
510.2726610172878
 31
0.0
  0
LINE
  5
4A9
330
22
100
AcDbEntity
  8
_4-D_
  6
Continuous
 62
     7
100
AcDbLine
 10
944.2711210598188
 20
534.312724526748
 30
0.0
 11
944.2711210598188
 21
515.562724526748
 31
0.0
  0
LINE
  5
4AA
330
22
100
AcDbEntity
  8
_4-4_
  6
Continuous
 62
     2
100
AcDbLine
 10
944.2711210598188
 20
515.562724526748
 30
0.0
 11
944.2711210598188
 21
512.437724526748
 31
0.0
  0
LINE
  5
4AB
330
22
100
AcDbEntity
  8
_4-4_
  6
Continuous
 62
     2
100
AcDbLine
 10
944.2711210598188
 20
515.562724526748
 30
0.0
 11
945.5211210598177
 21
515.562724526748
 31
0.0
  0
LINE
  5
4AC
330
22
100
AcDbEntity
  8
_4-4_
  6
Continuous
 62
     2
100
AcDbLine
 10
945.5211210598177
 20
534.312724526748
 30
0.0
 11
945.5211210598177
 21
515.562724526748
 31
0.0
  0
ARC
  5
4AD
330
22
100
AcDbEntity
  8
_4-4_
  6
Continuous
 62
     2
100
AcDbCircle
 10
969.4431631863935
 20
554.6193125164761
 30
0.0
 40
31.37868090424085
100
AcDbArc
 50
199.6732331057936
 51
220.3267668942045
  0
LINE
  5
4AE
330
22
100
AcDbEntity
  8
_4-4_
  6
Continuous
 62
     2
100
AcDbLine
 10
939.8961210598187
 20
586.2130908731607
 30
0.0
 11
939.8961210598187
 21
544.0555103193235
 31
0.0
  0
LINE
  5
4AF
330
22
100
AcDbEntity
  8
_4-D_
  6
Continuous
 62
     7
100
AcDbLine
 10
873.0211210598188
 20
534.312724526748
 30
0.0
 11
873.0211210598188
 21
515.562724526748
 31
0.0
  0
LINE
  5
4B0
330
22
100
AcDbEntity
  8
_4-4_
  6
Continuous
 62
     2
100
AcDbLine
 10
873.0211210598188
 20
512.437724526748
 30
0.0
 11
874.2711210598187
 21
510.2726610172878
 31
0.0
  0
LINE
  5
4B1
330
22
100
AcDbEntity
  8
_4-4_
  6
Continuous
 62
     2
100
AcDbLine
 10
873.0211210598188
 20
515.562724526748
 30
0.0
 11
873.0211210598188
 21
512.437724526748
 31
0.0
  0
LINE
  5
4B2
330
22
100
AcDbEntity
  8
_4-4_
  6
Continuous
 62
     2
100
AcDbLine
 10
873.0211210598188
 20
515.562724526748
 30
0.0
 11
871.7711210598178
 21
515.562724526748
 31
0.0
  0
ARC
  5
4B3
330
22
100
AcDbEntity
  8
_4-4_
  6
Continuous
 62
     2
100
AcDbCircle
 10
847.8490789332429
 20
554.6193125164761
 30
0.0
 40
31.37868090424085
100
AcDbArc
 50
319.6732331057955
 51
340.3267668942064
  0
ARC
  5
4B4
330
22
100
AcDbEntity
  8
_4-4_
  6
Continuous
 62
     2
100
AcDbCircle
 10
893.0211210598187
 20
560.8233386401585
 30
0.0
 40
29.81241592781809
100
AcDbArc
 50
58.39161865876501
 51
121.608381341235
  0
ARC
  5
4B5
330
22
100
AcDbEntity
  8
_4-4_
  6
Continuous
 62
     2
100
AcDbCircle
 10
924.2711210598187
 20
560.8233386401585
 30
0.0
 40
29.81241592781809
100
AcDbArc
 50
58.39161865876501
 51
121.608381341235
  0
LINE
  5
4B6
330
22
100
AcDbEntity
  8
_4-2_
  6
Continuous
 62
     7
100
AcDbLine
 10
939.8961210598187
 20
544.0555103193235
 30
0.0
 11
939.8961210598187
 21
190.562724526748
 31
0.0
  0
LINE
  5
4B7
330
22
100
AcDbEntity
  8
_4-3_
  6
Continuous
 62
     3
100
AcDbLine
 10
939.8961210598187
 20
190.562724526748
 30
0.0
 11
939.8961210598187
 21
174.8223521411198
 31
0.0
  0
ARC
  5
4B8
330
22
100
AcDbEntity
  8
_4-3_
  6
Continuous
 62
     3
100
AcDbCircle
 10
924.2711210598187
 20
200.212104374122
 30
0.0
 40
29.81241592781809
100
AcDbArc
 50
238.391618658765
 51
301.608381341235
  0
ARC
  5
4B9
330
22
100
AcDbEntity
  8
_4-3_
  6
Continuous
 62
     3
100
AcDbCircle
 10
893.0211210598187
 20
200.212104374122
 30
0.0
 40
29.81241592781809
100
AcDbArc
 50
238.391618658765
 51
301.608381341235
  0
LINE
  5
4BA
330
22
100
AcDbEntity
  8
_4-3_
  6
Continuous
 62
     3
100
AcDbLine
 10
877.3961210598187
 20
190.562724526748
 30
0.0
 11
877.3961210598187
 21
174.8223521411198
 31
0.0
  0
LINE
  5
4BB
330
22
100
AcDbEntity
  8
_4-2_
  6
Continuous
 62
     7
100
AcDbLine
 10
877.3961210598187
 20
544.0555103193235
 30
0.0
 11
877.3961210598187
 21
190.562724526748
 31
0.0
  0
LINE
  5
4BC
330
22
100
AcDbEntity
  8
_4-4_
  6
Continuous
 62
     2
100
AcDbLine
 10
871.7711210598178
 20
534.312724526748
 30
0.0
 11
871.7711210598178
 21
515.562724526748
 31
0.0
  0
LINE
  5
4BD
330
22
100
AcDbEntity
  8
_4-4_
  6
Continuous
 62
     2
100
AcDbLine
 10
877.3961210598187
 20
586.2130908731607
 30
0.0
 11
877.3961210598187
 21
544.0555103193235
 31
0.0
  0
TEXT
  5
4BE
330
22
100
AcDbEntity
  8
_4-B_
 62
     7
100
AcDbText
 10
1065.714979656133
 20
1031.011967027436
 30
0.0
 40
15.0
  1
40以上
100
AcDbText
  0
TEXT
  5
4BF
330
22
100
AcDbEntity
  8
_4-B_
 62
     7
100
AcDbText
 10
946.9649796561348
 20
366.011967027436
 30
0.0
 40
15.0
  1
40以上
100
AcDbText
  0
ENDSEC
  0
SECTION
  2
OBJECTS
  0
DICTIONARY
  5
C
330
0
100
AcDbDictionary
281
     1
  3
ACAD_COLOR
350
1B
  3
ACAD_GROUP
350
D
  3
ACAD_LAYOUT
350
19
  3
ACAD_MATERIAL
350
1A
  3
ACAD_MLINESTYLE
350
16
  3
ACAD_PLOTSETTINGS
350
18
  3
ACAD_PLOTSTYLENAME
350
E
  3
ACAD_TABLESTYLE
350
1C
  3
ACDBHEADERROUNDTRIPXREC
350
4C7
  3
AcDbVariableDictionary
350
4C2
  0
DICTIONARY
  5
1B
102
{ACAD_REACTORS
330
C
102
}
330
C
100
AcDbDictionary
281
     1
  0
DICTIONARY
  5
D
102
{ACAD_REACTORS
330
C
102
}
330
C
100
AcDbDictionary
281
     1
  0
DICTIONARY
  5
19
102
{ACAD_REACTORS
330
C
102
}
330
C
100
AcDbDictionary
281
     1
  3
Model
350
25
  3
レイアウト1
350
21
  0
DICTIONARY
  5
1A
102
{ACAD_REACTORS
330
C
102
}
330
C
100
AcDbDictionary
281
     1
  0
DICTIONARY
  5
16
102
{ACAD_REACTORS
330
C
102
}
330
C
100
AcDbDictionary
281
     1
  3
Standard
350
17
  0
DICTIONARY
  5
18
102
{ACAD_REACTORS
330
C
102
}
330
C
100
AcDbDictionary
281
     1
  0
ACDBDICTIONARYWDFLT
  5
E
102
{ACAD_REACTORS
330
C
102
}
330
C
100
AcDbDictionary
281
     1
  3
Normal
350
F
100
AcDbDictionaryWithDefault
340
F
  0
DICTIONARY
  5
1C
102
{ACAD_REACTORS
330
C
102
}
330
C
100
AcDbDictionary
281
     1
  3
Standard
350
1D
  0
DICTIONARY
  5
4C7
102
{ACAD_REACTORS
330
C
102
}
330
C
100
AcDbDictionary
281
     1
  0
DICTIONARY
  5
4C2
102
{ACAD_REACTORS
330
C
102
}
330
C
100
AcDbDictionary
281
     1
  3
CTABLESTYLE
350
4C3
  3
DIMASSOC
350
4C4
  3
PROJECTNAME
350
4C5
  0
LAYOUT
  5
25
102
{ACAD_XDICTIONARY
360
4CA
102
}
102
{ACAD_REACTORS
330
19
102
}
330
19
100
AcDbPlotSettings
  1

  2
PC1665
  4

  6

 40
0.0
 41
0.0
 42
0.0
 43
0.0
 44
0.0
 45
0.0
 46
0.0
 47
0.0
 48
0.0
 49
0.0
140
0.0
141
0.0
142
1.0
143
1.0
 70
  1712
 72
     0
 73
     0
 74
     0
  7

 75
     0
147
1.0
148
0.0
149
0.0
100
AcDbLayout
  1
Model
 70
     1
 71
     0
 10
0.0
 20
0.0
 11
12.0
 21
9.0
 12
0.0
 22
0.0
 32
0.0
 14
0.0
 24
0.0
 34
0.0
 15
0.0
 25
0.0
 35
0.0
146
0.0
 13
0.0
 23
0.0
 33
0.0
 16
1.0
 26
0.0
 36
0.0
 17
0.0
 27
1.0
 37
0.0
 76
     0
330
22
  0
LAYOUT
  5
21
102
{ACAD_XDICTIONARY
360
4C8
102
}
102
{ACAD_REACTORS
330
19
102
}
330
19
100
AcDbPlotSettings
  1

  2
PC1665
  4

  6

 40
0.0
 41
0.0
 42
0.0
 43
0.0
 44
0.0
 45
0.0
 46
0.0
 47
0.0
 48
0.0
 49
0.0
140
0.0
141
0.0
142
1.0
143
1.0
 70
   688
 72
     0
 73
     0
 74
     5
  7

 75
    16
147
1.0
148
0.0
149
0.0
100
AcDbLayout
  1
レイアウト1
 70
     1
 71
     1
 10
0.0
 20
0.0
 11
12.0
 21
9.0
 12
0.0
 22
0.0
 32
0.0
 14
1.000000000000000E+20
 24
1.000000000000000E+20
 34
1.000000000000000E+20
 15
-1.000000000000000E+20
 25
-1.000000000000000E+20
 35
-1.000000000000000E+20
146
0.0
 13
0.0
 23
0.0
 33
0.0
 16
1.0
 26
0.0
 36
0.0
 17
0.0
 27
1.0
 37
0.0
 76
     0
330
1E
  0
MLINESTYLE
  5
17
102
{ACAD_REACTORS
330
16
102
}
330
16
100
AcDbMlineStyle
  2
STANDARD
 70
     0
  3

 62
   256
 51
90.0
 52
90.0
 71
     2
 49
0.5
 62
   256
  6
BYLAYER
 49
-0.5
 62
   256
  6
BYLAYER
  0
ACDBPLACEHOLDER
  5
F
102
{ACAD_REACTORS
330
E
102
}
330
E
  0
TABLESTYLE
  5
1D
102
{ACAD_REACTORS
330
1C
102
}
330
1C
100
AcDbTableStyle
  3
Standard
 70
     0
 71
     0
 40
0.06
 41
0.06
280
     0
281
     0
  7
STANDARD
140
0.18
170
     2
 62
     0
 63
     7
283
     0
274
    -2
284
     1
 64
     0
275
    -2
285
     1
 65
     0
276
    -2
286
     1
 66
     0
277
    -2
287
     1
 67
     0
278
    -2
288
     1
 68
     0
279
    -2
289
     1
 69
     0
  7
STANDARD
140
0.25
170
     5
 62
     0
 63
     7
283
     0
274
    -2
284
     1
 64
     0
275
    -2
285
     1
 65
     0
276
    -2
286
     1
 66
     0
277
    -2
287
     1
 67
     0
278
    -2
288
     1
 68
     0
279
    -2
289
     1
 69
     0
  7
STANDARD
140
0.18
170
     5
 62
     0
 63
     7
283
     0
274
    -2
284
     1
 64
     0
275
    -2
285
     1
 65
     0
276
    -2
286
     1
 66
     0
277
    -2
287
     1
 67
     0
278
    -2
288
     1
 68
     0
279
    -2
289
     1
 69
     0
  0
DICTIONARYVAR
  5
4C3
102
{ACAD_REACTORS
330
4C2
102
}
330
4C2
100
DictionaryVariables
280
     0
  1
STANDARD
  0
DICTIONARYVAR
  5
4C4
102
{ACAD_REACTORS
330
4C2
102
}
330
4C2
100
DictionaryVariables
280
     0
  1
1
  0
DICTIONARYVAR
  5
4C5
102
{ACAD_REACTORS
330
4C2
102
}
330
4C2
100
DictionaryVariables
280
     0
  1

  0
DICTIONARY
  5
4CA
330
25
100
AcDbDictionary
280
     1
281
     1
  3
ACAD_XREC_ROUNDTRIP
360
4CB
  0
DICTIONARY
  5
4C8
330
21
100
AcDbDictionary
280
     1
281
     1
  3
ACAD_XREC_ROUNDTRIP
360
4C9
  0
XRECORD
  5
4CB
102
{ACAD_REACTORS
330
4CA
102
}
330
4CA
100
AcDbXrecord
280
     1
102
SHADEPLOT
 70
     0
102
SHADEPLOTRESLEVEL
 70
     2
102
SHADEPLOTCUSTOMDPI
 70
   300
  0
XRECORD
  5
4C9
102
{ACAD_REACTORS
330
4C8
102
}
330
4C8
100
AcDbXrecord
280
     1
102
SHADEPLOT
 70
     0
102
SHADEPLOTRESLEVEL
 70
     2
102
SHADEPLOTCUSTOMDPI
 70
   300
  0
ENDSEC
  0
EOF
