  0
SECTION
  2
HEADER
  9
$ACADVER
  1
AC1015
  9
$ACADMAINTVER
 70
    20
  9
$DWGCODEPAGE
  3
ANSI_932
  9
$INSBASE
 10
0.0
 20
0.0
 30
0.0
  9
$EXTMIN
 10
572.0718439343291
 20
39.15527694061757
 30
-0.0015258207003583
  9
$EXTMAX
 10
1572.148136599161
 20
1469.29710732109
 30
0.0000000349246037
  9
$LIMMIN
 10
0.0
 20
0.0
  9
$LIMMAX
 10
2100.0
 20
1485.0
  9
$ORTHOMODE
 70
     0
  9
$REGENMODE
 70
     1
  9
$FILLMODE
 70
     1
  9
$QTEXTMODE
 70
     0
  9
$MIRRTEXT
 70
     0
  9
$LTSCALE
 40
5.0
  9
$ATTMODE
 70
     1
  9
$TEXTSIZE
 40
0.2
  9
$TRACEWID
 40
0.05
  9
$TEXTSTYLE
  7
STANDARD
  9
$CLAYER
  8
0
  9
$CELTYPE
  6
CONTINUOUS
  9
$CECOLOR
 62
   256
  9
$CELTSCALE
 40
1.0
  9
$DISPSILH
 70
     0
  9
$DIMSCALE
 40
1.0
  9
$DIMASZ
 40
0.18
  9
$DIMEXO
 40
0.0625
  9
$DIMDLI
 40
0.38
  9
$DIMRND
 40
0.0
  9
$DIMDLE
 40
0.0
  9
$DIMEXE
 40
0.18
  9
$DIMTP
 40
0.0
  9
$DIMTM
 40
0.0
  9
$DIMTXT
 40
0.18
  9
$DIMCEN
 40
0.09
  9
$DIMTSZ
 40
0.0
  9
$DIMTOL
 70
     0
  9
$DIMLIM
 70
     0
  9
$DIMTIH
 70
     1
  9
$DIMTOH
 70
     1
  9
$DIMSE1
 70
     0
  9
$DIMSE2
 70
     0
  9
$DIMTAD
 70
     0
  9
$DIMZIN
 70
     0
  9
$DIMBLK
  1

  9
$DIMASO
 70
     1
  9
$DIMSHO
 70
     1
  9
$DIMPOST
  1

  9
$DIMAPOST
  1

  9
$DIMALT
 70
     0
  9
$DIMALTD
 70
     2
  9
$DIMALTF
 40
25.4
  9
$DIMLFAC
 40
1.0
  9
$DIMTOFL
 70
     0
  9
$DIMTVP
 40
0.0
  9
$DIMTIX
 70
     0
  9
$DIMSOXD
 70
     0
  9
$DIMSAH
 70
     0
  9
$DIMBLK1
  1

  9
$DIMBLK2
  1

  9
$DIMSTYLE
  2
Standard
  9
$DIMCLRD
 70
     0
  9
$DIMCLRE
 70
     0
  9
$DIMCLRT
 70
     0
  9
$DIMTFAC
 40
1.0
  9
$DIMGAP
 40
0.09
  9
$DIMJUST
 70
     0
  9
$DIMSD1
 70
     0
  9
$DIMSD2
 70
     0
  9
$DIMTOLJ
 70
     1
  9
$DIMTZIN
 70
     0
  9
$DIMALTZ
 70
     0
  9
$DIMALTTZ
 70
     0
  9
$DIMUPT
 70
     0
  9
$DIMDEC
 70
     4
  9
$DIMTDEC
 70
     4
  9
$DIMALTU
 70
     2
  9
$DIMALTTD
 70
     2
  9
$DIMTXSTY
  7
STANDARD
  9
$DIMAUNIT
 70
     0
  9
$DIMADEC
 70
     0
  9
$DIMALTRND
 40
0.0
  9
$DIMAZIN
 70
     0
  9
$DIMDSEP
 70
    46
  9
$DIMATFIT
 70
     3
  9
$DIMFRAC
 70
     0
  9
$DIMLDRBLK
  1

  9
$DIMLUNIT
 70
     2
  9
$DIMLWD
 70
    -2
  9
$DIMLWE
 70
    -2
  9
$DIMTMOVE
 70
     0
  9
$LUNITS
 70
     2
  9
$LUPREC
 70
     4
  9
$SKETCHINC
 40
0.1
  9
$FILLETRAD
 40
0.0
  9
$AUNITS
 70
     0
  9
$AUPREC
 70
     0
  9
$MENU
  1
.
  9
$ELEVATION
 40
0.0
  9
$PELEVATION
 40
0.0
  9
$THICKNESS
 40
0.0
  9
$LIMCHECK
 70
     0
  9
$CHAMFERA
 40
0.0
  9
$CHAMFERB
 40
0.0
  9
$CHAMFERC
 40
0.0
  9
$CHAMFERD
 40
0.0
  9
$SKPOLY
 70
     0
  9
$TDCREATE
 40
2454846.609654074
  9
$TDUCREATE
 40
2454846.234654074
  9
$TDUPDATE
 40
2454846.616557153
  9
$TDUUPDATE
 40
2454846.241557153
  9
$TDINDWG
 40
0.0069052546
  9
$TDUSRTIMER
 40
0.0069052546
  9
$USRTIMER
 70
     1
  9
$ANGBASE
 50
0.0
  9
$ANGDIR
 70
     0
  9
$PDMODE
 70
     0
  9
$PDSIZE
 40
0.0
  9
$PLINEWID
 40
0.0
  9
$SPLFRAME
 70
     0
  9
$SPLINETYPE
 70
     6
  9
$SPLINESEGS
 70
     8
  9
$HANDSEED
  5
38D
  9
$SURFTAB1
 70
     6
  9
$SURFTAB2
 70
     6
  9
$SURFTYPE
 70
     6
  9
$SURFU
 70
     6
  9
$SURFV
 70
     6
  9
$UCSBASE
  2

  9
$UCSNAME
  2

  9
$UCSORG
 10
0.0
 20
0.0
 30
0.0
  9
$UCSXDIR
 10
1.0
 20
0.0
 30
0.0
  9
$UCSYDIR
 10
0.0
 20
1.0
 30
0.0
  9
$UCSORTHOREF
  2

  9
$UCSORTHOVIEW
 70
     0
  9
$UCSORGTOP
 10
0.0
 20
0.0
 30
0.0
  9
$UCSORGBOTTOM
 10
0.0
 20
0.0
 30
0.0
  9
$UCSORGLEFT
 10
0.0
 20
0.0
 30
0.0
  9
$UCSORGRIGHT
 10
0.0
 20
0.0
 30
0.0
  9
$UCSORGFRONT
 10
0.0
 20
0.0
 30
0.0
  9
$UCSORGBACK
 10
0.0
 20
0.0
 30
0.0
  9
$PUCSBASE
  2

  9
$PUCSNAME
  2

  9
$PUCSORG
 10
0.0
 20
0.0
 30
0.0
  9
$PUCSXDIR
 10
1.0
 20
0.0
 30
0.0
  9
$PUCSYDIR
 10
0.0
 20
1.0
 30
0.0
  9
$PUCSORTHOREF
  2

  9
$PUCSORTHOVIEW
 70
     0
  9
$PUCSORGTOP
 10
0.0
 20
0.0
 30
0.0
  9
$PUCSORGBOTTOM
 10
0.0
 20
0.0
 30
0.0
  9
$PUCSORGLEFT
 10
0.0
 20
0.0
 30
0.0
  9
$PUCSORGRIGHT
 10
0.0
 20
0.0
 30
0.0
  9
$PUCSORGFRONT
 10
0.0
 20
0.0
 30
0.0
  9
$PUCSORGBACK
 10
0.0
 20
0.0
 30
0.0
  9
$USERI1
 70
     0
  9
$USERI2
 70
     0
  9
$USERI3
 70
     0
  9
$USERI4
 70
     0
  9
$USERI5
 70
     0
  9
$USERR1
 40
0.0
  9
$USERR2
 40
0.0
  9
$USERR3
 40
0.0
  9
$USERR4
 40
0.0
  9
$USERR5
 40
0.0
  9
$WORLDVIEW
 70
     1
  9
$SHADEDGE
 70
     3
  9
$SHADEDIF
 70
    70
  9
$TILEMODE
 70
     1
  9
$MAXACTVP
 70
    64
  9
$PINSBASE
 10
0.0
 20
0.0
 30
0.0
  9
$PLIMCHECK
 70
     0
  9
$PEXTMIN
 10
1.000000000000000E+20
 20
1.000000000000000E+20
 30
1.000000000000000E+20
  9
$PEXTMAX
 10
-1.000000000000000E+20
 20
-1.000000000000000E+20
 30
-1.000000000000000E+20
  9
$PLIMMIN
 10
0.0
 20
0.0
  9
$PLIMMAX
 10
12.0
 20
9.0
  9
$UNITMODE
 70
     0
  9
$VISRETAIN
 70
     1
  9
$PLINEGEN
 70
     0
  9
$PSLTSCALE
 70
     1
  9
$TREEDEPTH
 70
  3020
  9
$CMLSTYLE
  2
Standard
  9
$CMLJUST
 70
     0
  9
$CMLSCALE
 40
1.0
  9
$PROXYGRAPHICS
 70
     1
  9
$MEASUREMENT
 70
     0
  9
$CELWEIGHT
370
    -1
  9
$ENDCAPS
280
     0
  9
$JOINSTYLE
280
     0
  9
$LWDISPLAY
290
     0
  9
$INSUNITS
 70
     0
  9
$HYPERLINKBASE
  1

  9
$STYLESHEET
  1

  9
$XEDIT
290
     1
  9
$CEPSNTYPE
380
     0
  9
$PSTYLEMODE
290
     1
  9
$FINGERPRINTGUID
  2
{B11059DA-7859-4B15-9C6D-71103E2C8963}
  9
$VERSIONGUID
  2
{BDA82B0E-AA02-4218-A20E-32A2D5EF517F}
  9
$EXTNAMES
290
     1
  9
$PSVPSCALE
 40
0.0
  9
$OLESTARTUP
290
     0
  0
ENDSEC
  0
SECTION
  2
CLASSES
  0
CLASS
  1
ACDBDICTIONARYWDFLT
  2
AcDbDictionaryWithDefault
  3
ObjectDBX Classes
 90
        0
280
     0
281
     0
  0
CLASS
  1
TABLESTYLE
  2
AcDbTableStyle
  3
ObjectDBX Classes
 90
     2047
280
     0
281
     0
  0
CLASS
  1
DICTIONARYVAR
  2
AcDbDictionaryVar
  3
ObjectDBX Classes
 90
        0
280
     0
281
     0
  0
CLASS
  1
ACDBPLACEHOLDER
  2
AcDbPlaceHolder
  3
ObjectDBX Classes
 90
        0
280
     0
281
     0
  0
CLASS
  1
LAYOUT
  2
AcDbLayout
  3
ObjectDBX Classes
 90
        0
280
     0
281
     0
  0
ENDSEC
  0
SECTION
  2
TABLES
  0
TABLE
  2
VPORT
  5
8
330
0
100
AcDbSymbolTable
 70
     2
  0
VPORT
  5
387
330
8
100
AcDbSymbolTableRecord
100
AcDbViewportTableRecord
  2
*Active
 70
     0
 10
0.0
 20
0.0
 11
1.0
 21
1.0
 12
1072.109990266745
 22
754.2261921308539
 13
0.0
 23
0.0
 14
1.0
 24
1.0
 15
0.0
 25
0.0
 16
0.0
 26
0.0
 36
1.0
 17
0.0
 27
0.0
 37
0.0
 40
1443.123450625984
 41
2.069696969696969
 42
50.0
 43
0.0
 44
0.0
 50
0.0
 51
0.0
 71
     0
 72
   100
 73
     1
 74
     1
 75
     0
 76
     0
 77
     0
 78
     0
281
     0
 65
     1
110
0.0
120
0.0
130
0.0
111
1.0
121
0.0
131
0.0
112
0.0
122
1.0
132
0.0
 79
     0
146
0.0
  0
ENDTAB
  0
TABLE
  2
LTYPE
  5
5
330
0
100
AcDbSymbolTable
 70
    35
  0
LTYPE
  5
13
330
5
100
AcDbSymbolTableRecord
100
AcDbLinetypeTableRecord
  2
ByBlock
 70
     0
  3

 72
    65
 73
     0
 40
0.0
  0
LTYPE
  5
14
330
5
100
AcDbSymbolTableRecord
100
AcDbLinetypeTableRecord
  2
ByLayer
 70
     0
  3

 72
    65
 73
     0
 40
0.0
  0
LTYPE
  5
15
330
5
100
AcDbSymbolTableRecord
100
AcDbLinetypeTableRecord
  2
CONTINUOUS
 70
     0
  3
実線
 72
    65
 73
     0
 40
0.0
  0
LTYPE
  5
26
330
5
100
AcDbSymbolTableRecord
100
AcDbLinetypeTableRecord
  2
DASHED1
 70
     0
  3
--  --  --  --  --  --  --  --  
 72
    65
 73
     2
 40
2.5
 49
1.25
 74
     0
 49
-1.25
 74
     0
  0
LTYPE
  5
27
330
5
100
AcDbSymbolTableRecord
100
AcDbLinetypeTableRecord
  2
DASHED2
 70
     0
  3
----    ----    ----    ----    
 72
    65
 73
     2
 40
5.0
 49
2.5
 74
     0
 49
-2.5
 74
     0
  0
LTYPE
  5
28
330
5
100
AcDbSymbolTableRecord
100
AcDbLinetypeTableRecord
  2
DASHED3
 70
     0
  3
------  ------  ------  ------  
 72
    65
 73
     2
 40
5.0
 49
3.75
 74
     0
 49
-1.25
 74
     0
  0
LTYPE
  5
29
330
5
100
AcDbSymbolTableRecord
100
AcDbLinetypeTableRecord
  2
CENTER1
 70
     0
  3
----- - ----- - ----- - ----- - 
 72
    65
 73
     4
 40
10.0
 49
6.25
 74
     0
 49
-1.25
 74
     0
 49
1.25
 74
     0
 49
-1.25
 74
     0
  0
LTYPE
  5
2A
330
5
100
AcDbSymbolTableRecord
100
AcDbLinetypeTableRecord
  2
CENTER2
 70
     0
  3
----------  --  ----------  --  
 72
    65
 73
     4
 40
20.0
 49
12.5
 74
     0
 49
-2.5
 74
     0
 49
2.5
 74
     0
 49
-2.5
 74
     0
  0
LTYPE
  5
2B
330
5
100
AcDbSymbolTableRecord
100
AcDbLinetypeTableRecord
  2
PHANTOM1
 70
     0
  3
--- - - --- - - --- - - --- - - 
 72
    65
 73
     6
 40
10.0
 49
3.25
 74
     0
 49
-1.25
 74
     0
 49
1.25
 74
     0
 49
-1.25
 74
     0
 49
1.25
 74
     0
 49
-1.25
 74
     0
  0
LTYPE
  5
2C
330
5
100
AcDbSymbolTableRecord
100
AcDbLinetypeTableRecord
  2
PHANTOM2
 70
     0
  3
--------  -  -  --------  -  -  
 72
    65
 73
     6
 40
20.0
 49
10.0
 74
     0
 49
-2.5
 74
     0
 49
1.25
 74
     0
 49
-2.5
 74
     0
 49
1.25
 74
     0
 49
-2.5
 74
     0
  0
LTYPE
  5
2D
330
5
100
AcDbSymbolTableRecord
100
AcDbLinetypeTableRecord
  2
DOT
 70
     0
  3
-   -   -   -   -   -   -   -   
 72
    65
 73
     2
 40
2.5
 49
0.625
 74
     0
 49
-1.875
 74
     0
  0
LTYPE
  5
2E
330
5
100
AcDbSymbolTableRecord
100
AcDbLinetypeTableRecord
  2
DUMMY
 70
     0
  3
ダミー
 72
    65
 73
     0
 40
0.0
  0
LTYPE
  5
2F
330
5
100
AcDbSymbolTableRecord
100
AcDbLinetypeTableRecord
  2
RAND1
 70
     0
  3
ランダム線1
 72
    65
 73
     4
 40
10.0
 49
1.0
 74
     0
 49
-2.0
 74
     0
 49
3.0
 74
     0
 49
-4.0
 74
     0
  0
LTYPE
  5
30
330
5
100
AcDbSymbolTableRecord
100
AcDbLinetypeTableRecord
  2
RAND2
 70
     0
  3
ランダム線2
 72
    65
 73
     4
 40
14.0
 49
2.0
 74
     0
 49
-3.0
 74
     0
 49
4.0
 74
     0
 49
-5.0
 74
     0
  0
LTYPE
  5
31
330
5
100
AcDbSymbolTableRecord
100
AcDbLinetypeTableRecord
  2
RAND3
 70
     0
  3
ランダム線3
 72
    65
 73
     4
 40
18.0
 49
3.0
 74
     0
 49
-4.0
 74
     0
 49
5.0
 74
     0
 49
-6.0
 74
     0
  0
LTYPE
  5
32
330
5
100
AcDbSymbolTableRecord
100
AcDbLinetypeTableRecord
  2
RAND4
 70
     0
  3
ランダム線4
 72
    65
 73
     4
 40
22.0
 49
4.0
 74
     0
 49
-5.0
 74
     0
 49
6.0
 74
     0
 49
-7.0
 74
     0
  0
LTYPE
  5
33
330
5
100
AcDbSymbolTableRecord
100
AcDbLinetypeTableRecord
  2
RAND5
 70
     0
  3
ランダム線5
 72
    65
 73
     4
 40
26.0
 49
5.0
 74
     0
 49
-6.0
 74
     0
 49
7.0
 74
     0
 49
-8.0
 74
     0
  0
LTYPE
  5
34
330
5
100
AcDbSymbolTableRecord
100
AcDbLinetypeTableRecord
  2
LONG1
 70
     0
  3
----------  --  ----------  --  
 72
    65
 73
     4
 40
40.0
 49
32.5
 74
     0
 49
-2.5
 74
     0
 49
2.5
 74
     0
 49
-2.5
 74
     0
  0
LTYPE
  5
35
330
5
100
AcDbSymbolTableRecord
100
AcDbLinetypeTableRecord
  2
LONG2
 70
     0
  3
--------  -  -  --------  -  -  
 72
    65
 73
     6
 40
40.0
 49
30.0
 74
     0
 49
-2.5
 74
     0
 49
1.25
 74
     0
 49
-2.5
 74
     0
 49
1.25
 74
     0
 49
-2.5
 74
     0
  0
LTYPE
  5
36
330
5
100
AcDbSymbolTableRecord
100
AcDbLinetypeTableRecord
  2
LONG3
 70
     0
  3
+++++++++++++++..+++++++++++++++
 72
    65
 73
     2
 40
40.0
 49
37.5
 74
     0
 49
-2.5
 74
     0
  0
LTYPE
  5
37
330
5
100
AcDbSymbolTableRecord
100
AcDbLinetypeTableRecord
  2
LONG4
 70
     0
  3
+++++++++++++++..+++++++++++++++
 72
    65
 73
     2
 40
80.0
 49
75.0
 74
     0
 49
-5.0
 74
     0
  0
LTYPE
  5
38
330
5
100
AcDbSymbolTableRecord
100
AcDbLinetypeTableRecord
  2
LONG5
 70
     0
  3
----------  --  ----------  --  
 72
    65
 73
     4
 40
60.0
 49
37.5
 74
     0
 49
-7.5
 74
     0
 49
7.5
 74
     0
 49
-7.5
 74
     0
  0
LTYPE
  5
39
330
5
100
AcDbSymbolTableRecord
100
AcDbLinetypeTableRecord
  2
DASHED
 70
     0
  3
-------   -------------   ------
 72
    65
 73
     2
 40
7.5
 49
6.0
 74
     0
 49
-1.5
 74
     0
  0
LTYPE
  5
3A
330
5
100
AcDbSymbolTableRecord
100
AcDbLinetypeTableRecord
  2
DASHED_SPACED
 70
     0
  3
----        --------        ----
 72
    65
 73
     2
 40
12.0
 49
6.0
 74
     0
 49
-6.0
 74
     0
  0
LTYPE
  5
3B
330
5
100
AcDbSymbolTableRecord
100
AcDbLinetypeTableRecord
  2
LONG_DASHED_DOTTED
 70
     0
  3
------------- --- --------------
 72
    65
 73
     4
 40
15.25
 49
12.0
 74
     0
 49
-1.5
 74
     0
 49
0.25
 74
     0
 49
-1.5
 74
     0
  0
LTYPE
  5
3C
330
5
100
AcDbSymbolTableRecord
100
AcDbLinetypeTableRecord
  2
LONG_DASHED_DOUBLE-DOTTED
 70
     0
  3
----------- --- --- ------------
 72
    65
 73
     6
 40
17.0
 49
12.0
 74
     0
 49
-1.5
 74
     0
 49
0.25
 74
     0
 49
-1.5
 74
     0
 49
0.25
 74
     0
 49
-1.5
 74
     0
  0
LTYPE
  5
3D
330
5
100
AcDbSymbolTableRecord
100
AcDbLinetypeTableRecord
  2
LONG_DASHED_TRIPLICATE-DOTTED
 70
     0
  3
--------- --- --- --- ----------
 72
    65
 73
     8
 40
18.75
 49
12.0
 74
     0
 49
-1.5
 74
     0
 49
0.25
 74
     0
 49
-1.5
 74
     0
 49
0.25
 74
     0
 49
-1.5
 74
     0
 49
0.25
 74
     0
 49
-1.5
 74
     0
  0
LTYPE
  5
3E
330
5
100
AcDbSymbolTableRecord
100
AcDbLinetypeTableRecord
  2
DOTTED
 70
     0
  3
   -       -       -       -    
 72
    65
 73
     2
 40
1.75
 49
0.25
 74
     0
 49
-1.5
 74
     0
  0
LTYPE
  5
3F
330
5
100
AcDbSymbolTableRecord
100
AcDbLinetypeTableRecord
  2
CHAIN
 70
     0
  3
-------------- -- --------------
 72
    65
 73
     4
 40
18.5
 49
12.0
 74
     0
 49
-1.5
 74
     0
 49
3.5
 74
     0
 49
-1.5
 74
     0
  0
LTYPE
  5
40
330
5
100
AcDbSymbolTableRecord
100
AcDbLinetypeTableRecord
  2
CHAIN_DOUBLE_DASH
 70
     0
  3
------------ -- -- -------------
 72
    65
 73
     6
 40
23.5
 49
12.0
 74
     0
 49
-1.5
 74
     0
 49
3.5
 74
     0
 49
-1.5
 74
     0
 49
3.5
 74
     0
 49
-1.5
 74
     0
  0
LTYPE
  5
41
330
5
100
AcDbSymbolTableRecord
100
AcDbLinetypeTableRecord
  2
DASHED_DOTTED
 70
     0
  3
-----------     -     ----------
 72
    65
 73
     4
 40
9.25
 49
6.0
 74
     0
 49
-1.5
 74
     0
 49
0.25
 74
     0
 49
-1.5
 74
     0
  0
LTYPE
  5
42
330
5
100
AcDbSymbolTableRecord
100
AcDbLinetypeTableRecord
  2
DOUBLE-DASHED_DOTTED
 70
     0
  3
------   -----------   -   -----
 72
    65
 73
     6
 40
16.75
 49
6.0
 74
     0
 49
-1.5
 74
     0
 49
6.0
 74
     0
 49
-1.5
 74
     0
 49
0.25
 74
     0
 49
-1.5
 74
     0
  0
LTYPE
  5
43
330
5
100
AcDbSymbolTableRecord
100
AcDbLinetypeTableRecord
  2
DASHED_DOUBLE-DOTTED
 70
     0
  3
---------    -    -    ---------
 72
    65
 73
     6
 40
11.0
 49
6.0
 74
     0
 49
-1.5
 74
     0
 49
0.25
 74
     0
 49
-1.5
 74
     0
 49
0.25
 74
     0
 49
-1.5
 74
     0
  0
LTYPE
  5
44
330
5
100
AcDbSymbolTableRecord
100
AcDbLinetypeTableRecord
  2
DOUBLE-DASHED_DOUBLE-DOTTED
 70
     0
  3
-----   ---------   -   -   ----
 72
    65
 73
     8
 40
18.5
 49
6.0
 74
     0
 49
-1.5
 74
     0
 49
6.0
 74
     0
 49
-1.5
 74
     0
 49
0.25
 74
     0
 49
-1.5
 74
     0
 49
0.25
 74
     0
 49
-1.5
 74
     0
  0
LTYPE
  5
45
330
5
100
AcDbSymbolTableRecord
100
AcDbLinetypeTableRecord
  2
DASHED_TRIPLICATE-DOTTED
 70
     0
  3
-------    -    -    -    ------
 72
    65
 73
     8
 40
12.75
 49
6.0
 74
     0
 49
-1.5
 74
     0
 49
0.25
 74
     0
 49
-1.5
 74
     0
 49
0.25
 74
     0
 49
-1.5
 74
     0
 49
0.25
 74
     0
 49
-1.5
 74
     0
  0
LTYPE
  5
46
330
5
100
AcDbSymbolTableRecord
100
AcDbLinetypeTableRecord
  2
DOUBLE-DASHED_TRIPLICATE-DOTTED
 70
     0
  3
-----  ---------  -  -  -  -----
 72
    65
 73
    10
 40
20.25
 49
6.0
 74
     0
 49
-1.5
 74
     0
 49
6.0
 74
     0
 49
-1.5
 74
     0
 49
0.25
 74
     0
 49
-1.5
 74
     0
 49
0.25
 74
     0
 49
-1.5
 74
     0
 49
0.25
 74
     0
 49
-1.5
 74
     0
  0
LTYPE
  5
47
330
5
100
AcDbSymbolTableRecord
100
AcDbLinetypeTableRecord
  2
UNDEFINED
 70
     0
  3
--------------------------------
 72
    65
 73
     0
 40
0.0
  0
ENDTAB
  0
TABLE
  2
LAYER
  5
2
330
0
100
AcDbSymbolTable
 70
    16
  0
LAYER
  5
10
330
2
100
AcDbSymbolTableRecord
100
AcDbLayerTableRecord
  2
0
 70
     0
 62
     7
  6
CONTINUOUS
370
    -3
390
F
  0
LAYER
  5
49
330
2
100
AcDbSymbolTableRecord
100
AcDbLayerTableRecord
  2
_4-2_
 70
     0
 62
     7
  6
CONTINUOUS
370
    -3
390
F
  0
LAYER
  5
4A
330
2
100
AcDbSymbolTableRecord
100
AcDbLayerTableRecord
  2
_4-3_
 70
     0
 62
     7
  6
CONTINUOUS
370
    -3
390
F
  0
LAYER
  5
4B
330
2
100
AcDbSymbolTableRecord
100
AcDbLayerTableRecord
  2
_4-4_
 70
     0
 62
     7
  6
CONTINUOUS
370
    -3
390
F
  0
LAYER
  5
4C
330
2
100
AcDbSymbolTableRecord
100
AcDbLayerTableRecord
  2
_4-6_
 70
     0
 62
     7
  6
CONTINUOUS
370
    -3
390
F
  0
LAYER
  5
4D
330
2
100
AcDbSymbolTableRecord
100
AcDbLayerTableRecord
  2
_4-7_
 70
     0
 62
     7
  6
CONTINUOUS
370
    -3
390
F
  0
LAYER
  5
4E
330
2
100
AcDbSymbolTableRecord
100
AcDbLayerTableRecord
  2
_4-A_
 70
     0
 62
     7
  6
CONTINUOUS
370
    -3
390
F
  0
LAYER
  5
4F
330
2
100
AcDbSymbolTableRecord
100
AcDbLayerTableRecord
  2
_4-B_
 70
     0
 62
     7
  6
CONTINUOUS
370
    -3
390
F
  0
LAYER
  5
50
330
2
100
AcDbSymbolTableRecord
100
AcDbLayerTableRecord
  2
_4-D_
 70
     0
 62
     7
  6
CONTINUOUS
370
    -3
390
F
  0
LAYER
  5
51
330
2
100
AcDbSymbolTableRecord
100
AcDbLayerTableRecord
  2
_4-E_
 70
     0
 62
     7
  6
CONTINUOUS
370
    -3
390
F
  0
LAYER
  5
52
330
2
100
AcDbSymbolTableRecord
100
AcDbLayerTableRecord
  2
_F-2_
 70
     0
 62
     7
  6
CONTINUOUS
370
    -3
390
F
  0
LAYER
  5
53
330
2
100
AcDbSymbolTableRecord
100
AcDbLayerTableRecord
  2
_F-5_
 70
     0
 62
     7
  6
CONTINUOUS
370
    -3
390
F
  0
LAYER
  5
54
330
2
100
AcDbSymbolTableRecord
100
AcDbLayerTableRecord
  2
_F-7_
 70
     0
 62
     7
  6
CONTINUOUS
370
    -3
390
F
  0
LAYER
  5
55
330
2
100
AcDbSymbolTableRecord
100
AcDbLayerTableRecord
  2
_F-8_
 70
     0
 62
     7
  6
CONTINUOUS
370
    -3
390
F
  0
LAYER
  5
56
330
2
100
AcDbSymbolTableRecord
100
AcDbLayerTableRecord
  2
_F-A_
 70
     0
 62
     7
  6
CONTINUOUS
370
    -3
390
F
  0
LAYER
  5
57
330
2
100
AcDbSymbolTableRecord
100
AcDbLayerTableRecord
  2
ADD_LINE
 70
     0
 62
     7
  6
CONTINUOUS
370
    -3
390
F
  0
ENDTAB
  0
TABLE
  2
STYLE
  5
3
330
0
100
AcDbSymbolTable
 70
     2
  0
STYLE
  5
11
330
3
100
AcDbSymbolTableRecord
100
AcDbTextStyleTableRecord
  2
STANDARD
 70
     0
 40
0.0
 41
1.0
 50
0.0
 71
     0
 42
0.2
  3
txt
  4
bigfont.shx
  0
STYLE
  5
48
330
3
100
AcDbSymbolTableRecord
100
AcDbTextStyleTableRecord
  2
TATEGAKI
 70
     4
 40
0.0
 41
1.0
 50
0.0
 71
     0
 42
1.0
  3
txt
  4
bigfont.shx
  0
ENDTAB
  0
TABLE
  2
VIEW
  5
6
330
0
100
AcDbSymbolTable
 70
     0
  0
ENDTAB
  0
TABLE
  2
UCS
  5
7
330
0
100
AcDbSymbolTable
 70
     0
  0
ENDTAB
  0
TABLE
  2
APPID
  5
9
330
0
100
AcDbSymbolTable
 70
     1
  0
APPID
  5
12
330
9
100
AcDbSymbolTableRecord
100
AcDbRegAppTableRecord
  2
ACAD
 70
     0
  0
ENDTAB
  0
TABLE
  2
DIMSTYLE
  5
A
330
0
100
AcDbSymbolTable
 70
     1
100
AcDbDimStyleTable
 71
     0
  0
DIMSTYLE
105
381
330
A
100
AcDbSymbolTableRecord
100
AcDbDimStyleTableRecord
  2
Standard
 70
     0
340
11
  0
ENDTAB
  0
TABLE
  2
BLOCK_RECORD
  5
1
330
0
100
AcDbSymbolTable
 70
     0
  0
BLOCK_RECORD
  5
22
330
1
100
AcDbSymbolTableRecord
100
AcDbBlockTableRecord
  2
*Model_Space
340
25
  0
BLOCK_RECORD
  5
1E
330
1
100
AcDbSymbolTableRecord
100
AcDbBlockTableRecord
  2
*Paper_Space
340
21
  0
ENDTAB
  0
ENDSEC
  0
SECTION
  2
BLOCKS
  0
BLOCK
  5
23
330
22
100
AcDbEntity
  8
0
100
AcDbBlockBegin
  2
*Model_Space
 70
     0
 10
0.0
 20
0.0
 30
0.0
  3
*Model_Space
  1

  0
ENDBLK
  5
24
330
22
100
AcDbEntity
  8
0
100
AcDbBlockEnd
  0
BLOCK
  5
1F
330
1E
100
AcDbEntity
 67
     1
  8
0
100
AcDbBlockBegin
  2
*Paper_Space
 70
     0
 10
0.0
 20
0.0
 30
0.0
  3
*Paper_Space
  1

  0
ENDBLK
  5
20
330
1E
100
AcDbEntity
 67
     1
  8
0
100
AcDbBlockEnd
  0
ENDSEC
  0
SECTION
  2
ENTITIES
  0
LINE
  5
5B
330
22
100
AcDbEntity
  8
ADD_LINE
  6
DOT
 62
   136
100
AcDbLine
 10
572.1101733473992
 20
1469.196711454856
 30
0.0
 11
1572.1101733474
 21
1469.196711454856
 31
0.0
  0
LINE
  5
5C
330
22
100
AcDbEntity
  8
ADD_LINE
  6
DOT
 62
   136
100
AcDbLine
 10
572.1101733473992
 20
1469.196711454856
 30
0.0
 11
572.1101733473992
 21
39.19671145485495
 31
0.0
  0
LINE
  5
5D
330
22
100
AcDbEntity
  8
ADD_LINE
  6
DOT
 62
   136
100
AcDbLine
 10
1572.1101733474
 20
1469.196711454856
 30
0.0
 11
1572.1101733474
 21
39.19671145485495
 31
0.0
  0
LINE
  5
5E
330
22
100
AcDbEntity
  8
ADD_LINE
  6
DOT
 62
   136
100
AcDbLine
 10
1572.1101733474
 20
39.19671145485495
 30
0.0
 11
572.110173347397
 21
39.19671145485495
 31
0.0
  0
LINE
  5
5F
330
22
100
AcDbEntity
  8
ADD_LINE
  6
DOT
 62
   136
100
AcDbLine
 10
672.1101733474004
 20
799.1967114548555
 30
0.0
 11
1472.1101733474
 21
799.1967114548555
 31
0.0
  0
LINE
  5
60
330
22
100
AcDbEntity
  8
ADD_LINE
  6
DOT
 62
   136
100
AcDbLine
 10
692.1101733474004
 20
819.1967114548555
 30
0.0
 11
692.1101733474004
 21
779.1967114548555
 31
0.0
  0
LINE
  5
61
330
22
100
AcDbEntity
  8
ADD_LINE
  6
DOT
 62
   136
100
AcDbLine
 10
977.1101733474004
 20
819.1967114548555
 30
0.0
 11
977.1101733474004
 21
779.1967114548555
 31
0.0
  0
LINE
  5
62
330
22
100
AcDbEntity
  8
ADD_LINE
  6
DOT
 62
   136
100
AcDbLine
 10
827.1101733474004
 20
819.1967114548555
 30
0.0
 11
827.1101733474004
 21
779.1967114548555
 31
0.0
  0
LINE
  5
63
330
22
100
AcDbEntity
  8
ADD_LINE
  6
DOT
 62
   136
100
AcDbLine
 10
1357.1101733474
 20
819.1967114548555
 30
0.0
 11
1357.1101733474
 21
779.1967114548555
 31
0.0
  0
LINE
  5
64
330
22
100
AcDbEntity
  8
ADD_LINE
  6
DOT
 62
   136
100
AcDbLine
 10
1252.1101733474
 20
819.1967114548555
 30
0.0
 11
1252.1101733474
 21
779.1967114548555
 31
0.0
  0
LINE
  5
65
330
22
100
AcDbEntity
  8
_F-7_
  6
Continuous
 62
     1
100
AcDbLine
 10
672.1101733474004
 20
1369.196711454855
 30
0.0
 11
1472.1101733474
 21
1369.196711454855
 31
0.0
  0
LINE
  5
66
330
22
100
AcDbEntity
  8
_F-7_
  6
Continuous
 62
     1
100
AcDbLine
 10
672.1101733474004
 20
779.1967114548555
 30
0.0
 11
1472.1101733474
 21
779.1967114548555
 31
0.0
  0
LINE
  5
67
330
22
100
AcDbEntity
  8
_F-5_
  6
Continuous
 62
     6
100
AcDbLine
 10
672.1101733474004
 20
819.1967114548555
 30
0.0
 11
1472.1101733474
 21
819.1967114548555
 31
0.0
  0
LINE
  5
68
330
22
100
AcDbEntity
  8
_F-2_
  6
Continuous
 62
     7
100
AcDbLine
 10
962.1101733474004
 20
819.1967114548555
 30
0.0
 11
962.1101733474004
 21
779.1967114548555
 31
0.0
  0
TEXT
  5
69
330
22
100
AcDbEntity
  8
_F-A_
 62
     7
100
AcDbText
 10
692.1101733474004
 20
789.1967114548555
 30
0.0
 40
20.0
  1
１１０仕様
100
AcDbText
  0
LINE
  5
6A
330
22
100
AcDbEntity
  8
_F-5_
  6
Continuous
 62
     6
100
AcDbLine
 10
812.1101733474004
 20
819.1967114548555
 30
0.0
 11
812.1101733474004
 21
779.1967114548555
 31
0.0
  0
LINE
  5
6B
330
22
100
AcDbEntity
  8
_F-7_
  6
Continuous
 62
     1
100
AcDbLine
 10
672.1101733474004
 20
1369.196711454855
 30
0.0
 11
672.1101733474004
 21
779.1967114548555
 31
0.0
  0
LINE
  5
6C
330
22
100
AcDbEntity
  8
_F-7_
  6
Continuous
 62
     1
100
AcDbLine
 10
1472.1101733474
 20
1369.196711454855
 30
0.0
 11
1472.1101733474
 21
779.1967114548555
 31
0.0
  0
LINE
  5
6D
330
22
100
AcDbEntity
  8
_F-5_
  6
Continuous
 62
     6
100
AcDbLine
 10
809.6101733474004
 20
819.1967114548555
 30
0.0
 11
809.6101733474004
 21
779.1967114548555
 31
0.0
  0
TEXT
  5
6E
330
22
100
AcDbEntity
  8
_F-A_
 62
     7
100
AcDbText
 10
977.1101733474004
 20
789.1967114548555
 30
0.0
 40
17.5
  1
部位：壁部
100
AcDbText
  0
TEXT
  5
6F
330
22
100
AcDbEntity
  8
_F-A_
 62
     7
100
AcDbText
 10
827.1101733474004
 20
789.1967114548555
 30
0.0
 40
17.5
  1
下地：ＲＣ
100
AcDbText
  0
LINE
  5
70
330
22
100
AcDbEntity
  8
_F-2_
  6
Continuous
 62
     7
100
AcDbLine
 10
1342.1101733474
 20
819.1967114548555
 30
0.0
 11
1342.1101733474
 21
779.1967114548555
 31
0.0
  0
LINE
  5
71
330
22
100
AcDbEntity
  8
_F-2_
  6
Continuous
 62
     7
100
AcDbLine
 10
1237.1101733474
 20
819.1967114548555
 30
0.0
 11
1237.1101733474
 21
779.1967114548555
 31
0.0
  0
TEXT
  5
72
330
22
100
AcDbEntity
  8
_F-A_
 62
     7
100
AcDbText
 10
1357.1101733474
 20
789.1967114548555
 30
0.0
 40
15.0
  1
図番
100
AcDbText
  0
TEXT
  5
73
330
22
100
AcDbEntity
  8
_F-A_
 62
     7
100
AcDbText
 10
1252.1101733474
 20
789.1967114548555
 30
0.0
 40
15.0
  1
Ｓ＝１：8
100
AcDbText
  0
TEXT
  5
74
330
22
100
AcDbEntity
  8
_F-A_
 62
     7
100
AcDbText
 10
1403.527842071506
 20
789.1967114548529
 30
0.0
 40
15.0
  1
１－１８
100
AcDbText
  0
LINE
  5
75
330
22
100
AcDbEntity
  8
_4-2_
  6
Continuous
 62
     7
100
AcDbLine
 10
1016.37793029769
 20
944.196711454853
 30
0.0
 11
1016.38931703989
 21
944.2785270465305
 31
0.0
  0
LINE
  5
76
330
22
100
AcDbEntity
  8
_4-2_
  6
Continuous
 62
     7
100
AcDbLine
 10
1016.38931703989
 20
944.2785270465305
 30
0.0
 11
1016.409983777179
 21
944.419198255918
 31
0.0
  0
LINE
  5
77
330
22
100
AcDbEntity
  8
_4-2_
  6
Continuous
 62
     7
100
AcDbLine
 10
1016.409983777179
 20
944.419198255918
 30
0.0
 11
1016.433523912095
 21
944.5587856998297
 31
0.0
  0
LINE
  5
78
330
22
100
AcDbEntity
  8
_4-2_
  6
Continuous
 62
     7
100
AcDbLine
 10
1016.433523912095
 20
944.5587856998297
 30
0.0
 11
1016.461756050736
 21
944.6966034507495
 31
0.0
  0
LINE
  5
79
330
22
100
AcDbEntity
  8
_4-2_
  6
Continuous
 62
     7
100
AcDbLine
 10
1016.461756050736
 20
944.6966034507495
 30
0.0
 11
1016.496498799192
 21
944.8319655811584
 31
0.0
  0
LINE
  5
7A
330
22
100
AcDbEntity
  8
_4-2_
  6
Continuous
 62
     7
100
AcDbLine
 10
1016.496498799192
 20
944.8319655811584
 30
0.0
 11
1016.53957076356
 21
944.9641861635468
 31
0.0
  0
LINE
  5
7B
330
22
100
AcDbEntity
  8
_4-2_
  6
Continuous
 62
     7
100
AcDbLine
 10
1016.53957076356
 20
944.9641861635468
 30
0.0
 11
1016.569085574993
 21
945.0391643529149
 31
0.0
  0
LINE
  5
7C
330
22
100
AcDbEntity
  8
_4-2_
  6
Continuous
 62
     7
100
AcDbLine
 10
1016.569085574993
 20
945.0391643529149
 30
0.0
 11
1016.594673738281
 21
945.0967373776594
 31
0.0
  0
LINE
  5
7D
330
22
100
AcDbEntity
  8
_4-2_
  6
Continuous
 62
     7
100
AcDbLine
 10
1016.594673738281
 20
945.0967373776594
 30
0.0
 11
1016.643683221209
 21
945.1940588170435
 31
0.0
  0
LINE
  5
7E
330
22
100
AcDbEntity
  8
_4-2_
  6
Continuous
 62
     7
100
AcDbLine
 10
1016.643683221209
 20
945.1940588170435
 30
0.0
 11
1016.698125105161
 21
945.2890610688424
 31
0.0
  0
LINE
  5
7F
330
22
100
AcDbEntity
  8
_4-2_
  6
Continuous
 62
     7
100
AcDbLine
 10
1016.698125105161
 20
945.2890610688424
 30
0.0
 11
1016.757115723381
 21
945.3819063912185
 31
0.0
  0
LINE
  5
80
330
22
100
AcDbEntity
  8
_4-2_
  6
Continuous
 62
     7
100
AcDbLine
 10
1016.757115723381
 20
945.3819063912185
 30
0.0
 11
1016.819771409094
 21
945.4727570423273
 31
0.0
  0
LINE
  5
81
330
22
100
AcDbEntity
  8
_4-2_
  6
Continuous
 62
     7
100
AcDbLine
 10
1016.819771409094
 20
945.4727570423273
 30
0.0
 11
1016.885208495542
 21
945.5617752803247
 31
0.0
  0
LINE
  5
82
330
22
100
AcDbEntity
  8
_4-2_
  6
Continuous
 62
     7
100
AcDbLine
 10
1016.885208495542
 20
945.5617752803247
 30
0.0
 11
1016.924088232842
 21
945.6126301848254
 31
0.0
  0
LINE
  5
83
330
22
100
AcDbEntity
  8
_4-2_
  6
Continuous
 62
     7
100
AcDbLine
 10
1016.924088232842
 20
945.6126301848254
 30
0.0
 11
1016.970473404051
 21
945.671807430328
 31
0.0
  0
LINE
  5
84
330
22
100
AcDbEntity
  8
_4-2_
  6
Continuous
 62
     7
100
AcDbLine
 10
1016.970473404051
 20
945.671807430328
 30
0.0
 11
1017.051863991617
 21
945.7722566764909
 31
0.0
  0
LINE
  5
85
330
22
100
AcDbEntity
  8
_4-2_
  6
Continuous
 62
     7
100
AcDbLine
 10
1017.051863991617
 20
945.7722566764909
 30
0.0
 11
1017.134896378629
 21
945.8709234029873
 31
0.0
  0
LINE
  5
86
330
22
100
AcDbEntity
  8
_4-2_
  6
Continuous
 62
     7
100
AcDbLine
 10
1017.134896378629
 20
945.8709234029873
 30
0.0
 11
1017.219395214961
 21
945.9680612114032
 31
0.0
  0
LINE
  5
87
330
22
100
AcDbEntity
  8
_4-2_
  6
Continuous
 62
     7
100
AcDbLine
 10
1017.219395214961
 20
945.9680612114032
 30
0.0
 11
1017.305185150475
 21
946.0639237033312
 31
0.0
  0
LINE
  5
88
330
22
100
AcDbEntity
  8
_4-2_
  6
Continuous
 62
     7
100
AcDbLine
 10
1017.305185150475
 20
946.0639237033312
 30
0.0
 11
1017.392090835042
 21
946.1587644803664
 31
0.0
  0
LINE
  5
89
330
22
100
AcDbEntity
  8
_4-2_
  6
Continuous
 62
     7
100
AcDbLine
 10
1017.392090835042
 20
946.1587644803664
 30
0.0
 11
1017.442938271237
 21
946.2134039134951
 31
0.0
  0
LINE
  5
8A
330
22
100
AcDbEntity
  8
_4-2_
  6
Continuous
 62
     7
100
AcDbLine
 10
1017.442938271237
 20
946.2134039134951
 30
0.0
 11
1017.496460192122
 21
946.2703227724949
 31
0.0
  0
LINE
  5
8B
330
22
100
AcDbEntity
  8
_4-2_
  6
Continuous
 62
     7
100
AcDbLine
 10
1017.496460192122
 20
946.2703227724949
 30
0.0
 11
1017.589708541063
 21
946.3676363655139
 31
0.0
  0
LINE
  5
8C
330
22
100
AcDbEntity
  8
_4-2_
  6
Continuous
 62
     7
100
AcDbLine
 10
1017.589708541063
 20
946.3676363655139
 30
0.0
 11
1017.684552424545
 21
946.4634776020144
 31
0.0
  0
LINE
  5
8D
330
22
100
AcDbEntity
  8
_4-2_
  6
Continuous
 62
     7
100
AcDbLine
 10
1017.684552424545
 20
946.4634776020144
 30
0.0
 11
1017.781420599234
 21
946.557344876339
 31
0.0
  0
LINE
  5
8E
330
22
100
AcDbEntity
  8
_4-2_
  6
Continuous
 62
     7
100
AcDbLine
 10
1017.781420599234
 20
946.557344876339
 30
0.0
 11
1017.8807418218
 21
946.6487365828397
 31
0.0
  0
LINE
  5
8F
330
22
100
AcDbEntity
  8
_4-2_
  6
Continuous
 62
     7
100
AcDbLine
 10
1017.8807418218
 20
946.6487365828397
 30
0.0
 11
1017.982944848914
 21
946.7371511158551
 31
0.0
  0
LINE
  5
90
330
22
100
AcDbEntity
  8
_4-2_
  6
Continuous
 62
     7
100
AcDbLine
 10
1017.982944848914
 20
946.7371511158551
 30
0.0
 11
1018.043711999907
 21
946.7868697454075
 31
0.0
  0
LINE
  5
91
330
22
100
AcDbEntity
  8
_4-2_
  6
Continuous
 62
     7
100
AcDbLine
 10
1018.043711999907
 20
946.7868697454075
 30
0.0
 11
1018.098495562121
 21
946.8298230907153
 31
0.0
  0
LINE
  5
92
330
22
100
AcDbEntity
  8
_4-2_
  6
Continuous
 62
     7
100
AcDbLine
 10
1018.098495562121
 20
946.8298230907153
 30
0.0
 11
1018.19512874957
 21
946.9012060705919
 31
0.0
  0
LINE
  5
93
330
22
100
AcDbEntity
  8
_4-2_
  6
Continuous
 62
     7
100
AcDbLine
 10
1018.19512874957
 20
946.9012060705919
 30
0.0
 11
1018.294481964064
 21
946.9686890011727
 31
0.0
  0
LINE
  5
94
330
22
100
AcDbEntity
  8
_4-2_
  6
Continuous
 62
     7
100
AcDbLine
 10
1018.294481964064
 20
946.9686890011727
 30
0.0
 11
1018.39651112483
 21
947.0316735208138
 31
0.0
  0
LINE
  5
95
330
22
100
AcDbEntity
  8
_4-2_
  6
Continuous
 62
     7
100
AcDbLine
 10
1018.39651112483
 20
947.0316735208138
 30
0.0
 11
1018.501172151101
 21
947.0895612678708
 31
0.0
  0
LINE
  5
96
330
22
100
AcDbEntity
  8
_4-2_
  6
Continuous
 62
     7
100
AcDbLine
 10
1018.501172151101
 20
947.0895612678708
 30
0.0
 11
1018.608420962103
 21
947.1417538806887
 31
0.0
  0
LINE
  5
97
330
22
100
AcDbEntity
  8
_4-2_
  6
Continuous
 62
     7
100
AcDbLine
 10
1018.608420962103
 20
947.1417538806887
 30
0.0
 11
1018.671793625332
 21
947.1691803000153
 31
0.0
  0
LINE
  5
98
330
22
100
AcDbEntity
  8
_4-2_
  6
Continuous
 62
     7
100
AcDbLine
 10
1018.671793625332
 20
947.1691803000153
 30
0.0
 11
1018.742984558294
 21
947.1970107458055
 31
0.0
  0
LINE
  5
99
330
22
100
AcDbEntity
  8
_4-2_
  6
Continuous
 62
     7
100
AcDbLine
 10
1018.742984558294
 20
947.1970107458055
 30
0.0
 11
1018.867914844454
 21
947.2390798885609
 31
0.0
  0
LINE
  5
9A
330
22
100
AcDbEntity
  8
_4-2_
  6
Continuous
 62
     7
100
AcDbLine
 10
1018.867914844454
 20
947.2390798885609
 30
0.0
 11
1018.995228656241
 21
947.2744571082484
 31
0.0
  0
LINE
  5
9B
330
22
100
AcDbEntity
  8
_4-2_
  6
Continuous
 62
     7
100
AcDbLine
 10
1018.995228656241
 20
947.2744571082484
 30
0.0
 11
1019.124478079245
 21
947.3040664043304
 31
0.0
  0
LINE
  5
9C
330
22
100
AcDbEntity
  8
_4-2_
  6
Continuous
 62
     7
100
AcDbLine
 10
1019.124478079245
 20
947.3040664043304
 30
0.0
 11
1019.255215199062
 21
947.3288317762735
 31
0.0
  0
LINE
  5
9D
330
22
100
AcDbEntity
  8
_4-2_
  6
Continuous
 62
     7
100
AcDbLine
 10
1019.255215199062
 20
947.3288317762735
 30
0.0
 11
1019.386992101285
 21
947.3496772235458
 31
0.0
  0
LINE
  5
9E
330
22
100
AcDbEntity
  8
_4-2_
  6
Continuous
 62
     7
100
AcDbLine
 10
1019.386992101285
 20
947.3496772235458
 30
0.0
 11
1019.463722631305
 21
947.3603355773176
 31
0.0
  0
LINE
  5
9F
330
22
100
AcDbEntity
  8
_4-2_
  6
Continuous
 62
     7
100
AcDbLine
 10
1019.463722631305
 20
947.3603355773176
 30
0.0
 11
1019.556508237607
 21
947.3720337018603
 31
0.0
  0
LINE
  5
A0
330
22
100
AcDbEntity
  8
_4-2_
  6
Continuous
 62
     7
100
AcDbLine
 10
1019.556508237607
 20
947.3720337018603
 30
0.0
 11
1019.716708403409
 21
947.3888504275413
 31
0.0
  0
LINE
  5
A1
330
22
100
AcDbEntity
  8
_4-2_
  6
Continuous
 62
     7
100
AcDbLine
 10
1019.716708403409
 20
947.3888504275413
 30
0.0
 11
1019.876955483774
 21
947.4006368321028
 31
0.0
  0
LINE
  5
A2
330
22
100
AcDbEntity
  8
_4-2_
  6
Continuous
 62
     7
100
AcDbLine
 10
1019.876955483774
 20
947.4006368321028
 30
0.0
 11
1020.036972881668
 21
947.4064781390955
 31
0.0
  0
LINE
  5
A3
330
22
100
AcDbEntity
  8
_4-2_
  6
Continuous
 62
     7
100
AcDbLine
 10
1020.036972881668
 20
947.4064781390955
 30
0.0
 11
1020.196484000063
 21
947.4054595720641
 31
0.0
  0
LINE
  5
A4
330
22
100
AcDbEntity
  8
_4-2_
  6
Continuous
 62
     7
100
AcDbLine
 10
1020.196484000063
 20
947.4054595720641
 30
0.0
 11
1020.355212241934
 21
947.3966663545633
 31
0.0
  0
LINE
  5
A5
330
22
100
AcDbEntity
  8
_4-2_
  6
Continuous
 62
     7
100
AcDbLine
 10
1020.355212241934
 20
947.3966663545633
 30
0.0
 11
1020.446806914582
 21
947.3876434740752
 31
0.0
  0
LINE
  5
A6
330
22
100
AcDbEntity
  8
_4-2_
  6
Continuous
 62
     7
100
AcDbLine
 10
1020.446806914582
 20
947.3876434740752
 30
0.0
 11
1020.51389703431
 21
947.3790873577712
 31
0.0
  0
LINE
  5
A7
330
22
100
AcDbEntity
  8
_4-2_
  6
Continuous
 62
     7
100
AcDbLine
 10
1020.51389703431
 20
947.3790873577712
 30
0.0
 11
1020.629178322291
 21
947.3609875882463
 31
0.0
  0
LINE
  5
A8
330
22
100
AcDbEntity
  8
_4-2_
  6
Continuous
 62
     7
100
AcDbLine
 10
1020.629178322291
 20
947.3609875882463
 30
0.0
 11
1020.744160108192
 21
947.3395404122852
 31
0.0
  0
LINE
  5
A9
330
22
100
AcDbEntity
  8
_4-2_
  6
Continuous
 62
     7
100
AcDbLine
 10
1020.744160108192
 20
947.3395404122852
 30
0.0
 11
1020.859070130602
 21
947.3157811460165
 31
0.0
  0
LINE
  5
AA
330
22
100
AcDbEntity
  8
_4-2_
  6
Continuous
 62
     7
100
AcDbLine
 10
1020.859070130602
 20
947.3157811460165
 30
0.0
 11
1020.974136128117
 21
947.2907451055762
 31
0.0
  0
LINE
  5
AB
330
22
100
AcDbEntity
  8
_4-2_
  6
Continuous
 62
     7
100
AcDbLine
 10
1020.974136128117
 20
947.2907451055762
 30
0.0
 11
1021.089585839322
 21
947.2654676070915
 31
0.0
  0
LINE
  5
AC
330
22
100
AcDbEntity
  8
_4-2_
  6
Continuous
 62
     7
100
AcDbLine
 10
1021.089585839322
 20
947.2654676070915
 30
0.0
 11
1021.15681223028
 21
947.2511039902856
 31
0.0
  0
LINE
  5
AD
330
22
100
AcDbEntity
  8
_4-2_
  6
Continuous
 62
     7
100
AcDbLine
 10
1021.15681223028
 20
947.2511039902856
 30
0.0
 11
1021.23313174986
 21
947.2353079143516
 31
0.0
  0
LINE
  5
AE
330
22
100
AcDbEntity
  8
_4-2_
  6
Continuous
 62
     7
100
AcDbLine
 10
1021.23313174986
 20
947.2353079143516
 30
0.0
 11
1021.364880514587
 21
947.2082144667039
 31
0.0
  0
LINE
  5
AF
330
22
100
AcDbEntity
  8
_4-2_
  6
Continuous
 62
     7
100
AcDbLine
 10
1021.364880514587
 20
947.2082144667039
 30
0.0
 11
1021.495946279485
 21
947.1793812428625
 31
0.0
  0
LINE
  5
B0
330
22
100
AcDbEntity
  8
_4-2_
  6
Continuous
 62
     7
100
AcDbLine
 10
1021.495946279485
 20
947.1793812428625
 30
0.0
 11
1021.625294372778
 21
947.1465774667963
 31
0.0
  0
LINE
  5
B1
330
22
100
AcDbEntity
  8
_4-2_
  6
Continuous
 62
     7
100
AcDbLine
 10
1021.625294372778
 20
947.1465774667963
 30
0.0
 11
1021.751890122689
 21
947.1075723624828
 31
0.0
  0
LINE
  5
B2
330
22
100
AcDbEntity
  8
_4-2_
  6
Continuous
 62
     7
100
AcDbLine
 10
1021.751890122689
 20
947.1075723624828
 30
0.0
 11
1021.874698857438
 21
947.0601351539011
 31
0.0
  0
LINE
  5
B3
330
22
100
AcDbEntity
  8
_4-2_
  6
Continuous
 62
     7
100
AcDbLine
 10
1021.874698857438
 20
947.0601351539011
 30
0.0
 11
1021.943784998764
 21
947.0278789409887
 31
0.0
  0
LINE
  5
B4
330
22
100
AcDbEntity
  8
_4-2_
  6
Continuous
 62
     7
100
AcDbLine
 10
1021.943784998764
 20
947.0278789409887
 30
0.0
 11
1022.00586139325
 21
946.9947005210375
 31
0.0
  0
LINE
  5
B5
330
22
100
AcDbEntity
  8
_4-2_
  6
Continuous
 62
     7
100
AcDbLine
 10
1022.00586139325
 20
946.9947005210375
 30
0.0
 11
1022.109251340244
 21
946.9301465953519
 31
0.0
  0
LINE
  5
B6
330
22
100
AcDbEntity
  8
_4-2_
  6
Continuous
 62
     7
100
AcDbLine
 10
1022.109251340244
 20
946.9301465953519
 30
0.0
 11
1022.208033572344
 21
946.8573030755186
 31
0.0
  0
LINE
  5
B7
330
22
100
AcDbEntity
  8
_4-2_
  6
Continuous
 62
     7
100
AcDbLine
 10
1022.208033572344
 20
946.8573030755186
 30
0.0
 11
1022.302205476355
 21
946.7773489046969
 31
0.0
  0
LINE
  5
B8
330
22
100
AcDbEntity
  8
_4-2_
  6
Continuous
 62
     7
100
AcDbLine
 10
1022.302205476355
 20
946.7773489046969
 30
0.0
 11
1022.391764439082
 21
946.6914630260424
 31
0.0
  0
LINE
  5
B9
330
22
100
AcDbEntity
  8
_4-2_
  6
Continuous
 62
     7
100
AcDbLine
 10
1022.391764439082
 20
946.6914630260424
 30
0.0
 11
1022.476707847336
 21
946.6008243827101
 31
0.0
  0
LINE
  5
BA
330
22
100
AcDbEntity
  8
_4-2_
  6
Continuous
 62
     7
100
AcDbLine
 10
1022.476707847336
 20
946.6008243827101
 30
0.0
 11
1022.523859147326
 21
946.546540817712
 31
0.0
  0
LINE
  5
BB
330
22
100
AcDbEntity
  8
_4-2_
  6
Continuous
 62
     7
100
AcDbLine
 10
1022.523859147326
 20
946.546540817712
 30
0.0
 11
1022.576543537558
 21
946.482436200219
 31
0.0
  0
LINE
  5
BC
330
22
100
AcDbEntity
  8
_4-2_
  6
Continuous
 62
     7
100
AcDbLine
 10
1022.576543537558
 20
946.482436200219
 30
0.0
 11
1022.662900949602
 21
946.3691330691352
 31
0.0
  0
LINE
  5
BD
330
22
100
AcDbEntity
  8
_4-2_
  6
Continuous
 62
     7
100
AcDbLine
 10
1022.662900949602
 20
946.3691330691352
 30
0.0
 11
1022.744219866489
 21
946.2527426474975
 31
0.0
  0
LINE
  5
BE
330
22
100
AcDbEntity
  8
_4-2_
  6
Continuous
 62
     7
100
AcDbLine
 10
1022.744219866489
 20
946.2527426474975
 30
0.0
 11
1022.821232305229
 21
946.1337638593178
 31
0.0
  0
LINE
  5
BF
330
22
100
AcDbEntity
  8
_4-2_
  6
Continuous
 62
     7
100
AcDbLine
 10
1022.821232305229
 20
946.1337638593178
 30
0.0
 11
1022.894670282837
 21
946.012695628603
 31
0.0
  0
LINE
  5
C0
330
22
100
AcDbEntity
  8
_4-2_
  6
Continuous
 62
     7
100
AcDbLine
 10
1022.894670282837
 20
946.012695628603
 30
0.0
 11
1022.965265816318
 21
945.8900368793633
 31
0.0
  0
LINE
  5
C1
330
22
100
AcDbEntity
  8
_4-2_
  6
Continuous
 62
     7
100
AcDbLine
 10
1022.965265816318
 20
945.8900368793633
 30
0.0
 11
1023.005197270604
 21
945.8183626312184
 31
0.0
  0
LINE
  5
C2
330
22
100
AcDbEntity
  8
_4-2_
  6
Continuous
 62
     7
100
AcDbLine
 10
1023.005197270604
 20
945.8183626312184
 30
0.0
 11
1023.047239375294
 21
945.7414460111335
 31
0.0
  0
LINE
  5
C3
330
22
100
AcDbEntity
  8
_4-2_
  6
Continuous
 62
     7
100
AcDbLine
 10
1023.047239375294
 20
945.7414460111335
 30
0.0
 11
1023.118477651049
 21
945.6081917884029
 31
0.0
  0
LINE
  5
C4
330
22
100
AcDbEntity
  8
_4-2_
  6
Continuous
 62
     7
100
AcDbLine
 10
1023.118477651049
 20
945.6081917884029
 30
0.0
 11
1023.188549243777
 21
945.4742561636924
 31
0.0
  0
LINE
  5
C5
330
22
100
AcDbEntity
  8
_4-2_
  6
Continuous
 62
     7
100
AcDbLine
 10
1023.188549243777
 20
945.4742561636924
 30
0.0
 11
1023.257934624557
 21
945.3397878755202
 31
0.0
  0
LINE
  5
C6
330
22
100
AcDbEntity
  8
_4-2_
  6
Continuous
 62
     7
100
AcDbLine
 10
1023.257934624557
 20
945.3397878755202
 30
0.0
 11
1023.327114264468
 21
945.2049356624087
 31
0.0
  0
LINE
  5
C7
330
22
100
AcDbEntity
  8
_4-2_
  6
Continuous
 62
     7
100
AcDbLine
 10
1023.327114264468
 20
945.2049356624087
 30
0.0
 11
1023.396568634591
 21
945.0698482628737
 31
0.0
  0
LINE
  5
C8
330
22
100
AcDbEntity
  8
_4-2_
  6
Continuous
 62
     7
100
AcDbLine
 10
1023.396568634591
 20
945.0698482628737
 30
0.0
 11
1023.437167381237
 21
944.9914484194364
 31
0.0
  0
LINE
  5
C9
330
22
100
AcDbEntity
  8
_4-2_
  6
Continuous
 62
     7
100
AcDbLine
 10
1023.437167381237
 20
944.9914484194364
 30
0.0
 11
1023.492425790097
 21
944.8859308050572
 31
0.0
  0
LINE
  5
CA
330
22
100
AcDbEntity
  8
_4-2_
  6
Continuous
 62
     7
100
AcDbLine
 10
1023.492425790097
 20
944.8859308050572
 30
0.0
 11
1023.590241300051
 21
944.7050584513766
 31
0.0
  0
LINE
  5
CB
330
22
100
AcDbEntity
  8
_4-2_
  6
Continuous
 62
     7
100
AcDbLine
 10
1023.590241300051
 20
944.7050584513766
 30
0.0
 11
1023.692879795819
 21
944.5271158412191
 31
0.0
  0
LINE
  5
CC
330
22
100
AcDbEntity
  8
_4-2_
  6
Continuous
 62
     7
100
AcDbLine
 10
1023.692879795819
 20
944.5271158412191
 30
0.0
 11
1023.802207287936
 21
944.3539574487084
 31
0.0
  0
LINE
  5
CD
330
22
100
AcDbEntity
  8
_4-2_
  6
Continuous
 62
     7
100
AcDbLine
 10
1023.802207287936
 20
944.3539574487084
 30
0.0
 11
1023.920089786937
 21
944.1874377479685
 31
0.0
  0
LINE
  5
CE
330
22
100
AcDbEntity
  8
_4-2_
  6
Continuous
 62
     7
100
AcDbLine
 10
1023.920089786937
 20
944.1874377479685
 30
0.0
 11
1024.048393303359
 21
944.0294112131182
 31
0.0
  0
LINE
  5
CF
330
22
100
AcDbEntity
  8
_4-2_
  6
Continuous
 62
     7
100
AcDbLine
 10
1024.048393303359
 20
944.0294112131182
 30
0.0
 11
1024.128319558248
 21
943.9423781507542
 31
0.0
  0
LINE
  5
D0
330
22
100
AcDbEntity
  8
_4-2_
  6
Continuous
 62
     7
100
AcDbLine
 10
1024.128319558248
 20
943.9423781507542
 30
0.0
 11
1024.15720404094
 21
943.9129375220607
 31
0.0
  0
LINE
  5
D1
330
22
100
AcDbEntity
  8
_4-2_
  6
Continuous
 62
     7
100
AcDbLine
 10
1024.15720404094
 20
943.9129375220607
 30
0.0
 11
1024.208266079402
 21
943.8633468376648
 31
0.0
  0
LINE
  5
D2
330
22
100
AcDbEntity
  8
_4-2_
  6
Continuous
 62
     7
100
AcDbLine
 10
1024.208266079402
 20
943.8633468376648
 30
0.0
 11
1024.26089257461
 21
943.8153467692647
 31
0.0
  0
LINE
  5
D3
330
22
100
AcDbEntity
  8
_4-2_
  6
Continuous
 62
     7
100
AcDbLine
 10
1024.26089257461
 20
943.8153467692647
 30
0.0
 11
1024.315046309293
 21
943.7690662046831
 31
0.0
  0
LINE
  5
D4
330
22
100
AcDbEntity
  8
_4-2_
  6
Continuous
 62
     7
100
AcDbLine
 10
1024.315046309293
 20
943.7690662046831
 30
0.0
 11
1024.370690066191
 21
943.7246340317523
 31
0.0
  0
LINE
  5
D5
330
22
100
AcDbEntity
  8
_4-2_
  6
Continuous
 62
     7
100
AcDbLine
 10
1024.370690066191
 20
943.7246340317523
 30
0.0
 11
1024.427786628034
 21
943.6821791382993
 31
0.0
  0
LINE
  5
D6
330
22
100
AcDbEntity
  8
_4-2_
  6
Continuous
 62
     7
100
AcDbLine
 10
1024.427786628034
 20
943.6821791382993
 30
0.0
 11
1024.461553643594
 21
943.6585120780542
 31
0.0
  0
LINE
  5
D7
330
22
100
AcDbEntity
  8
_4-2_
  6
Continuous
 62
     7
100
AcDbLine
 10
1024.461553643594
 20
943.6585120780542
 30
0.0
 11
1024.517554525524
 21
943.621454146568
 31
0.0
  0
LINE
  5
D8
330
22
100
AcDbEntity
  8
_4-2_
  6
Continuous
 62
     7
100
AcDbLine
 10
1024.517554525524
 20
943.621454146568
 30
0.0
 11
1024.616424178131
 21
943.5611958564477
 31
0.0
  0
LINE
  5
D9
330
22
100
AcDbEntity
  8
_4-2_
  6
Continuous
 62
     7
100
AcDbLine
 10
1024.616424178131
 20
943.5611958564477
 30
0.0
 11
1024.717306232528
 21
943.5041156007779
 31
0.0
  0
LINE
  5
DA
330
22
100
AcDbEntity
  8
_4-2_
  6
Continuous
 62
     7
100
AcDbLine
 10
1024.717306232528
 20
943.5041156007779
 30
0.0
 11
1024.81913120021
 21
943.4485589079937
 31
0.0
  0
LINE
  5
DB
330
22
100
AcDbEntity
  8
_4-2_
  6
Continuous
 62
     7
100
AcDbLine
 10
1024.81913120021
 20
943.4485589079937
 30
0.0
 11
1024.920829592681
 21
943.3928713065341
 31
0.0
  0
LINE
  5
DC
330
22
100
AcDbEntity
  8
_4-2_
  6
Continuous
 62
     7
100
AcDbLine
 10
1024.920829592681
 20
943.3928713065341
 30
0.0
 11
1025.021331921439
 21
943.3353983248316
 31
0.0
  0
LINE
  5
DD
330
22
100
AcDbEntity
  8
_4-2_
  6
Continuous
 62
     7
100
AcDbLine
 10
1025.021331921439
 20
943.3353983248316
 30
0.0
 11
1025.078653801641
 21
943.3005939863885
 31
0.0
  0
LINE
  5
DE
330
22
100
AcDbEntity
  8
_4-2_
  6
Continuous
 62
     7
100
AcDbLine
 10
1025.078653801641
 20
943.3005939863885
 30
0.0
 11
1025.13641067189
 21
943.2634910052177
 31
0.0
  0
LINE
  5
DF
330
22
100
AcDbEntity
  8
_4-2_
  6
Continuous
 62
     7
100
AcDbLine
 10
1025.13641067189
 20
943.2634910052177
 30
0.0
 11
1025.233875048237
 21
943.196302404112
 31
0.0
  0
LINE
  5
E0
330
22
100
AcDbEntity
  8
_4-2_
  6
Continuous
 62
     7
100
AcDbLine
 10
1025.233875048237
 20
943.196302404112
 30
0.0
 11
1025.329076637125
 21
943.1256879103823
 31
0.0
  0
LINE
  5
E1
330
22
100
AcDbEntity
  8
_4-2_
  6
Continuous
 62
     7
100
AcDbLine
 10
1025.329076637125
 20
943.1256879103823
 30
0.0
 11
1025.422499442586
 21
943.0524003776319
 31
0.0
  0
LINE
  5
E2
330
22
100
AcDbEntity
  8
_4-2_
  6
Continuous
 62
     7
100
AcDbLine
 10
1025.422499442586
 20
943.0524003776319
 30
0.0
 11
1025.514627468643
 21
942.9771926594792
 31
0.0
  0
LINE
  5
E3
330
22
100
AcDbEntity
  8
_4-2_
  6
Continuous
 62
     7
100
AcDbLine
 10
1025.514627468643
 20
942.9771926594792
 30
0.0
 11
1025.605944719329
 21
942.9008176095267
 31
0.0
  0
LINE
  5
E4
330
22
100
AcDbEntity
  8
_4-2_
  6
Continuous
 62
     7
100
AcDbLine
 10
1025.605944719329
 20
942.9008176095267
 30
0.0
 11
1025.658727950205
 21
942.8562818725929
 31
0.0
  0
LINE
  5
E5
330
22
100
AcDbEntity
  8
_4-2_
  6
Continuous
 62
     7
100
AcDbLine
 10
1025.658727950205
 20
942.8562818725929
 30
0.0
 11
1025.724879114968
 21
942.8003565076544
 31
0.0
  0
LINE
  5
E6
330
22
100
AcDbEntity
  8
_4-2_
  6
Continuous
 62
     7
100
AcDbLine
 10
1025.724879114968
 20
942.8003565076544
 30
0.0
 11
1025.838362101411
 21
942.7034295990321
 31
0.0
  0
LINE
  5
E7
330
22
100
AcDbEntity
  8
_4-2_
  6
Continuous
 62
     7
100
AcDbLine
 10
1025.838362101411
 20
942.7034295990321
 30
0.0
 11
1025.9503462593
 21
942.6050613688829
 31
0.0
  0
LINE
  5
E8
330
22
100
AcDbEntity
  8
_4-2_
  6
Continuous
 62
     7
100
AcDbLine
 10
1025.9503462593
 20
942.6050613688829
 30
0.0
 11
1026.059928838193
 21
942.5043174951788
 31
0.0
  0
LINE
  5
E9
330
22
100
AcDbEntity
  8
_4-2_
  6
Continuous
 62
     7
100
AcDbLine
 10
1026.059928838193
 20
942.5043174951788
 30
0.0
 11
1026.166207087634
 21
942.4002636558991
 31
0.0
  0
LINE
  5
EA
330
22
100
AcDbEntity
  8
_4-2_
  6
Continuous
 62
     7
100
AcDbLine
 10
1026.166207087634
 20
942.4002636558991
 30
0.0
 11
1026.268278257184
 21
942.2919655290177
 31
0.0
  0
LINE
  5
EB
330
22
100
AcDbEntity
  8
_4-2_
  6
Continuous
 62
     7
100
AcDbLine
 10
1026.268278257184
 20
942.2919655290177
 30
0.0
 11
1026.325196120896
 21
942.2268397113834
 31
0.0
  0
LINE
  5
EC
330
22
100
AcDbEntity
  8
_4-2_
  6
Continuous
 62
     7
100
AcDbLine
 10
1026.325196120896
 20
942.2268397113834
 30
0.0
 11
1026.357483166296
 21
942.1880351641828
 31
0.0
  0
LINE
  5
ED
330
22
100
AcDbEntity
  8
_4-2_
  6
Continuous
 62
     7
100
AcDbLine
 10
1026.357483166296
 20
942.1880351641828
 30
0.0
 11
1026.411436360237
 21
942.1196147017843
 31
0.0
  0
LINE
  5
EE
330
22
100
AcDbEntity
  8
_4-2_
  6
Continuous
 62
     7
100
AcDbLine
 10
1026.411436360237
 20
942.1196147017843
 30
0.0
 11
1026.462911280318
 21
942.0493014156857
 31
0.0
  0
LINE
  5
EF
330
22
100
AcDbEntity
  8
_4-2_
  6
Continuous
 62
     7
100
AcDbLine
 10
1026.462911280318
 20
942.0493014156857
 30
0.0
 11
1026.511549212033
 21
941.9771258327424
 31
0.0
  0
LINE
  5
F0
330
22
100
AcDbEntity
  8
_4-2_
  6
Continuous
 62
     7
100
AcDbLine
 10
1026.511549212033
 20
941.9771258327424
 30
0.0
 11
1026.556991440875
 21
941.9031184798082
 31
0.0
  0
LINE
  5
F1
330
22
100
AcDbEntity
  8
_4-2_
  6
Continuous
 62
     7
100
AcDbLine
 10
1026.556991440875
 20
941.9031184798082
 30
0.0
 11
1026.598879252329
 21
941.8273098837444
 31
0.0
  0
LINE
  5
F2
330
22
100
AcDbEntity
  8
_4-2_
  6
Continuous
 62
     7
100
AcDbLine
 10
1026.598879252329
 20
941.8273098837444
 30
0.0
 11
1026.621404196758
 21
941.7825275975902
 31
0.0
  0
LINE
  5
F3
330
22
100
AcDbEntity
  8
_4-2_
  6
Continuous
 62
     7
100
AcDbLine
 10
1026.621404196758
 20
941.7825275975902
 30
0.0
 11
1026.650561605108
 21
941.7191051656862
 31
0.0
  0
LINE
  5
F4
330
22
100
AcDbEntity
  8
_4-2_
  6
Continuous
 62
     7
100
AcDbLine
 10
1026.650561605108
 20
941.7191051656862
 30
0.0
 11
1026.695240829077
 21
941.6073774287786
 31
0.0
  0
LINE
  5
F5
330
22
100
AcDbEntity
  8
_4-2_
  6
Continuous
 62
     7
100
AcDbLine
 10
1026.695240829077
 20
941.6073774287786
 30
0.0
 11
1026.733960415716
 21
941.4931146674343
 31
0.0
  0
LINE
  5
F6
330
22
100
AcDbEntity
  8
_4-2_
  6
Continuous
 62
     7
100
AcDbLine
 10
1026.733960415716
 20
941.4931146674343
 30
0.0
 11
1026.768021595884
 21
941.37687038044
 31
0.0
  0
LINE
  5
F7
330
22
100
AcDbEntity
  8
_4-2_
  6
Continuous
 62
     7
100
AcDbLine
 10
1026.768021595884
 20
941.37687038044
 30
0.0
 11
1026.798725600439
 21
941.2591980665816
 31
0.0
  0
LINE
  5
F8
330
22
100
AcDbEntity
  8
_4-2_
  6
Continuous
 62
     7
100
AcDbLine
 10
1026.798725600439
 20
941.2591980665816
 30
0.0
 11
1026.827373660238
 21
941.1406512246429
 31
0.0
  0
LINE
  5
F9
330
22
100
AcDbEntity
  8
_4-2_
  6
Continuous
 62
     7
100
AcDbLine
 10
1026.827373660238
 20
941.1406512246429
 30
0.0
 11
1026.843560253656
 21
941.071711454853
 31
0.0
  0
LINE
  5
FA
330
22
100
AcDbEntity
  8
_4-4_
  6
Continuous
 62
     2
100
AcDbLine
 10
1020.126137839522
 20
944.196711454853
 30
0.0
 11
1020.126137839522
 21
941.071711454853
 31
0.0
  0
POINT
  5
FB
330
22
100
AcDbEntity
  8
_4-B_
 62
     1
100
AcDbPoint
 10
1020.126137839521
 20
1014.645953955539
 30
0.0
  0
POINT
  5
FC
330
22
100
AcDbEntity
  8
_4-B_
 62
     1
100
AcDbPoint
 10
987.0011378395211
 20
1014.645953955539
 30
0.0
  0
LINE
  5
FD
330
22
100
AcDbEntity
  8
_4-B_
  6
Continuous
 62
     7
100
AcDbLine
 10
987.0011378395211
 20
1014.645953955539
 30
0.0
 11
1020.126137839521
 21
1014.645953955539
 31
0.0
  0
LINE
  5
FE
330
22
100
AcDbEntity
  8
_4-B_
  6
Continuous
 62
     7
100
AcDbLine
 10
1020.126137839521
 20
1014.645953955539
 30
0.0
 11
1020.126137839521
 21
961.8252414790477
 31
0.0
  0
LINE
  5
FF
330
22
100
AcDbEntity
  8
_4-4_
  6
Continuous
 62
     2
100
AcDbLine
 10
1020.126137839522
 20
941.071711454853
 30
0.0
 11
1397.110173347399
 21
941.071711454853
 31
0.0
  0
LINE
  5
100
330
22
100
AcDbEntity
  8
_4-2_
  6
Continuous
 62
     7
100
AcDbLine
 10
983.8761378395211
 20
937.946711454853
 30
0.0
 11
1397.110173347399
 21
937.946711454853
 31
0.0
  0
LINE
  5
101
330
22
100
AcDbEntity
  8
_4-E_
  6
Continuous
 62
     4
100
AcDbLine
 10
747.1101733473992
 20
886.3090293183102
 30
0.0
 11
798.7478554839433
 21
937.946711454853
 31
0.0
  0
LINE
  5
102
330
22
100
AcDbEntity
  8
_4-E_
  6
Continuous
 62
     4
100
AcDbLine
 10
904.9978554839432
 20
844.196711454853
 30
0.0
 11
998.7478554839455
 21
937.946711454853
 31
0.0
  0
LINE
  5
103
330
22
100
AcDbEntity
  8
_4-E_
  6
Continuous
 62
     4
100
AcDbLine
 10
1104.997855483943
 20
844.196711454853
 30
0.0
 11
1198.747855483942
 21
937.946711454853
 31
0.0
  0
LINE
  5
104
330
22
100
AcDbEntity
  8
_4-E_
  6
Continuous
 62
     4
100
AcDbLine
 10
1112.06892329581
 20
844.196711454853
 30
0.0
 11
1205.818923295808
 21
937.946711454853
 31
0.0
  0
LINE
  5
105
330
22
100
AcDbEntity
  8
_4-E_
  6
Continuous
 62
     4
100
AcDbLine
 10
912.0689232958099
 20
844.196711454853
 30
0.0
 11
1005.81892329581
 21
937.946711454853
 31
0.0
  0
LINE
  5
106
330
22
100
AcDbEntity
  8
_4-E_
  6
Continuous
 62
     4
100
AcDbLine
 10
919.1399911076754
 20
844.196711454853
 30
0.0
 11
1012.889991107675
 21
937.946711454853
 31
0.0
  0
LINE
  5
107
330
22
100
AcDbEntity
  8
_4-E_
  6
Continuous
 62
     4
100
AcDbLine
 10
1119.139991107675
 20
844.196711454853
 30
0.0
 11
1212.889991107674
 21
937.946711454853
 31
0.0
  0
LINE
  5
108
330
22
100
AcDbEntity
  8
_4-E_
  6
Continuous
 62
     4
100
AcDbLine
 10
747.1101733473992
 20
879.2379615064435
 30
0.0
 11
805.8189232958087
 21
937.946711454853
 31
0.0
  0
LINE
  5
109
330
22
100
AcDbEntity
  8
_4-E_
  6
Continuous
 62
     4
100
AcDbLine
 10
747.1101733474004
 20
872.1668936945793
 30
0.0
 11
812.8899911076743
 21
937.946711454853
 31
0.0
  0
LINE
  5
10A
330
22
100
AcDbEntity
  8
_4-E_
  6
Continuous
 62
     4
100
AcDbLine
 10
1304.997855483942
 20
844.196711454853
 30
0.0
 11
1397.110173347399
 21
936.3090293183079
 31
0.0
  0
LINE
  5
10B
330
22
100
AcDbEntity
  8
_4-E_
  6
Continuous
 62
     4
100
AcDbLine
 10
1319.139991107675
 20
844.196711454853
 30
0.0
 11
1397.110173347399
 21
922.1668936945793
 31
0.0
  0
LINE
  5
10C
330
22
100
AcDbEntity
  8
_4-E_
  6
Continuous
 62
     4
100
AcDbLine
 10
1312.068923295808
 20
844.196711454853
 30
0.0
 11
1397.110173347399
 21
929.2379615064435
 31
0.0
  0
LINE
  5
10D
330
22
100
AcDbEntity
  8
_4-E_
  6
Continuous
 62
     4
100
AcDbLine
 10
890.1261378395211
 20
1029.324993810434
 30
0.0
 11
983.8761378395211
 21
1123.07499381043
 31
0.0
  0
LINE
  5
10E
330
22
100
AcDbEntity
  8
_4-E_
  6
Continuous
 62
     4
100
AcDbLine
 10
890.1261378395211
 20
1015.182858186708
 30
0.0
 11
983.8761378395211
 21
1108.932858186708
 31
0.0
  0
LINE
  5
10F
330
22
100
AcDbEntity
  8
_4-E_
  6
Continuous
 62
     4
100
AcDbLine
 10
890.1261378395211
 20
1022.253925998568
 30
0.0
 11
983.8761378395211
 21
1116.003925998568
 31
0.0
  0
TEXT
  5
110
330
22
100
AcDbEntity
  8
_4-A_
 62
     7
100
AcDbText
 10
1107.328979048564
 20
1001.217810088735
 30
0.0
 40
15.0
  1
プルーフシーラー
100
AcDbText
  0
TEXT
  5
111
330
22
100
AcDbEntity
  8
_4-A_
 62
     7
100
AcDbText
 10
1107.328979048564
 20
976.2178100887346
 30
0.0
 40
15.0
  1
塩ビシート 接着工法
100
AcDbText
  0
LINE
  5
112
330
22
100
AcDbEntity
  8
_4-A_
  6
Continuous
 62
     7
100
AcDbLine
 10
1097.328979048564
 20
983.7178100887348
 30
0.0
 11
1073.406164215427
 21
983.7178100887348
 31
0.0
  0
LINE
  5
113
330
22
100
AcDbEntity
  8
_4-A_
  6
Continuous
 62
     7
100
AcDbLine
 10
1097.328979048564
 20
1008.717810088735
 30
0.0
 11
1057.032627083023
 21
1008.717810088735
 31
0.0
  0
LINE
  5
114
330
22
100
AcDbEntity
  8
_4-A_
  6
Continuous
 62
     7
100
AcDbLine
 10
1048.485518139144
 20
940.5539849271708
 30
0.0
 11
1073.406164215427
 21
983.7178100887348
 31
0.0
  0
LINE
  5
115
330
22
100
AcDbEntity
  8
_4-A_
  6
Continuous
 62
     7
100
AcDbLine
 10
1020.683310951883
 20
945.7589477292158
 30
0.0
 11
1057.032627083023
 21
1008.717810088735
 31
0.0
  0
TEXT
  5
116
330
22
100
AcDbEntity
  8
_4-A_
 62
     7
100
AcDbText
 10
783.2583264099273
 20
1116.939912615816
 30
0.0
 40
20.0
  1
室 内
100
AcDbText
  0
LINE
  5
117
330
22
100
AcDbEntity
  8
_4-A_
  6
Continuous
 62
     3
100
AcDbLine
 10
770.5919639024271
 20
1112.464354573559
 30
0.0
 11
844.7659408149363
 21
1112.464354573559
 31
0.0
  0
LINE
  5
118
330
22
100
AcDbEntity
  8
_4-A_
  6
Continuous
 62
     3
100
AcDbLine
 10
844.7659408149363
 20
1112.464354573559
 30
0.0
 11
844.7659408149363
 21
1143.990469632419
 31
0.0
  0
LINE
  5
119
330
22
100
AcDbEntity
  8
_4-A_
  6
Continuous
 62
     3
100
AcDbLine
 10
844.7659408149363
 20
1143.990469632419
 30
0.0
 11
770.5919639024271
 21
1143.990469632419
 31
0.0
  0
LINE
  5
11A
330
22
100
AcDbEntity
  8
_4-A_
  6
Continuous
 62
     3
100
AcDbLine
 10
770.5919639024271
 20
1143.990469632419
 30
0.0
 11
770.5919639024271
 21
1112.464354573559
 31
0.0
  0
LINE
  5
11B
330
22
100
AcDbEntity
  8
_4-E_
  6
Continuous
 62
     4
100
AcDbLine
 10
890.1261378395211
 20
1229.324993810434
 30
0.0
 11
979.9978554839468
 21
1319.196711454855
 31
0.0
  0
LINE
  5
11C
330
22
100
AcDbEntity
  8
_4-E_
  6
Continuous
 62
     4
100
AcDbLine
 10
890.1261378395211
 20
1222.253925998568
 30
0.0
 11
987.0689232958099
 21
1319.196711454855
 31
0.0
  0
LINE
  5
11D
330
22
100
AcDbEntity
  8
_4-E_
  6
Continuous
 62
     4
100
AcDbLine
 10
890.1261378395211
 20
1215.182858186708
 30
0.0
 11
994.1399911076697
 21
1319.196711454855
 31
0.0
  0
POINT
  5
11E
330
22
100
AcDbEntity
  8
_4-B_
 62
     1
100
AcDbPoint
 10
1371.901581125966
 20
941.071711454853
 30
0.0
  0
TEXT
  5
11F
330
22
100
AcDbEntity
  8
_4-B_
 62
     7
100
AcDbText
 10
1369.401581125966
 20
1036.696711454853
 30
0.0
 40
15.0
  1
400以上
 50
90.0
100
AcDbText
  0
ARC
  5
120
330
22
100
AcDbEntity
  8
_4-6_
  6
Continuous
 62
     2
100
AcDbCircle
 10
989.1495909645207
 20
1175.132520211163
 30
0.0
 40
0.1173425
100
AcDbArc
 50
355.0659180000001
 51
125.411952
  0
LINE
  5
121
330
22
100
AcDbEntity
  8
_4-6_
  6
Continuous
 62
     2
100
AcDbLine
 10
988.4572086867953
 20
1164.821547978331
 30
0.0
 11
988.4540705422999
 21
1173.514512249046
 31
0.0
  0
LINE
  5
122
330
22
100
AcDbEntity
  8
_4-6_
  6
Continuous
 62
     2
100
AcDbLine
 10
988.4572086867953
 20
1164.821547978331
 30
0.0
 11
986.4542628395222
 21
1162.645902015262
 31
0.0
  0
LINE
  5
123
330
22
100
AcDbEntity
  8
_4-6_
  6
Continuous
 62
     2
100
AcDbLine
 10
986.4542628395222
 20
1159.086775836164
 30
0.0
 11
986.4542628395222
 21
1162.645902015262
 31
0.0
  0
LINE
  5
124
330
22
100
AcDbEntity
  8
_4-6_
  6
Continuous
 62
     2
100
AcDbLine
 10
986.4542628395222
 20
1159.086775836164
 30
0.0
 11
987.5480128395212
 21
1159.086775836164
 31
0.0
  0
LINE
  5
125
330
22
100
AcDbEntity
  8
_4-6_
  6
Continuous
 62
     2
100
AcDbLine
 10
987.5480128395212
 20
1162.212693885164
 30
0.0
 11
987.5480128395212
 21
1159.086775836164
 31
0.0
  0
LINE
  5
126
330
22
100
AcDbEntity
  8
_4-6_
  6
Continuous
 62
     2
100
AcDbLine
 10
989.26676290392
 20
1164.08677590638
 30
0.0
 11
987.5480128395212
 21
1162.212693885164
 31
0.0
  0
LINE
  5
127
330
22
100
AcDbEntity
  8
_4-6_
  6
Continuous
 62
     2
100
AcDbLine
 10
989.2664978395224
 20
1175.124983336163
 30
0.0
 11
989.26676290392
 21
1164.08677590638
 31
0.0
  0
LINE
  5
128
330
22
100
AcDbEntity
  8
_4-6_
  6
Continuous
 62
     2
100
AcDbLine
 10
989.0850534645219
 20
1175.230883961162
 30
0.0
 11
988.4541625783091
 21
1174.861066420907
 31
0.0
  0
ARC
  5
129
330
22
100
AcDbEntity
  8
_4-7_
  6
Continuous
 62
     7
100
AcDbCircle
 10
989.2666303395216
 20
1169.607220523662
 30
0.0
 40
2.069499895611049
100
AcDbArc
 50
270.0
 51
90.0
  0
LINE
  5
12A
330
22
100
AcDbEntity
  8
_4-7_
  6
Continuous
 62
     7
100
AcDbLine
 10
989.2666303395216
 20
1167.537720628049
 30
0.0
 11
989.2666303395216
 21
1171.676720419272
 31
0.0
  0
LINE
  5
12B
330
22
100
AcDbEntity
  8
_4-6_
  6
Continuous
 62
     2
100
AcDbLine
 10
983.8761378395211
 20
1178.202093419851
 30
0.0
 11
988.4540705422999
 21
1173.514512249046
 31
0.0
  0
LINE
  5
12C
330
22
100
AcDbEntity
  8
_4-6_
  6
Continuous
 62
     2
100
AcDbLine
 10
984.8136378395212
 20
1181.696711454853
 30
0.0
 11
983.8761378395211
 21
1181.696711454853
 31
0.0
  0
LINE
  5
12D
330
22
100
AcDbEntity
  8
_4-6_
  6
Continuous
 62
     2
100
AcDbLine
 10
983.8761378395211
 20
1181.696711454853
 30
0.0
 11
983.8761378395211
 21
1178.202093419851
 31
0.0
  0
LINE
  5
12E
330
22
100
AcDbEntity
  8
_4-6_
  6
Continuous
 62
     2
100
AcDbLine
 10
984.8136378395212
 20
1181.696711454853
 30
0.0
 11
984.8136378395212
 21
1178.597971731037
 31
0.0
  0
LINE
  5
12F
330
22
100
AcDbEntity
  8
_4-6_
  6
Continuous
 62
     2
100
AcDbLine
 10
984.8136378395212
 20
1178.597971731037
 30
0.0
 11
988.4541625783091
 21
1174.861066420907
 31
0.0
  0
LINE
  5
130
330
22
100
AcDbEntity
  8
_4-2_
  6
Continuous
 62
     7
100
AcDbLine
 10
987.0011378395211
 20
1175.002244905283
 30
0.0
 11
983.8761378395211
 21
1175.002244905283
 31
0.0
  0
LINE
  5
131
330
22
100
AcDbEntity
  8
_4-7_
  6
Continuous
 62
     7
100
AcDbLine
 10
989.2666303395216
 20
1168.357220523662
 30
0.0
 11
983.8761378395211
 21
1168.357220523662
 31
0.0
  0
LINE
  5
132
330
22
100
AcDbEntity
  8
_4-7_
  6
Continuous
 62
     7
100
AcDbLine
 10
989.2666303395216
 20
1170.857220523664
 30
0.0
 11
983.8761378395211
 21
1170.857220523664
 31
0.0
  0
LINE
  5
133
330
22
100
AcDbEntity
  8
_4-2_
  6
Continuous
 62
     7
100
AcDbLine
 10
987.0011378395211
 20
1163.23993025006
 30
0.0
 11
987.0011378395211
 21
1168.357220523662
 31
0.0
  0
LINE
  5
134
330
22
100
AcDbEntity
  8
_4-2_
  6
Continuous
 62
     7
100
AcDbLine
 10
987.0011378395211
 20
1170.857220523664
 30
0.0
 11
987.0011378395211
 21
1175.002244905283
 31
0.0
  0
LINE
  5
135
330
22
100
AcDbEntity
  8
_4-D_
  6
Continuous
 62
     4
100
AcDbLine
 10
987.0011378395199
 20
1164.382434383035
 30
0.0
 11
988.456841699535
 21
1165.838138243052
 31
0.0
  0
LINE
  5
136
330
22
100
AcDbEntity
  8
_4-D_
  6
Continuous
 62
     4
100
AcDbLine
 10
987.0011378395233
 20
1166.592143074253
 30
0.0
 11
988.4560442865263
 21
1168.047049521257
 31
0.0
  0
LINE
  5
137
330
22
100
AcDbEntity
  8
_4-D_
  6
Continuous
 62
     4
100
AcDbLine
 10
987.0011378395233
 20
1171.01156045667
 30
0.0
 11
988.4544494605153
 21
1172.464872077662
 31
0.0
  0
LINE
  5
138
330
22
100
AcDbEntity
  8
_4-D_
  6
Continuous
 62
     4
100
AcDbLine
 10
987.0011378395199
 20
1173.221269147868
 30
0.0
 11
987.8810876484543
 21
1174.1012189568
 31
0.0
  0
LINE
  5
139
330
22
100
AcDbEntity
  8
_4-D_
  6
Continuous
 62
     4
100
AcDbLine
 10
986.5724049057199
 20
1175.002244905283
 30
0.0
 11
986.7893081941096
 21
1175.219148193672
 31
0.0
  0
LINE
  5
13A
330
22
100
AcDbEntity
  8
_4-D_
  6
Continuous
 62
     4
100
AcDbLine
 10
984.3626962145194
 20
1175.002244905285
 30
0.0
 11
985.6975287397709
 21
1176.337077430537
 31
0.0
  0
LINE
  5
13B
330
22
100
AcDbEntity
  8
_4-D_
  6
Continuous
 62
     4
100
AcDbLine
 10
983.8761378395211
 20
1176.725395221499
 30
0.0
 11
984.6057492854264
 21
1177.455006667407
 31
0.0
  0
LINE
  5
13C
330
22
100
AcDbEntity
  8
_4-2_
  6
Continuous
 62
     7
100
AcDbLine
 10
983.8761378395211
 20
1181.696711454853
 30
0.0
 11
983.8761378395211
 21
937.946711454853
 31
0.0
  0
ARC
  5
13D
330
22
100
AcDbEntity
  8
_4-4_
  6
Continuous
 62
     2
100
AcDbCircle
 10
1006.261496023446
 20
1177.014318186627
 30
0.0
 40
17.09997620716043
100
AcDbArc
 50
140.258708759594
 51
186.3520387599848
  0
LINE
  5
13E
330
22
100
AcDbEntity
  8
_4-4_
  6
Continuous
 62
     2
100
AcDbLine
 10
1008.876137839521
 20
1187.946711454853
 30
0.0
 11
993.1126571502112
 21
1187.946711454853
 31
0.0
  0
LINE
  5
13F
330
22
100
AcDbEntity
  8
_4-2_
  6
Continuous
 62
     7
100
AcDbLine
 10
993.1126571502112
 20
1187.946711454853
 30
0.0
 11
983.8761378395211
 21
1187.946711454853
 31
0.0
  0
LINE
  5
140
330
22
100
AcDbEntity
  8
_4-2_
  6
Continuous
 62
     7
100
AcDbLine
 10
983.8761378395211
 20
1187.946711454853
 30
0.0
 11
983.8761378395211
 21
1181.696711454853
 31
0.0
  0
LINE
  5
141
330
22
100
AcDbEntity
  8
_4-D_
  6
Continuous
 62
     4
100
AcDbLine
 10
988.0694710943132
 20
1175.25594236667
 30
0.0
 11
989.1740239512371
 21
1176.360495223595
 31
0.0
  0
LINE
  5
142
330
22
100
AcDbEntity
  8
_4-D_
  6
Continuous
 62
     4
100
AcDbLine
 10
986.3247986861674
 20
1177.046803864459
 30
0.0
 11
989.4568953098824
 21
1180.178900488174
 31
0.0
  0
LINE
  5
143
330
22
100
AcDbEntity
  8
_4-D_
  6
Continuous
 62
     4
100
AcDbLine
 10
984.8136378395212
 20
1179.071176923746
 30
0.0
 11
991.6654315728246
 21
1185.922970657049
 31
0.0
  0
LINE
  5
144
330
22
100
AcDbEntity
  8
_4-D_
  6
Continuous
 62
     4
100
AcDbLine
 10
983.903638464694
 20
1181.696711454851
 30
0.0
 11
990.1536384646954
 21
1187.946711454853
 31
0.0
  0
LINE
  5
145
330
22
100
AcDbEntity
  8
_4-D_
  6
Continuous
 62
     4
100
AcDbLine
 10
983.8761378395211
 20
1185.204744735612
 30
0.0
 11
986.6181045587618
 21
1187.946711454853
 31
0.0
  0
LINE
  5
146
330
22
100
AcDbEntity
  8
_4-B_
  6
Continuous
 62
     7
100
AcDbLine
 10
983.8761378395211
 20
1217.176208732757
 30
0.0
 11
1008.876137839521
 21
1217.176208732757
 31
0.0
  0
POINT
  5
147
330
22
100
AcDbEntity
  8
_4-B_
 62
     1
100
AcDbPoint
 10
983.8761378395211
 20
1217.176208732757
 30
0.0
  0
POINT
  5
148
330
22
100
AcDbEntity
  8
_4-B_
 62
     1
100
AcDbPoint
 10
1008.876137839521
 20
1217.176208732757
 30
0.0
  0
LINE
  5
149
330
22
100
AcDbEntity
  8
_4-B_
  6
Continuous
 62
     7
100
AcDbLine
 10
983.8761378395211
 20
1217.176208732757
 30
0.0
 11
983.8761378395211
 21
1194.94848023319
 31
0.0
  0
TEXT
  5
14A
330
22
100
AcDbEntity
  8
_4-B_
 62
     7
100
AcDbText
 10
961.9688875505721
 20
1219.676208732757
 30
0.0
 40
15.0
  1
40～60
100
AcDbText
  0
POINT
  5
14B
330
22
100
AcDbEntity
  8
_4-B_
 62
     1
100
AcDbPoint
 10
1371.901581125966
 20
1187.946711454853
 30
0.0
  0
LINE
  5
14C
330
22
100
AcDbEntity
  8
_4-B_
  6
Continuous
 62
     7
100
AcDbLine
 10
1371.901581125966
 20
1187.946711454853
 30
0.0
 11
1371.901581125966
 21
941.071711454853
 31
0.0
  0
LINE
  5
14D
330
22
100
AcDbEntity
  8
_4-B_
  6
Continuous
 62
     7
100
AcDbLine
 10
1371.901581125966
 20
1187.946711454853
 30
0.0
 11
1021.401858410612
 21
1187.946711454853
 31
0.0
  0
LINE
  5
14E
330
22
100
AcDbEntity
  8
_4-4_
  6
Continuous
 62
     2
100
AcDbLine
 10
1008.876137839521
 20
1319.196711454855
 30
0.0
 11
1008.876137839521
 21
1187.946711454853
 31
0.0
  0
TEXT
  5
14F
330
22
100
AcDbEntity
  8
_4-A_
 62
     7
100
AcDbText
 10
1041.815277243914
 20
1076.217810088735
 30
0.0
 40
15.0
  1
塩ビシート 接着工法
100
AcDbText
  0
LINE
  5
150
330
22
100
AcDbEntity
  8
_4-A_
  6
Continuous
 62
     7
100
AcDbLine
 10
1031.815277243914
 20
1083.717810088735
 30
0.0
 11
1005.318894312249
 21
1083.717810088735
 31
0.0
  0
LINE
  5
151
330
22
100
AcDbEntity
  8
_4-A_
  6
Continuous
 62
     7
100
AcDbLine
 10
987.0011378395211
 20
1051.990525197295
 30
0.0
 11
1005.318894312249
 21
1083.717810088735
 31
0.0
  0
TEXT
  5
152
330
22
100
AcDbEntity
  8
_4-A_
 62
     7
100
AcDbText
 10
1044.808318009351
 20
1126.217810088735
 30
0.0
 40
15.0
  1
Ｋ－８（ホルダー内、ロンシーラントＬ充填）
100
AcDbText
  0
TEXT
  5
153
330
22
100
AcDbEntity
  8
_4-A_
 62
     7
100
AcDbText
 10
1044.808318009351
 20
1151.217810088735
 30
0.0
 40
15.0
  1
ロンシーラントＳ
100
AcDbText
  0
LINE
  5
154
330
22
100
AcDbEntity
  8
_4-A_
  6
Continuous
 62
     7
100
AcDbLine
 10
1034.808318009351
 20
1158.717810088735
 30
0.0
 11
1001.856718652277
 21
1158.717810088735
 31
0.0
  0
LINE
  5
155
330
22
100
AcDbEntity
  8
_4-A_
  6
Continuous
 62
     7
100
AcDbLine
 10
987.9692693647491
 20
1182.771577842267
 30
0.0
 11
1001.856718652277
 21
1158.717810088735
 31
0.0
  0
LINE
  5
156
330
22
100
AcDbEntity
  8
_4-A_
  6
Continuous
 62
     7
100
AcDbLine
 10
987.9692693647491
 20
1164.837952948098
 30
0.0
 11
1005.936492221824
 21
1133.717810088735
 31
0.0
  0
LINE
  5
157
330
22
100
AcDbEntity
  8
_4-A_
  6
Continuous
 62
     7
100
AcDbLine
 10
1034.808318009351
 20
1133.717810088735
 30
0.0
 11
1005.936492221824
 21
1133.717810088735
 31
0.0
  0
LINE
  5
158
330
22
100
AcDbEntity
  8
_4-2_
  6
Continuous
 62
     7
100
AcDbLine
 10
983.8761378395211
 20
941.071711454853
 30
0.0
 11
1020.126137839522
 21
941.071711454853
 31
0.0
  0
LINE
  5
159
330
22
100
AcDbEntity
  8
_4-4_
  6
Continuous
 62
     2
100
AcDbLine
 10
987.0011378395211
 20
947.196711454853
 30
0.0
 11
987.0011378395211
 21
1159.086775836164
 31
0.0
  0
LINE
  5
15A
330
22
100
AcDbEntity
  8
_4-4_
  6
Continuous
 62
     2
100
AcDbLine
 10
990.0011378395205
 20
944.196711454853
 30
0.0
 11
1020.126137839522
 21
944.196711454853
 31
0.0
  0
ARC
  5
15B
330
22
100
AcDbEntity
  8
_4-4_
  6
Continuous
 62
     2
100
AcDbCircle
 10
990.0011378395205
 20
947.196711454853
 30
0.0
 40
3.0
100
AcDbArc
 50
180.0
 51
270.0
  0
ARC
  5
15C
330
22
100
AcDbEntity
  8
_4-2_
  6
Continuous
 62
     7
100
AcDbCircle
 10
990.0011378395205
 20
947.196711454853
 30
0.0
 40
6.125
100
AcDbArc
 50
180.0
 51
270.0
  0
LINE
  5
15D
330
22
100
AcDbEntity
  8
_4-3_
  6
Continuous
 62
     3
100
AcDbLine
 10
890.1261378395211
 20
1319.196711454855
 30
0.0
 11
890.1261378395211
 21
937.946711454853
 31
0.0
  0
LINE
  5
15E
330
22
100
AcDbEntity
  8
_4-3_
  6
Continuous
 62
     3
100
AcDbLine
 10
747.1101733474004
 20
937.946711454853
 30
0.0
 11
890.1261378395211
 21
937.946711454853
 31
0.0
  0
LINE
  5
15F
330
22
100
AcDbEntity
  8
_4-3_
  6
Continuous
 62
     3
100
AcDbLine
 10
747.1101733474004
 20
844.196711454853
 30
0.0
 11
1397.110173347399
 21
844.196711454853
 31
0.0
  0
TEXT
  5
160
330
22
100
AcDbEntity
  8
_4-B_
 62
     7
100
AcDbText
 10
989.8604109031017
 20
1017.145953955538
 30
0.0
 40
15.0
  1
40以上
100
AcDbText
  0
LINE
  5
161
330
22
100
AcDbEntity
  8
_4-7_
  6
Continuous
 62
     7
100
AcDbLine
 10
981.3164596064515
 20
1167.732220523662
 30
0.0
 11
983.8761378395211
 21
1167.732220523662
 31
0.0
  0
LINE
  5
162
330
22
100
AcDbEntity
  8
_4-7_
  6
Continuous
 62
     7
100
AcDbLine
 10
983.8761378395211
 20
1167.732220523662
 30
0.0
 11
983.8761378395211
 21
1169.607220523662
 31
0.0
  0
LINE
  5
163
330
22
100
AcDbEntity
  8
_4-7_
  6
Continuous
 62
     7
100
AcDbLine
 10
981.3164596064515
 20
1167.732220523662
 30
0.0
 11
980.801109031324
 21
1167.263470523662
 31
0.0
  0
LINE
  5
164
330
22
100
AcDbEntity
  8
_4-7_
  6
Continuous
 62
     7
100
AcDbLine
 10
980.801109031324
 20
1167.263470523662
 30
0.0
 11
979.4894804518774
 21
1167.263470523662
 31
0.0
  0
LINE
  5
165
330
22
100
AcDbEntity
  8
_4-7_
  6
Continuous
 62
     7
100
AcDbLine
 10
979.4894804518774
 20
1167.263470523662
 30
0.0
 11
976.9159846310968
 21
1167.606107554912
 31
0.0
  0
LINE
  5
166
330
22
100
AcDbEntity
  8
_4-7_
  6
Continuous
 62
     7
100
AcDbLine
 10
976.9159846310968
 20
1167.606107554912
 30
0.0
 11
976.6612255632706
 21
1167.757309898662
 31
0.0
  0
LINE
  5
167
330
22
100
AcDbEntity
  8
_4-7_
  6
Continuous
 62
     7
100
AcDbLine
 10
976.6612255632706
 20
1167.757309898662
 30
0.0
 11
976.6612255632706
 21
1167.732220523662
 31
0.0
  0
LINE
  5
168
330
22
100
AcDbEntity
  8
_4-7_
  6
Continuous
 62
     7
100
AcDbLine
 10
976.6612255632706
 20
1167.732220523662
 30
0.0
 11
975.5274536341469
 21
1167.732220523662
 31
0.0
  0
LINE
  5
169
330
22
100
AcDbEntity
  8
_4-7_
  6
Continuous
 62
     7
100
AcDbLine
 10
975.5274536341469
 20
1167.732220523662
 30
0.0
 11
975.0121027572717
 21
1168.002853374016
 31
0.0
  0
LINE
  5
16A
330
22
100
AcDbEntity
  8
_4-7_
  6
Continuous
 62
     7
100
AcDbLine
 10
974.857497494208
 20
1167.921663492412
 30
0.0
 11
974.857497494208
 21
1167.310345523662
 31
0.0
  0
LINE
  5
16B
330
22
100
AcDbEntity
  8
_4-7_
  6
Continuous
 62
     7
100
AcDbLine
 10
974.857497494208
 20
1167.310345523662
 30
0.0
 11
972.2116283730336
 21
1167.310345523662
 31
0.0
  0
LINE
  5
16C
330
22
100
AcDbEntity
  8
_4-7_
  6
Continuous
 62
     7
100
AcDbLine
 10
972.2116283730336
 20
1167.310345523662
 30
0.0
 11
971.610786969896
 21
1167.623763961161
 31
0.0
  0
LINE
  5
16D
330
22
100
AcDbEntity
  8
_4-7_
  6
Continuous
 62
     7
100
AcDbLine
 10
971.610786969896
 20
1167.623763961161
 30
0.0
 11
971.610786969896
 21
1167.626751773662
 31
0.0
  0
LINE
  5
16E
330
22
100
AcDbEntity
  8
_4-7_
  6
Continuous
 62
     7
100
AcDbLine
 10
971.6107871910104
 20
1167.626754381964
 30
0.0
 11
971.610786969896
 21
1167.626751773662
 31
0.0
  0
LINE
  5
16F
330
22
100
AcDbEntity
  8
_4-7_
  6
Continuous
 62
     7
100
AcDbLine
 10
971.6107871910104
 20
1167.626754381964
 30
0.0
 11
971.610786969896
 21
1167.626751773662
 31
0.0
  0
LINE
  5
170
330
22
100
AcDbEntity
  8
_4-7_
  6
Continuous
 62
     7
100
AcDbLine
 10
970.9408308299588
 20
1167.647121304912
 30
0.0
 11
970.9408308299588
 21
1167.310345523662
 31
0.0
  0
LINE
  5
171
330
22
100
AcDbEntity
  8
_4-7_
  6
Continuous
 62
     7
100
AcDbLine
 10
970.9408308299588
 20
1167.310345523662
 30
0.0
 11
967.3175601194754
 21
1167.310345523662
 31
0.0
  0
LINE
  5
172
330
22
100
AcDbEntity
  8
_4-7_
  6
Continuous
 62
     7
100
AcDbLine
 10
967.3175601194754
 20
1167.310345523662
 30
0.0
 11
966.7149655133719
 21
1167.626750015575
 31
0.0
  0
LINE
  5
173
330
22
100
AcDbEntity
  8
_4-7_
  6
Continuous
 62
     7
100
AcDbLine
 10
966.7149536395832
 20
1167.626751773662
 30
0.0
 11
967.0133607628583
 21
1167.628996542635
 31
0.0
  0
LINE
  5
174
330
22
100
AcDbEntity
  8
_4-7_
  6
Continuous
 62
     7
100
AcDbLine
 10
967.0133607628583
 20
1167.628996542635
 30
0.0
 11
967.024164165709
 21
1167.829421547399
 31
0.0
  0
LINE
  5
175
330
22
100
AcDbEntity
  8
_4-7_
  6
Continuous
 62
     7
100
AcDbLine
 10
967.1787694287717
 20
1167.928585322504
 30
0.0
 11
967.6941203056456
 21
1167.647121304912
 31
0.0
  0
LINE
  5
176
330
22
100
AcDbEntity
  8
_4-7_
  6
Continuous
 62
     7
100
AcDbLine
 10
967.6941203056456
 20
1167.647121304912
 30
0.0
 11
967.992527473768
 21
1167.647121209834
 31
0.0
  0
LINE
  5
177
330
22
100
AcDbEntity
  8
_4-7_
  6
Continuous
 62
     7
100
AcDbLine
 10
967.992527473768
 20
1167.647121209834
 30
0.0
 11
968.0033308317716
 21
1167.864641461162
 31
0.0
  0
LINE
  5
178
330
22
100
AcDbEntity
  8
_4-7_
  6
Continuous
 62
     7
100
AcDbLine
 10
968.157936094834
 20
1167.964385054737
 30
0.0
 11
968.6732869717094
 21
1167.647121304912
 31
0.0
  0
LINE
  5
179
330
22
100
AcDbEntity
  8
_4-7_
  6
Continuous
 62
     7
100
AcDbLine
 10
968.6732869717094
 20
1167.647121304912
 30
0.0
 11
968.9716941974015
 21
1167.647121304912
 31
0.0
  0
LINE
  5
17A
330
22
100
AcDbEntity
  8
_4-7_
  6
Continuous
 62
     7
100
AcDbLine
 10
968.9716941974015
 20
1167.647121304912
 30
0.0
 11
968.9824974978337
 21
1167.864641461162
 31
0.0
  0
LINE
  5
17B
330
22
100
AcDbEntity
  8
_4-7_
  6
Continuous
 62
     7
100
AcDbLine
 10
969.1371027608962
 20
1167.964385054737
 30
0.0
 11
969.6524536377715
 21
1167.647121304912
 31
0.0
  0
LINE
  5
17C
330
22
100
AcDbEntity
  8
_4-7_
  6
Continuous
 62
     7
100
AcDbLine
 10
969.6524536377715
 20
1167.647121304912
 30
0.0
 11
969.9508608634641
 21
1167.647121304912
 31
0.0
  0
LINE
  5
17D
330
22
100
AcDbEntity
  8
_4-7_
  6
Continuous
 62
     7
100
AcDbLine
 10
969.9508608634641
 20
1167.647121304912
 30
0.0
 11
969.9616641638963
 21
1167.864641461162
 31
0.0
  0
LINE
  5
17E
330
22
100
AcDbEntity
  8
_4-7_
  6
Continuous
 62
     7
100
AcDbLine
 10
970.1162694269587
 20
1167.964385054737
 30
0.0
 11
970.6316203038337
 21
1167.647121209834
 31
0.0
  0
LINE
  5
17F
330
22
100
AcDbEntity
  8
_4-7_
  6
Continuous
 62
     7
100
AcDbLine
 10
970.6316203038337
 20
1167.647121209834
 30
0.0
 11
970.9408308299588
 21
1167.647121304912
 31
0.0
  0
LINE
  5
180
330
22
100
AcDbEntity
  8
_4-7_
  6
Continuous
 62
     7
100
AcDbLine
 10
971.6107871910104
 20
1167.626754381964
 30
0.0
 11
971.9091943591317
 21
1167.629057632743
 31
0.0
  0
LINE
  5
181
330
22
100
AcDbEntity
  8
_4-7_
  6
Continuous
 62
     7
100
AcDbLine
 10
971.9091943591317
 20
1167.629057632743
 30
0.0
 11
971.9199974960213
 21
1167.827460679912
 31
0.0
  0
LINE
  5
182
330
22
100
AcDbEntity
  8
_4-7_
  6
Continuous
 62
     7
100
AcDbLine
 10
972.0746027590834
 20
1167.928768267612
 30
0.0
 11
972.5899536359586
 21
1167.647121209834
 31
0.0
  0
LINE
  5
183
330
22
100
AcDbEntity
  8
_4-7_
  6
Continuous
 62
     7
100
AcDbLine
 10
972.5899536359586
 20
1167.647121209834
 30
0.0
 11
972.8883608040801
 21
1167.647121209834
 31
0.0
  0
LINE
  5
184
330
22
100
AcDbEntity
  8
_4-7_
  6
Continuous
 62
     7
100
AcDbLine
 10
972.8883608040801
 20
1167.647121209834
 30
0.0
 11
972.8991641620835
 21
1167.864641461162
 31
0.0
  0
LINE
  5
185
330
22
100
AcDbEntity
  8
_4-7_
  6
Continuous
 62
     7
100
AcDbLine
 10
973.0537694251459
 20
1167.964385054737
 30
0.0
 11
973.5691203020209
 21
1167.647121304912
 31
0.0
  0
LINE
  5
186
330
22
100
AcDbEntity
  8
_4-7_
  6
Continuous
 62
     7
100
AcDbLine
 10
973.5691203020209
 20
1167.647121304912
 30
0.0
 11
973.8675274701423
 21
1167.647121209834
 31
0.0
  0
LINE
  5
187
330
22
100
AcDbEntity
  8
_4-7_
  6
Continuous
 62
     7
100
AcDbLine
 10
973.8675274701423
 20
1167.647121209834
 30
0.0
 11
973.8784755663708
 21
1167.865195268967
 31
0.0
  0
LINE
  5
188
330
22
100
AcDbEntity
  8
_4-7_
  6
Continuous
 62
     7
100
AcDbLine
 10
974.0329360912095
 20
1167.964385054737
 30
0.0
 11
974.5482869680833
 21
1167.647121209834
 31
0.0
  0
LINE
  5
189
330
22
100
AcDbEntity
  8
_4-7_
  6
Continuous
 62
     7
100
AcDbLine
 10
974.5482869680833
 20
1167.647121209834
 30
0.0
 11
974.857497494208
 21
1167.647121308353
 31
0.0
  0
LINE
  5
18A
330
22
100
AcDbEntity
  8
_4-7_
  6
Continuous
 62
     7
100
AcDbLine
 10
966.0449974996467
 20
1167.647121304912
 30
0.0
 11
966.0449974996467
 21
1167.310345523662
 31
0.0
  0
LINE
  5
18B
330
22
100
AcDbEntity
  8
_4-7_
  6
Continuous
 62
     7
100
AcDbLine
 10
966.0449974996467
 20
1167.310345523662
 30
0.0
 11
964.0148464153726
 21
1167.310345523662
 31
0.0
  0
LINE
  5
18C
330
22
100
AcDbEntity
  8
_4-7_
  6
Continuous
 62
     7
100
AcDbLine
 10
964.0148464153726
 20
1167.310345523662
 30
0.0
 11
961.8191203092713
 21
1167.626461617412
 31
0.0
  0
LINE
  5
18D
330
22
100
AcDbEntity
  8
_4-7_
  6
Continuous
 62
     7
100
AcDbLine
 10
961.8191203092713
 20
1167.626461617412
 30
0.0
 11
962.1175272368599
 21
1167.626920690952
 31
0.0
  0
LINE
  5
18E
330
22
100
AcDbEntity
  8
_4-7_
  6
Continuous
 62
     7
100
AcDbLine
 10
962.1175272368599
 20
1167.626920690952
 30
0.0
 11
962.1283308353961
 21
1167.819850992412
 31
0.0
  0
LINE
  5
18F
330
22
100
AcDbEntity
  8
_4-7_
  6
Continuous
 62
     7
100
AcDbLine
 10
961.8191203092713
 20
1167.626461617412
 30
0.0
 11
961.303769432396
 21
1167.897384624016
 31
0.0
  0
LINE
  5
190
330
22
100
AcDbEntity
  8
_4-7_
  6
Continuous
 62
     7
100
AcDbLine
 10
962.2829360984583
 20
1167.910198845405
 30
0.0
 11
962.7982869753335
 21
1167.628572386991
 31
0.0
  0
LINE
  5
191
330
22
100
AcDbEntity
  8
_4-7_
  6
Continuous
 62
     7
100
AcDbLine
 10
962.7982869753335
 20
1167.628572386991
 30
0.0
 11
963.0966939029208
 21
1167.629875452156
 31
0.0
  0
LINE
  5
192
330
22
100
AcDbEntity
  8
_4-7_
  6
Continuous
 62
     7
100
AcDbLine
 10
963.0966939029208
 20
1167.629875452156
 30
0.0
 11
963.1074975014584
 21
1167.831329742412
 31
0.0
  0
LINE
  5
193
330
22
100
AcDbEntity
  8
_4-7_
  6
Continuous
 62
     7
100
AcDbLine
 10
963.2621027645207
 20
1167.924145677298
 30
0.0
 11
963.7774534008624
 21
1167.634228265221
 31
0.0
  0
LINE
  5
194
330
22
100
AcDbEntity
  8
_4-7_
  6
Continuous
 62
     7
100
AcDbLine
 10
963.7774534008624
 20
1167.634228265221
 30
0.0
 11
964.0758605689843
 21
1167.636767540655
 31
0.0
  0
LINE
  5
195
330
22
100
AcDbEntity
  8
_4-7_
  6
Continuous
 62
     7
100
AcDbLine
 10
964.0758605689843
 20
1167.636767540655
 30
0.0
 11
964.0866641675209
 21
1167.845925887698
 31
0.0
  0
LINE
  5
196
330
22
100
AcDbEntity
  8
_4-7_
  6
Continuous
 62
     7
100
AcDbLine
 10
964.2412694305832
 20
1167.944210022803
 30
0.0
 11
964.7566200669256
 21
1167.644083382675
 31
0.0
  0
LINE
  5
197
330
22
100
AcDbEntity
  8
_4-7_
  6
Continuous
 62
     7
100
AcDbLine
 10
964.7566200669256
 20
1167.644083382675
 30
0.0
 11
965.0550275331507
 21
1167.647121304912
 31
0.0
  0
LINE
  5
198
330
22
100
AcDbEntity
  8
_4-7_
  6
Continuous
 62
     7
100
AcDbLine
 10
965.0550275331507
 20
1167.647121304912
 30
0.0
 11
965.0658308335843
 21
1167.864641461162
 31
0.0
  0
LINE
  5
199
330
22
100
AcDbEntity
  8
_4-7_
  6
Continuous
 62
     7
100
AcDbLine
 10
965.2204360966457
 20
1167.964385054737
 30
0.0
 11
965.7357869735207
 21
1167.647121209834
 31
0.0
  0
LINE
  5
19A
330
22
100
AcDbEntity
  8
_4-7_
  6
Continuous
 62
     7
100
AcDbLine
 10
965.7357869735207
 20
1167.647121209834
 30
0.0
 11
966.0449974996467
 21
1167.647121304912
 31
0.0
  0
LINE
  5
19B
330
22
100
AcDbEntity
  8
_4-7_
  6
Continuous
 62
     7
100
AcDbLine
 10
961.1491641693335
 20
1167.816194742411
 30
0.0
 11
961.1491641693335
 21
1167.732220523662
 31
0.0
  0
LINE
  5
19C
330
22
100
AcDbEntity
  8
_4-7_
  6
Continuous
 62
     7
100
AcDbLine
 10
961.1491641693335
 20
1167.732220523662
 30
0.0
 11
960.6595808363023
 21
1167.732220523662
 31
0.0
  0
LINE
  5
19D
330
22
100
AcDbEntity
  8
_4-7_
  6
Continuous
 62
     7
100
AcDbLine
 10
960.6595808363023
 20
1167.732220523662
 30
0.0
 11
960.6595808363023
 21
1167.825970523661
 31
0.0
  0
LINE
  5
19E
330
22
100
AcDbEntity
  8
_4-7_
  6
Continuous
 62
     7
100
AcDbLine
 10
960.6595808363023
 20
1167.825970523661
 30
0.0
 11
959.654646626396
 21
1167.825970523661
 31
0.0
  0
LINE
  5
19F
330
22
100
AcDbEntity
  8
_4-7_
  6
Continuous
 62
     7
100
AcDbLine
 10
959.654646626396
 20
1167.825970523661
 30
0.0
 11
959.654646626396
 21
1167.830012280413
 31
0.0
  0
LINE
  5
1A0
330
22
100
AcDbEntity
  8
_4-7_
  6
Continuous
 62
     7
100
AcDbLine
 10
959.448506275646
 20
1167.861434273662
 30
0.0
 11
955.7294802801344
 21
1167.861434365248
 31
0.0
  0
LINE
  5
1A1
330
22
100
AcDbEntity
  8
_4-7_
  6
Continuous
 62
     7
100
AcDbLine
 10
955.7294802801344
 20
1167.861434365248
 30
0.0
 11
955.3223422650338
 21
1168.136707711162
 31
0.0
  0
LINE
  5
1A2
330
22
100
AcDbEntity
  8
_4-7_
  6
Continuous
 62
     7
100
AcDbLine
 10
955.3223422650338
 20
1168.136707711162
 30
0.0
 11
954.5011378576461
 21
1168.763470523661
 31
0.0
  0
LINE
  5
1A3
330
22
100
AcDbEntity
  8
_4-7_
  6
Continuous
 62
     7
100
AcDbLine
 10
954.5011378576461
 20
1168.763470523661
 30
0.0
 11
954.5011378576461
 21
1168.856832073345
 31
0.0
  0
LINE
  5
1A4
330
22
100
AcDbEntity
  8
_4-7_
  6
Continuous
 62
     7
100
AcDbLine
 10
954.5011378576461
 20
1168.856832073345
 30
0.0
 11
955.7294802801344
 21
1168.178648255024
 31
0.0
  0
LINE
  5
1A5
330
22
100
AcDbEntity
  8
_4-7_
  6
Continuous
 62
     7
100
AcDbLine
 10
955.7294802801344
 20
1168.178648255024
 30
0.0
 11
958.2116641711465
 21
1168.178648179913
 31
0.0
  0
LINE
  5
1A6
330
22
100
AcDbEntity
  8
_4-7_
  6
Continuous
 62
     7
100
AcDbLine
 10
958.2116641711465
 20
1168.543250367411
 30
0.0
 11
955.7294803755709
 21
1168.543250196517
 31
0.0
  0
LINE
  5
1A7
330
22
100
AcDbEntity
  8
_4-7_
  6
Continuous
 62
     7
100
AcDbLine
 10
955.7294803755709
 20
1168.543250196517
 30
0.0
 11
954.5011378576461
 21
1169.221434174787
 31
0.0
  0
LINE
  5
1A8
330
22
100
AcDbEntity
  8
_4-7_
  6
Continuous
 62
     7
100
AcDbLine
 10
954.5011378576461
 20
1169.221434174787
 30
0.0
 11
954.5011378576461
 21
1169.607220523662
 31
0.0
  0
LINE
  5
1A9
330
22
100
AcDbEntity
  8
_4-7_
  6
Continuous
 62
     7
100
AcDbLine
 10
975.0248523901872
 20
1167.996157957985
 30
0.0
 11
975.0248523901872
 21
1167.996157957985
 31
0.0
  0
LINE
  5
1AA
330
22
100
AcDbEntity
  8
_4-7_
  6
Continuous
 62
     7
100
AcDbLine
 10
975.0248523901872
 20
1167.996157957985
 30
0.0
 11
975.0084402930768
 21
1168.004406786332
 31
0.0
  0
LINE
  5
1AB
330
22
100
AcDbEntity
  8
_4-7_
  6
Continuous
 62
     7
100
AcDbLine
 10
975.0084402930768
 20
1168.004406786332
 30
0.0
 11
974.9907027368463
 21
1168.009938072189
 31
0.0
  0
LINE
  5
1AC
330
22
100
AcDbEntity
  8
_4-7_
  6
Continuous
 62
     7
100
AcDbLine
 10
974.9907027368463
 20
1168.009938072189
 30
0.0
 11
974.9721786681661
 21
1168.012583750234
 31
0.0
  0
LINE
  5
1AD
330
22
100
AcDbEntity
  8
_4-7_
  6
Continuous
 62
     7
100
AcDbLine
 10
974.9721786681661
 20
1168.012583750234
 30
0.0
 11
974.9534309314892
 21
1168.01226343288
 31
0.0
  0
LINE
  5
1AE
330
22
100
AcDbEntity
  8
_4-7_
  6
Continuous
 62
     7
100
AcDbLine
 10
974.9534309314892
 20
1168.01226343288
 30
0.0
 11
974.935029167308
 21
1168.008986852806
 31
0.0
  0
LINE
  5
1AF
330
22
100
AcDbEntity
  8
_4-7_
  6
Continuous
 62
     7
100
AcDbLine
 10
974.935029167308
 20
1168.008986852806
 30
0.0
 11
974.9175325039152
 21
1168.00285356724
 31
0.0
  0
LINE
  5
1B0
330
22
100
AcDbEntity
  8
_4-7_
  6
Continuous
 62
     7
100
AcDbLine
 10
974.9175325039152
 20
1168.00285356724
 30
0.0
 11
974.9014725685745
 21
1167.994049932961
 31
0.0
  0
LINE
  5
1B1
330
22
100
AcDbEntity
  8
_4-7_
  6
Continuous
 62
     7
100
AcDbLine
 10
974.9014725685745
 20
1167.994049932961
 30
0.0
 11
974.8873373342943
 21
1167.982843443941
 31
0.0
  0
LINE
  5
1B2
330
22
100
AcDbEntity
  8
_4-7_
  6
Continuous
 62
     7
100
AcDbLine
 10
974.8873373342943
 20
1167.982843443941
 30
0.0
 11
974.8755562930154
 21
1167.969574603678
 31
0.0
  0
LINE
  5
1B3
330
22
100
AcDbEntity
  8
_4-7_
  6
Continuous
 62
     7
100
AcDbLine
 10
974.8755562930154
 20
1167.969574603678
 30
0.0
 11
974.8664874057158
 21
1167.95464657917
 31
0.0
  0
LINE
  5
1B4
330
22
100
AcDbEntity
  8
_4-7_
  6
Continuous
 62
     7
100
AcDbLine
 10
974.8664874057158
 20
1167.95464657917
 30
0.0
 11
974.8604062259468
 21
1167.938512950886
 31
0.0
  0
LINE
  5
1B5
330
22
100
AcDbEntity
  8
_4-7_
  6
Continuous
 62
     7
100
AcDbLine
 10
974.8604062259468
 20
1167.938512950886
 30
0.0
 11
974.8574975272784
 21
1167.921663930959
 31
0.0
  0
LINE
  5
1B6
330
22
100
AcDbEntity
  8
_4-7_
  6
Continuous
 62
     7
100
AcDbLine
 10
974.8574975272784
 20
1167.921663930959
 30
0.0
 11
974.8574974942084
 21
1167.921663492412
 31
0.0
  0
LINE
  5
1B7
330
22
100
AcDbEntity
  8
_4-7_
  6
Continuous
 62
     7
100
AcDbLine
 10
974.032936091209
 20
1167.964385054737
 30
0.0
 11
974.032936091209
 21
1167.964385054737
 31
0.0
  0
LINE
  5
1B8
330
22
100
AcDbEntity
  8
_4-7_
  6
Continuous
 62
     7
100
AcDbLine
 10
974.032936091209
 20
1167.964385054737
 30
0.0
 11
974.0079622449664
 21
1167.96480449573
 31
0.0
  0
LINE
  5
1B9
330
22
100
AcDbEntity
  8
_4-7_
  6
Continuous
 62
     7
100
AcDbLine
 10
974.0079622449664
 20
1167.96480449573
 30
0.0
 11
973.9832877314777
 21
1167.961273046627
 31
0.0
  0
LINE
  5
1BA
330
22
100
AcDbEntity
  8
_4-7_
  6
Continuous
 62
     7
100
AcDbLine
 10
973.9832877314777
 20
1167.961273046627
 30
0.0
 11
973.9596622733486
 21
1167.953898008724
 31
0.0
  0
LINE
  5
1BB
330
22
100
AcDbEntity
  8
_4-7_
  6
Continuous
 62
     7
100
AcDbLine
 10
973.9596622733486
 20
1167.953898008724
 30
0.0
 11
973.9378037181705
 21
1167.942903468815
 31
0.0
  0
LINE
  5
1BC
330
22
100
AcDbEntity
  8
_4-7_
  6
Continuous
 62
     7
100
AcDbLine
 10
973.9378037181705
 20
1167.942903468815
 30
0.0
 11
973.9183762270807
 21
1167.928623490432
 31
0.0
  0
LINE
  5
1BD
330
22
100
AcDbEntity
  8
_4-7_
  6
Continuous
 62
     7
100
AcDbLine
 10
973.9183762270807
 20
1167.928623490432
 30
0.0
 11
973.9019700945656
 21
1167.911491963492
 31
0.0
  0
LINE
  5
1BE
330
22
100
AcDbEntity
  8
_4-7_
  6
Continuous
 62
     7
100
AcDbLine
 10
973.9019700945656
 20
1167.911491963492
 30
0.0
 11
973.8890838126595
 21
1167.892029420773
 31
0.0
  0
LINE
  5
1BF
330
22
100
AcDbEntity
  8
_4-7_
  6
Continuous
 62
     7
100
AcDbLine
 10
973.8890838126595
 20
1167.892029420773
 30
0.0
 11
973.8801089245177
 21
1167.870827221785
 31
0.0
  0
LINE
  5
1C0
330
22
100
AcDbEntity
  8
_4-7_
  6
Continuous
 62
     7
100
AcDbLine
 10
973.8801089245177
 20
1167.870827221785
 30
0.0
 11
973.8783308281464
 21
1167.864641461162
 31
0.0
  0
LINE
  5
1C1
330
22
100
AcDbEntity
  8
_4-7_
  6
Continuous
 62
     7
100
AcDbLine
 10
973.0537694251456
 20
1167.964385054737
 30
0.0
 11
973.0537694251456
 21
1167.964385054737
 31
0.0
  0
LINE
  5
1C2
330
22
100
AcDbEntity
  8
_4-7_
  6
Continuous
 62
     7
100
AcDbLine
 10
973.0537694251456
 20
1167.964385054737
 30
0.0
 11
973.0287955789027
 21
1167.96480449573
 31
0.0
  0
LINE
  5
1C3
330
22
100
AcDbEntity
  8
_4-7_
  6
Continuous
 62
     7
100
AcDbLine
 10
973.0287955789027
 20
1167.96480449573
 30
0.0
 11
973.0041210654141
 21
1167.961273046627
 31
0.0
  0
LINE
  5
1C4
330
22
100
AcDbEntity
  8
_4-7_
  6
Continuous
 62
     7
100
AcDbLine
 10
973.0041210654141
 20
1167.961273046627
 30
0.0
 11
972.9804956072852
 21
1167.953898008724
 31
0.0
  0
LINE
  5
1C5
330
22
100
AcDbEntity
  8
_4-7_
  6
Continuous
 62
     7
100
AcDbLine
 10
972.9804956072852
 20
1167.953898008724
 30
0.0
 11
972.9586370521069
 21
1167.942903468815
 31
0.0
  0
LINE
  5
1C6
330
22
100
AcDbEntity
  8
_4-7_
  6
Continuous
 62
     7
100
AcDbLine
 10
972.9586370521069
 20
1167.942903468815
 30
0.0
 11
972.9392095610172
 21
1167.928623490432
 31
0.0
  0
LINE
  5
1C7
330
22
100
AcDbEntity
  8
_4-7_
  6
Continuous
 62
     7
100
AcDbLine
 10
972.9392095610172
 20
1167.928623490432
 30
0.0
 11
972.9228034285021
 21
1167.911491963492
 31
0.0
  0
LINE
  5
1C8
330
22
100
AcDbEntity
  8
_4-7_
  6
Continuous
 62
     7
100
AcDbLine
 10
972.9228034285021
 20
1167.911491963492
 30
0.0
 11
972.9099171465961
 21
1167.892029420773
 31
0.0
  0
LINE
  5
1C9
330
22
100
AcDbEntity
  8
_4-7_
  6
Continuous
 62
     7
100
AcDbLine
 10
972.9099171465961
 20
1167.892029420773
 30
0.0
 11
972.9009422584541
 21
1167.870827221785
 31
0.0
  0
LINE
  5
1CA
330
22
100
AcDbEntity
  8
_4-7_
  6
Continuous
 62
     7
100
AcDbLine
 10
972.9009422584541
 20
1167.870827221785
 30
0.0
 11
972.8991641620829
 21
1167.864641461162
 31
0.0
  0
LINE
  5
1CB
330
22
100
AcDbEntity
  8
_4-7_
  6
Continuous
 62
     7
100
AcDbLine
 10
972.0746027590832
 20
1167.928768267611
 30
0.0
 11
972.0746027590832
 21
1167.928768267611
 31
0.0
  0
LINE
  5
1CC
330
22
100
AcDbEntity
  8
_4-7_
  6
Continuous
 62
     7
100
AcDbLine
 10
972.0746027590832
 20
1167.928768267611
 30
0.0
 11
972.0496289128405
 21
1167.929187708603
 31
0.0
  0
LINE
  5
1CD
330
22
100
AcDbEntity
  8
_4-7_
  6
Continuous
 62
     7
100
AcDbLine
 10
972.0496289128405
 20
1167.929187708603
 30
0.0
 11
972.0249543993515
 21
1167.925656259501
 31
0.0
  0
LINE
  5
1CE
330
22
100
AcDbEntity
  8
_4-7_
  6
Continuous
 62
     7
100
AcDbLine
 10
972.0249543993515
 20
1167.925656259501
 30
0.0
 11
972.0013289412227
 21
1167.918281221598
 31
0.0
  0
LINE
  5
1CF
330
22
100
AcDbEntity
  8
_4-7_
  6
Continuous
 62
     7
100
AcDbLine
 10
972.0013289412227
 20
1167.918281221598
 30
0.0
 11
971.9794703860447
 21
1167.907286681689
 31
0.0
  0
LINE
  5
1D0
330
22
100
AcDbEntity
  8
_4-7_
  6
Continuous
 62
     7
100
AcDbLine
 10
971.9794703860447
 20
1167.907286681689
 30
0.0
 11
971.9600428949549
 21
1167.893006703306
 31
0.0
  0
LINE
  5
1D1
330
22
100
AcDbEntity
  8
_4-7_
  6
Continuous
 62
     7
100
AcDbLine
 10
971.9600428949549
 20
1167.893006703306
 30
0.0
 11
971.9436367624398
 21
1167.875875176366
 31
0.0
  0
LINE
  5
1D2
330
22
100
AcDbEntity
  8
_4-7_
  6
Continuous
 62
     7
100
AcDbLine
 10
971.9436367624398
 20
1167.875875176366
 30
0.0
 11
971.9307504805335
 21
1167.856412633646
 31
0.0
  0
LINE
  5
1D3
330
22
100
AcDbEntity
  8
_4-7_
  6
Continuous
 62
     7
100
AcDbLine
 10
971.9307504805335
 20
1167.856412633646
 30
0.0
 11
971.9217755923917
 21
1167.835210434659
 31
0.0
  0
LINE
  5
1D4
330
22
100
AcDbEntity
  8
_4-7_
  6
Continuous
 62
     7
100
AcDbLine
 10
971.9217755923917
 20
1167.835210434659
 30
0.0
 11
971.9199974960206
 21
1167.829024674036
 31
0.0
  0
LINE
  5
1D5
330
22
100
AcDbEntity
  8
_4-7_
  6
Continuous
 62
     7
100
AcDbLine
 10
970.1162694269582
 20
1167.964385054737
 30
0.0
 11
970.1162694269582
 21
1167.964385054737
 31
0.0
  0
LINE
  5
1D6
330
22
100
AcDbEntity
  8
_4-7_
  6
Continuous
 62
     7
100
AcDbLine
 10
970.1162694269582
 20
1167.964385054737
 30
0.0
 11
970.0912955807154
 21
1167.96480449573
 31
0.0
  0
LINE
  5
1D7
330
22
100
AcDbEntity
  8
_4-7_
  6
Continuous
 62
     7
100
AcDbLine
 10
970.0912955807154
 20
1167.96480449573
 30
0.0
 11
970.0666210672268
 21
1167.961273046627
 31
0.0
  0
LINE
  5
1D8
330
22
100
AcDbEntity
  8
_4-7_
  6
Continuous
 62
     7
100
AcDbLine
 10
970.0666210672268
 20
1167.961273046627
 30
0.0
 11
970.042995609098
 21
1167.953898008724
 31
0.0
  0
LINE
  5
1D9
330
22
100
AcDbEntity
  8
_4-7_
  6
Continuous
 62
     7
100
AcDbLine
 10
970.042995609098
 20
1167.953898008724
 30
0.0
 11
970.02113705392
 21
1167.942903468815
 31
0.0
  0
LINE
  5
1DA
330
22
100
AcDbEntity
  8
_4-7_
  6
Continuous
 62
     7
100
AcDbLine
 10
970.02113705392
 20
1167.942903468815
 30
0.0
 11
970.0017095628302
 21
1167.928623490432
 31
0.0
  0
LINE
  5
1DB
330
22
100
AcDbEntity
  8
_4-7_
  6
Continuous
 62
     7
100
AcDbLine
 10
970.0017095628302
 20
1167.928623490432
 30
0.0
 11
969.9853034303149
 21
1167.911491963492
 31
0.0
  0
LINE
  5
1DC
330
22
100
AcDbEntity
  8
_4-7_
  6
Continuous
 62
     7
100
AcDbLine
 10
969.9853034303149
 20
1167.911491963492
 30
0.0
 11
969.9724171484088
 21
1167.892029420773
 31
0.0
  0
LINE
  5
1DD
330
22
100
AcDbEntity
  8
_4-7_
  6
Continuous
 62
     7
100
AcDbLine
 10
969.9724171484088
 20
1167.892029420773
 30
0.0
 11
969.9634422602667
 21
1167.870827221785
 31
0.0
  0
LINE
  5
1DE
330
22
100
AcDbEntity
  8
_4-7_
  6
Continuous
 62
     7
100
AcDbLine
 10
969.9634422602667
 20
1167.870827221785
 30
0.0
 11
969.9616641638959
 21
1167.864641461162
 31
0.0
  0
LINE
  5
1DF
330
22
100
AcDbEntity
  8
_4-7_
  6
Continuous
 62
     7
100
AcDbLine
 10
969.137102760896
 20
1167.964385054737
 30
0.0
 11
969.137102760896
 21
1167.964385054737
 31
0.0
  0
LINE
  5
1E0
330
22
100
AcDbEntity
  8
_4-7_
  6
Continuous
 62
     7
100
AcDbLine
 10
969.137102760896
 20
1167.964385054737
 30
0.0
 11
969.1121289146531
 21
1167.96480449573
 31
0.0
  0
LINE
  5
1E1
330
22
100
AcDbEntity
  8
_4-7_
  6
Continuous
 62
     7
100
AcDbLine
 10
969.1121289146531
 20
1167.96480449573
 30
0.0
 11
969.0874544011645
 21
1167.961273046627
 31
0.0
  0
LINE
  5
1E2
330
22
100
AcDbEntity
  8
_4-7_
  6
Continuous
 62
     7
100
AcDbLine
 10
969.0874544011645
 20
1167.961273046627
 30
0.0
 11
969.0638289430355
 21
1167.953898008724
 31
0.0
  0
LINE
  5
1E3
330
22
100
AcDbEntity
  8
_4-7_
  6
Continuous
 62
     7
100
AcDbLine
 10
969.0638289430355
 20
1167.953898008724
 30
0.0
 11
969.0419703878577
 21
1167.942903468815
 31
0.0
  0
LINE
  5
1E4
330
22
100
AcDbEntity
  8
_4-7_
  6
Continuous
 62
     7
100
AcDbLine
 10
969.0419703878577
 20
1167.942903468815
 30
0.0
 11
969.0225428967679
 21
1167.928623490432
 31
0.0
  0
LINE
  5
1E5
330
22
100
AcDbEntity
  8
_4-7_
  6
Continuous
 62
     7
100
AcDbLine
 10
969.0225428967679
 20
1167.928623490432
 30
0.0
 11
969.0061367642528
 21
1167.911491963492
 31
0.0
  0
LINE
  5
1E6
330
22
100
AcDbEntity
  8
_4-7_
  6
Continuous
 62
     7
100
AcDbLine
 10
969.0061367642528
 20
1167.911491963492
 30
0.0
 11
968.9932504823463
 21
1167.892029420773
 31
0.0
  0
LINE
  5
1E7
330
22
100
AcDbEntity
  8
_4-7_
  6
Continuous
 62
     7
100
AcDbLine
 10
968.9932504823463
 20
1167.892029420773
 30
0.0
 11
968.9842755942045
 21
1167.870827221785
 31
0.0
  0
LINE
  5
1E8
330
22
100
AcDbEntity
  8
_4-7_
  6
Continuous
 62
     7
100
AcDbLine
 10
968.9842755942045
 20
1167.870827221785
 30
0.0
 11
968.9824974978336
 21
1167.864641461162
 31
0.0
  0
LINE
  5
1E9
330
22
100
AcDbEntity
  8
_4-7_
  6
Continuous
 62
     7
100
AcDbLine
 10
968.1579360948337
 20
1167.964385054737
 30
0.0
 11
968.1579360948337
 21
1167.964385054737
 31
0.0
  0
LINE
  5
1EA
330
22
100
AcDbEntity
  8
_4-7_
  6
Continuous
 62
     7
100
AcDbLine
 10
968.1579360948337
 20
1167.964385054737
 30
0.0
 11
968.1329622485908
 21
1167.96480449573
 31
0.0
  0
LINE
  5
1EB
330
22
100
AcDbEntity
  8
_4-7_
  6
Continuous
 62
     7
100
AcDbLine
 10
968.1329622485908
 20
1167.96480449573
 30
0.0
 11
968.108287735102
 21
1167.961273046627
 31
0.0
  0
LINE
  5
1EC
330
22
100
AcDbEntity
  8
_4-7_
  6
Continuous
 62
     7
100
AcDbLine
 10
968.108287735102
 20
1167.961273046627
 30
0.0
 11
968.0846622769733
 21
1167.953898008724
 31
0.0
  0
LINE
  5
1ED
330
22
100
AcDbEntity
  8
_4-7_
  6
Continuous
 62
     7
100
AcDbLine
 10
968.0846622769733
 20
1167.953898008724
 30
0.0
 11
968.0628037217951
 21
1167.942903468815
 31
0.0
  0
LINE
  5
1EE
330
22
100
AcDbEntity
  8
_4-7_
  6
Continuous
 62
     7
100
AcDbLine
 10
968.0628037217951
 20
1167.942903468815
 30
0.0
 11
968.0433762307055
 21
1167.928623490432
 31
0.0
  0
LINE
  5
1EF
330
22
100
AcDbEntity
  8
_4-7_
  6
Continuous
 62
     7
100
AcDbLine
 10
968.0433762307055
 20
1167.928623490432
 30
0.0
 11
968.0269700981902
 21
1167.911491963492
 31
0.0
  0
LINE
  5
1F0
330
22
100
AcDbEntity
  8
_4-7_
  6
Continuous
 62
     7
100
AcDbLine
 10
968.0269700981902
 20
1167.911491963492
 30
0.0
 11
968.014083816284
 21
1167.892029420773
 31
0.0
  0
LINE
  5
1F1
330
22
100
AcDbEntity
  8
_4-7_
  6
Continuous
 62
     7
100
AcDbLine
 10
968.014083816284
 20
1167.892029420773
 30
0.0
 11
968.0051089281421
 21
1167.870827221785
 31
0.0
  0
LINE
  5
1F2
330
22
100
AcDbEntity
  8
_4-7_
  6
Continuous
 62
     7
100
AcDbLine
 10
968.0051089281421
 20
1167.870827221785
 30
0.0
 11
968.0033308317712
 21
1167.864641461162
 31
0.0
  0
LINE
  5
1F3
330
22
100
AcDbEntity
  8
_4-7_
  6
Continuous
 62
     7
100
AcDbLine
 10
967.1787694287713
 20
1167.928585322504
 30
0.0
 11
967.1787694287713
 21
1167.928585322504
 31
0.0
  0
LINE
  5
1F4
330
22
100
AcDbEntity
  8
_4-7_
  6
Continuous
 62
     7
100
AcDbLine
 10
967.1787694287713
 20
1167.928585322504
 30
0.0
 11
967.1537955825284
 21
1167.929004763496
 31
0.0
  0
LINE
  5
1F5
330
22
100
AcDbEntity
  8
_4-7_
  6
Continuous
 62
     7
100
AcDbLine
 10
967.1537955825284
 20
1167.929004763496
 30
0.0
 11
967.1291210690396
 21
1167.925473314394
 31
0.0
  0
LINE
  5
1F6
330
22
100
AcDbEntity
  8
_4-7_
  6
Continuous
 62
     7
100
AcDbLine
 10
967.1291210690396
 20
1167.925473314394
 30
0.0
 11
967.1054956109109
 21
1167.918098276491
 31
0.0
  0
LINE
  5
1F7
330
22
100
AcDbEntity
  8
_4-7_
  6
Continuous
 62
     7
100
AcDbLine
 10
967.1054956109109
 20
1167.918098276491
 30
0.0
 11
967.0836370557328
 21
1167.907103736582
 31
0.0
  0
LINE
  5
1F8
330
22
100
AcDbEntity
  8
_4-7_
  6
Continuous
 62
     7
100
AcDbLine
 10
967.0836370557328
 20
1167.907103736582
 30
0.0
 11
967.0642095646433
 21
1167.892823758199
 31
0.0
  0
LINE
  5
1F9
330
22
100
AcDbEntity
  8
_4-7_
  6
Continuous
 62
     7
100
AcDbLine
 10
967.0642095646433
 20
1167.892823758199
 30
0.0
 11
967.0478034321281
 21
1167.875692231259
 31
0.0
  0
LINE
  5
1FA
330
22
100
AcDbEntity
  8
_4-7_
  6
Continuous
 62
     7
100
AcDbLine
 10
967.0478034321281
 20
1167.875692231259
 30
0.0
 11
967.0349171502214
 21
1167.856229688539
 31
0.0
  0
LINE
  5
1FB
330
22
100
AcDbEntity
  8
_4-7_
  6
Continuous
 62
     7
100
AcDbLine
 10
967.0349171502214
 20
1167.856229688539
 30
0.0
 11
967.0259422620796
 21
1167.835027489552
 31
0.0
  0
LINE
  5
1FC
330
22
100
AcDbEntity
  8
_4-7_
  6
Continuous
 62
     7
100
AcDbLine
 10
967.0259422620796
 20
1167.835027489552
 30
0.0
 11
967.0241641657087
 21
1167.828841728929
 31
0.0
  0
LINE
  5
1FD
330
22
100
AcDbEntity
  8
_4-7_
  6
Continuous
 62
     7
100
AcDbLine
 10
965.2204360966466
 20
1167.964385054737
 30
0.0
 11
965.2204360966466
 21
1167.964385054737
 31
0.0
  0
LINE
  5
1FE
330
22
100
AcDbEntity
  8
_4-7_
  6
Continuous
 62
     7
100
AcDbLine
 10
965.2204360966466
 20
1167.964385054737
 30
0.0
 11
965.1954622504039
 21
1167.96480449573
 31
0.0
  0
LINE
  5
1FF
330
22
100
AcDbEntity
  8
_4-7_
  6
Continuous
 62
     7
100
AcDbLine
 10
965.1954622504039
 20
1167.96480449573
 30
0.0
 11
965.1707877369148
 21
1167.961273046627
 31
0.0
  0
LINE
  5
200
330
22
100
AcDbEntity
  8
_4-7_
  6
Continuous
 62
     7
100
AcDbLine
 10
965.1707877369148
 20
1167.961273046627
 30
0.0
 11
965.1471622787864
 21
1167.953898008724
 31
0.0
  0
LINE
  5
201
330
22
100
AcDbEntity
  8
_4-7_
  6
Continuous
 62
     7
100
AcDbLine
 10
965.1471622787864
 20
1167.953898008724
 30
0.0
 11
965.1253037236079
 21
1167.942903468815
 31
0.0
  0
LINE
  5
202
330
22
100
AcDbEntity
  8
_4-7_
  6
Continuous
 62
     7
100
AcDbLine
 10
965.1253037236079
 20
1167.942903468815
 30
0.0
 11
965.1058762325183
 21
1167.928623490432
 31
0.0
  0
LINE
  5
203
330
22
100
AcDbEntity
  8
_4-7_
  6
Continuous
 62
     7
100
AcDbLine
 10
965.1058762325183
 20
1167.928623490432
 30
0.0
 11
965.0894701000032
 21
1167.911491963492
 31
0.0
  0
LINE
  5
204
330
22
100
AcDbEntity
  8
_4-7_
  6
Continuous
 62
     7
100
AcDbLine
 10
965.0894701000032
 20
1167.911491963492
 30
0.0
 11
965.0765838180969
 21
1167.892029420773
 31
0.0
  0
LINE
  5
205
330
22
100
AcDbEntity
  8
_4-7_
  6
Continuous
 62
     7
100
AcDbLine
 10
965.0765838180969
 20
1167.892029420773
 30
0.0
 11
965.0676089299549
 21
1167.870827221785
 31
0.0
  0
LINE
  5
206
330
22
100
AcDbEntity
  8
_4-7_
  6
Continuous
 62
     7
100
AcDbLine
 10
965.0676089299549
 20
1167.870827221785
 30
0.0
 11
965.065830833584
 21
1167.864641461162
 31
0.0
  0
LINE
  5
207
330
22
100
AcDbEntity
  8
_4-7_
  6
Continuous
 62
     7
100
AcDbLine
 10
964.2412694305827
 20
1167.944210022804
 30
0.0
 11
964.2412694305827
 21
1167.944210022804
 31
0.0
  0
LINE
  5
208
330
22
100
AcDbEntity
  8
_4-7_
  6
Continuous
 62
     7
100
AcDbLine
 10
964.2412694305827
 20
1167.944210022804
 30
0.0
 11
964.2162955843403
 21
1167.944629463796
 31
0.0
  0
LINE
  5
209
330
22
100
AcDbEntity
  8
_4-7_
  6
Continuous
 62
     7
100
AcDbLine
 10
964.2162955843403
 20
1167.944629463796
 30
0.0
 11
964.1916210708513
 21
1167.941098014693
 31
0.0
  0
LINE
  5
20A
330
22
100
AcDbEntity
  8
_4-7_
  6
Continuous
 62
     7
100
AcDbLine
 10
964.1916210708513
 20
1167.941098014693
 30
0.0
 11
964.167995612723
 21
1167.93372297679
 31
0.0
  0
LINE
  5
20B
330
22
100
AcDbEntity
  8
_4-7_
  6
Continuous
 62
     7
100
AcDbLine
 10
964.167995612723
 20
1167.93372297679
 30
0.0
 11
964.1461370575443
 21
1167.922728436882
 31
0.0
  0
LINE
  5
20C
330
22
100
AcDbEntity
  8
_4-7_
  6
Continuous
 62
     7
100
AcDbLine
 10
964.1461370575443
 20
1167.922728436882
 30
0.0
 11
964.1267095664549
 21
1167.908448458498
 31
0.0
  0
LINE
  5
20D
330
22
100
AcDbEntity
  8
_4-7_
  6
Continuous
 62
     7
100
AcDbLine
 10
964.1267095664549
 20
1167.908448458498
 30
0.0
 11
964.1103034339394
 21
1167.891316931559
 31
0.0
  0
LINE
  5
20E
330
22
100
AcDbEntity
  8
_4-7_
  6
Continuous
 62
     7
100
AcDbLine
 10
964.1103034339394
 20
1167.891316931559
 30
0.0
 11
964.0974171520335
 21
1167.87185438884
 31
0.0
  0
LINE
  5
20F
330
22
100
AcDbEntity
  8
_4-7_
  6
Continuous
 62
     7
100
AcDbLine
 10
964.0974171520335
 20
1167.87185438884
 30
0.0
 11
964.0884422638915
 21
1167.850652189852
 31
0.0
  0
LINE
  5
210
330
22
100
AcDbEntity
  8
_4-7_
  6
Continuous
 62
     7
100
AcDbLine
 10
964.0884422638915
 20
1167.850652189852
 30
0.0
 11
964.0866641675204
 21
1167.844466429229
 31
0.0
  0
LINE
  5
211
330
22
100
AcDbEntity
  8
_4-7_
  6
Continuous
 62
     7
100
AcDbLine
 10
963.2621027645205
 20
1167.924145677298
 30
0.0
 11
963.2621027645205
 21
1167.924145677298
 31
0.0
  0
LINE
  5
212
330
22
100
AcDbEntity
  8
_4-7_
  6
Continuous
 62
     7
100
AcDbLine
 10
963.2621027645205
 20
1167.924145677298
 30
0.0
 11
963.2371289182779
 21
1167.92456511829
 31
0.0
  0
LINE
  5
213
330
22
100
AcDbEntity
  8
_4-7_
  6
Continuous
 62
     7
100
AcDbLine
 10
963.2371289182779
 20
1167.92456511829
 30
0.0
 11
963.212454404789
 21
1167.921033669187
 31
0.0
  0
LINE
  5
214
330
22
100
AcDbEntity
  8
_4-7_
  6
Continuous
 62
     7
100
AcDbLine
 10
963.212454404789
 20
1167.921033669187
 30
0.0
 11
963.1888289466605
 21
1167.913658631285
 31
0.0
  0
LINE
  5
215
330
22
100
AcDbEntity
  8
_4-7_
  6
Continuous
 62
     7
100
AcDbLine
 10
963.1888289466605
 20
1167.913658631285
 30
0.0
 11
963.166970391482
 21
1167.902664091376
 31
0.0
  0
LINE
  5
216
330
22
100
AcDbEntity
  8
_4-7_
  6
Continuous
 62
     7
100
AcDbLine
 10
963.166970391482
 20
1167.902664091376
 30
0.0
 11
963.1475429003923
 21
1167.888384112993
 31
0.0
  0
LINE
  5
217
330
22
100
AcDbEntity
  8
_4-7_
  6
Continuous
 62
     7
100
AcDbLine
 10
963.1475429003923
 20
1167.888384112993
 30
0.0
 11
963.1311367678772
 21
1167.871252586053
 31
0.0
  0
LINE
  5
218
330
22
100
AcDbEntity
  8
_4-7_
  6
Continuous
 62
     7
100
AcDbLine
 10
963.1311367678772
 20
1167.871252586053
 30
0.0
 11
963.1182504859712
 21
1167.851790043333
 31
0.0
  0
LINE
  5
219
330
22
100
AcDbEntity
  8
_4-7_
  6
Continuous
 62
     7
100
AcDbLine
 10
963.1182504859712
 20
1167.851790043333
 30
0.0
 11
963.109275597829
 21
1167.830587844346
 31
0.0
  0
LINE
  5
21A
330
22
100
AcDbEntity
  8
_4-7_
  6
Continuous
 62
     7
100
AcDbLine
 10
963.109275597829
 20
1167.830587844346
 30
0.0
 11
963.1074975014579
 21
1167.824402083722
 31
0.0
  0
LINE
  5
21B
330
22
100
AcDbEntity
  8
_4-7_
  6
Continuous
 62
     7
100
AcDbLine
 10
962.2829360984594
 20
1167.910198845405
 30
0.0
 11
962.2829360984594
 21
1167.910198845405
 31
0.0
  0
LINE
  5
21C
330
22
100
AcDbEntity
  8
_4-7_
  6
Continuous
 62
     7
100
AcDbLine
 10
962.2829360984594
 20
1167.910198845405
 30
0.0
 11
962.2579622522167
 21
1167.910618286397
 31
0.0
  0
LINE
  5
21D
330
22
100
AcDbEntity
  8
_4-7_
  6
Continuous
 62
     7
100
AcDbLine
 10
962.2579622522167
 20
1167.910618286397
 30
0.0
 11
962.2332877387275
 21
1167.907086837294
 31
0.0
  0
LINE
  5
21E
330
22
100
AcDbEntity
  8
_4-7_
  6
Continuous
 62
     7
100
AcDbLine
 10
962.2332877387275
 20
1167.907086837294
 30
0.0
 11
962.2096622805992
 21
1167.899711799391
 31
0.0
  0
LINE
  5
21F
330
22
100
AcDbEntity
  8
_4-7_
  6
Continuous
 62
     7
100
AcDbLine
 10
962.2096622805992
 20
1167.899711799391
 30
0.0
 11
962.1878037254207
 21
1167.888717259482
 31
0.0
  0
LINE
  5
220
330
22
100
AcDbEntity
  8
_4-7_
  6
Continuous
 62
     7
100
AcDbLine
 10
962.1878037254207
 20
1167.888717259482
 30
0.0
 11
962.1683762343311
 21
1167.874437281099
 31
0.0
  0
LINE
  5
221
330
22
100
AcDbEntity
  8
_4-7_
  6
Continuous
 62
     7
100
AcDbLine
 10
962.1683762343311
 20
1167.874437281099
 30
0.0
 11
962.151970101816
 21
1167.857305754159
 31
0.0
  0
LINE
  5
222
330
22
100
AcDbEntity
  8
_4-7_
  6
Continuous
 62
     7
100
AcDbLine
 10
962.151970101816
 20
1167.857305754159
 30
0.0
 11
962.1390838199099
 21
1167.83784321144
 31
0.0
  0
LINE
  5
223
330
22
100
AcDbEntity
  8
_4-7_
  6
Continuous
 62
     7
100
AcDbLine
 10
962.1390838199099
 20
1167.83784321144
 30
0.0
 11
962.1301089317679
 21
1167.816641012452
 31
0.0
  0
LINE
  5
224
330
22
100
AcDbEntity
  8
_4-7_
  6
Continuous
 62
     7
100
AcDbLine
 10
962.1301089317679
 20
1167.816641012452
 30
0.0
 11
962.1283308353966
 21
1167.810455251829
 31
0.0
  0
LINE
  5
225
330
22
100
AcDbEntity
  8
_4-7_
  6
Continuous
 62
     7
100
AcDbLine
 10
961.3192246330019
 20
1167.88925973357
 30
0.0
 11
961.3192246330019
 21
1167.88925973357
 31
0.0
  0
LINE
  5
226
330
22
100
AcDbEntity
  8
_4-7_
  6
Continuous
 62
     7
100
AcDbLine
 10
961.3192246330019
 20
1167.88925973357
 30
0.0
 11
961.3027946317663
 21
1167.897798578414
 31
0.0
  0
LINE
  5
227
330
22
100
AcDbEntity
  8
_4-7_
  6
Continuous
 62
     7
100
AcDbLine
 10
961.3027946317663
 20
1167.897798578414
 30
0.0
 11
961.2849840759453
 21
1167.903612646881
 31
0.0
  0
LINE
  5
228
330
22
100
AcDbEntity
  8
_4-7_
  6
Continuous
 62
     7
100
AcDbLine
 10
961.2849840759453
 20
1167.903612646881
 30
0.0
 11
961.2663341302653
 21
1167.906525281445
 31
0.0
  0
LINE
  5
229
330
22
100
AcDbEntity
  8
_4-7_
  6
Continuous
 62
     7
100
AcDbLine
 10
961.2663341302653
 20
1167.906525281445
 30
0.0
 11
961.247411463888
 21
1167.906447983177
 31
0.0
  0
LINE
  5
22A
330
22
100
AcDbEntity
  8
_4-7_
  6
Continuous
 62
     7
100
AcDbLine
 10
961.247411463888
 20
1167.906447983177
 30
0.0
 11
961.228791032456
 21
1167.903383100745
 31
0.0
  0
LINE
  5
22B
330
22
100
AcDbEntity
  8
_4-7_
  6
Continuous
 62
     7
100
AcDbLine
 10
961.228791032456
 20
1167.903383100745
 30
0.0
 11
961.2110386083566
 21
1167.897423759053
 31
0.0
  0
LINE
  5
22C
330
22
100
AcDbEntity
  8
_4-7_
  6
Continuous
 62
     7
100
AcDbLine
 10
961.2110386083566
 20
1167.897423759053
 30
0.0
 11
961.1946935900121
 21
1167.888751029681
 31
0.0
  0
LINE
  5
22D
330
22
100
AcDbEntity
  8
_4-7_
  6
Continuous
 62
     7
100
AcDbLine
 10
961.1946935900121
 20
1167.888751029681
 30
0.0
 11
961.1802526125343
 21
1167.877628429124
 31
0.0
  0
LINE
  5
22E
330
22
100
AcDbEntity
  8
_4-7_
  6
Continuous
 62
     7
100
AcDbLine
 10
961.1802526125343
 20
1167.877628429124
 30
0.0
 11
961.1681544577164
 21
1167.864393911969
 31
0.0
  0
LINE
  5
22F
330
22
100
AcDbEntity
  8
_4-7_
  6
Continuous
 62
     7
100
AcDbLine
 10
961.1681544577164
 20
1167.864393911969
 30
0.0
 11
961.1587667218707
 21
1167.849449602326
 31
0.0
  0
LINE
  5
230
330
22
100
AcDbEntity
  8
_4-7_
  6
Continuous
 62
     7
100
AcDbLine
 10
961.1587667218707
 20
1167.849449602326
 30
0.0
 11
961.1523746466
 21
1167.833249575479
 31
0.0
  0
LINE
  5
231
330
22
100
AcDbEntity
  8
_4-7_
  6
Continuous
 62
     7
100
AcDbLine
 10
961.1523746466
 20
1167.833249575479
 30
0.0
 11
961.1491724518774
 21
1167.816286061046
 31
0.0
  0
LINE
  5
232
330
22
100
AcDbEntity
  8
_4-7_
  6
Continuous
 62
     7
100
AcDbLine
 10
961.1491724518774
 20
1167.816286061046
 30
0.0
 11
961.1491641693335
 21
1167.816194742411
 31
0.0
  0
LINE
  5
233
330
22
100
AcDbEntity
  8
_4-7_
  6
Continuous
 62
     7
100
AcDbLine
 10
966.7149536395836
 20
1167.626751773662
 30
0.0
 11
966.7149536395836
 21
1167.626751773662
 31
0.0
  0
LINE
  5
234
330
22
100
AcDbEntity
  8
_4-7_
  6
Continuous
 62
     7
100
AcDbLine
 10
966.7149536395836
 20
1167.626751773662
 30
0.0
 11
966.7072911666789
 21
1167.679455417908
 31
0.0
  0
LINE
  5
235
330
22
100
AcDbEntity
  8
_4-7_
  6
Continuous
 62
     7
100
AcDbLine
 10
966.7072911666789
 20
1167.679455417908
 30
0.0
 11
966.689683374987
 21
1167.730148118819
 31
0.0
  0
LINE
  5
236
330
22
100
AcDbEntity
  8
_4-7_
  6
Continuous
 62
     7
100
AcDbLine
 10
966.689683374987
 20
1167.730148118819
 30
0.0
 11
966.6626652683484
 21
1167.77728960433
 31
0.0
  0
LINE
  5
237
330
22
100
AcDbEntity
  8
_4-7_
  6
Continuous
 62
     7
100
AcDbLine
 10
966.6626652683484
 20
1167.77728960433
 30
0.0
 11
966.6270577782622
 21
1167.819447504259
 31
0.0
  0
LINE
  5
238
330
22
100
AcDbEntity
  8
_4-7_
  6
Continuous
 62
     7
100
AcDbLine
 10
966.6270577782622
 20
1167.819447504259
 30
0.0
 11
966.5839428202954
 21
1167.855340872149
 31
0.0
  0
LINE
  5
239
330
22
100
AcDbEntity
  8
_4-7_
  6
Continuous
 62
     7
100
AcDbLine
 10
966.5839428202954
 20
1167.855340872149
 30
0.0
 11
966.5346304206291
 21
1167.883879106179
 31
0.0
  0
LINE
  5
23A
330
22
100
AcDbEntity
  8
_4-7_
  6
Continuous
 62
     7
100
AcDbLine
 10
966.5346304206291
 20
1167.883879106179
 30
0.0
 11
966.480618911574
 21
1167.90419508655
 31
0.0
  0
LINE
  5
23B
330
22
100
AcDbEntity
  8
_4-7_
  6
Continuous
 62
     7
100
AcDbLine
 10
966.480618911574
 20
1167.90419508655
 30
0.0
 11
966.4235494055011
 21
1167.915671522478
 31
0.0
  0
LINE
  5
23C
330
22
100
AcDbEntity
  8
_4-7_
  6
Continuous
 62
     7
100
AcDbLine
 10
966.4235494055011
 20
1167.915671522478
 30
0.0
 11
966.3651559304749
 21
1167.917959708265
 31
0.0
  0
LINE
  5
23D
330
22
100
AcDbEntity
  8
_4-7_
  6
Continuous
 62
     7
100
AcDbLine
 10
966.3651559304749
 20
1167.917959708265
 30
0.0
 11
966.3072127426843
 21
1167.910990118545
 31
0.0
  0
LINE
  5
23E
330
22
100
AcDbEntity
  8
_4-7_
  6
Continuous
 62
     7
100
AcDbLine
 10
966.3072127426843
 20
1167.910990118545
 30
0.0
 11
966.2514804165704
 21
1167.894974520772
 31
0.0
  0
LINE
  5
23F
330
22
100
AcDbEntity
  8
_4-7_
  6
Continuous
 62
     7
100
AcDbLine
 10
966.2514804165704
 20
1167.894974520772
 30
0.0
 11
966.1996523506605
 21
1167.870399540783
 31
0.0
  0
LINE
  5
240
330
22
100
AcDbEntity
  8
_4-7_
  6
Continuous
 62
     7
100
AcDbLine
 10
966.1996523506605
 20
1167.870399540783
 30
0.0
 11
966.1533033145101
 21
1167.838011876908
 31
0.0
  0
LINE
  5
241
330
22
100
AcDbEntity
  8
_4-7_
  6
Continuous
 62
     7
100
AcDbLine
 10
966.1533033145101
 20
1167.838011876908
 30
0.0
 11
966.1138416001293
 21
1167.798795611924
 31
0.0
  0
LINE
  5
242
330
22
100
AcDbEntity
  8
_4-7_
  6
Continuous
 62
     7
100
AcDbLine
 10
966.1138416001293
 20
1167.798795611924
 30
0.0
 11
966.0824662317411
 21
1167.7539423122
 31
0.0
  0
LINE
  5
243
330
22
100
AcDbEntity
  8
_4-7_
  6
Continuous
 62
     7
100
AcDbLine
 10
966.0824662317411
 20
1167.7539423122
 30
0.0
 11
966.0601305340376
 21
1167.704814822551
 31
0.0
  0
LINE
  5
244
330
22
100
AcDbEntity
  8
_4-7_
  6
Continuous
 62
     7
100
AcDbLine
 10
966.0601305340376
 20
1167.704814822551
 30
0.0
 11
966.0475131658904
 21
1167.652905856889
 31
0.0
  0
LINE
  5
245
330
22
100
AcDbEntity
  8
_4-7_
  6
Continuous
 62
     7
100
AcDbLine
 10
966.0475131658904
 20
1167.652905856889
 30
0.0
 11
966.0449974996463
 21
1167.626751773662
 31
0.0
  0
LINE
  5
246
330
22
100
AcDbEntity
  8
_4-7_
  6
Continuous
 62
     7
100
AcDbLine
 10
971.6107869698968
 20
1167.626751773662
 30
0.0
 11
971.6107869698968
 21
1167.626751773662
 31
0.0
  0
LINE
  5
247
330
22
100
AcDbEntity
  8
_4-7_
  6
Continuous
 62
     7
100
AcDbLine
 10
971.6107869698968
 20
1167.626751773662
 30
0.0
 11
971.603124496992
 21
1167.679455417908
 31
0.0
  0
LINE
  5
248
330
22
100
AcDbEntity
  8
_4-7_
  6
Continuous
 62
     7
100
AcDbLine
 10
971.603124496992
 20
1167.679455417908
 30
0.0
 11
971.5855167053
 21
1167.730148118819
 31
0.0
  0
LINE
  5
249
330
22
100
AcDbEntity
  8
_4-7_
  6
Continuous
 62
     7
100
AcDbLine
 10
971.5855167053
 20
1167.730148118819
 30
0.0
 11
971.5584985986616
 21
1167.77728960433
 31
0.0
  0
LINE
  5
24A
330
22
100
AcDbEntity
  8
_4-7_
  6
Continuous
 62
     7
100
AcDbLine
 10
971.5584985986616
 20
1167.77728960433
 30
0.0
 11
971.5228911085747
 21
1167.819447504259
 31
0.0
  0
LINE
  5
24B
330
22
100
AcDbEntity
  8
_4-7_
  6
Continuous
 62
     7
100
AcDbLine
 10
971.5228911085747
 20
1167.819447504259
 30
0.0
 11
971.4797761506083
 21
1167.855340872149
 31
0.0
  0
LINE
  5
24C
330
22
100
AcDbEntity
  8
_4-7_
  6
Continuous
 62
     7
100
AcDbLine
 10
971.4797761506083
 20
1167.855340872149
 30
0.0
 11
971.4304637509421
 21
1167.883879106179
 31
0.0
  0
LINE
  5
24D
330
22
100
AcDbEntity
  8
_4-7_
  6
Continuous
 62
     7
100
AcDbLine
 10
971.4304637509421
 20
1167.883879106179
 30
0.0
 11
971.376452241887
 21
1167.90419508655
 31
0.0
  0
LINE
  5
24E
330
22
100
AcDbEntity
  8
_4-7_
  6
Continuous
 62
     7
100
AcDbLine
 10
971.376452241887
 20
1167.90419508655
 30
0.0
 11
971.3193827358143
 21
1167.915671522478
 31
0.0
  0
LINE
  5
24F
330
22
100
AcDbEntity
  8
_4-7_
  6
Continuous
 62
     7
100
AcDbLine
 10
971.3193827358143
 20
1167.915671522478
 30
0.0
 11
971.2609892607879
 21
1167.917959708265
 31
0.0
  0
LINE
  5
250
330
22
100
AcDbEntity
  8
_4-7_
  6
Continuous
 62
     7
100
AcDbLine
 10
971.2609892607879
 20
1167.917959708265
 30
0.0
 11
971.2030460729975
 21
1167.910990118545
 31
0.0
  0
LINE
  5
251
330
22
100
AcDbEntity
  8
_4-7_
  6
Continuous
 62
     7
100
AcDbLine
 10
971.2030460729975
 20
1167.910990118545
 30
0.0
 11
971.1473137468837
 21
1167.894974520772
 31
0.0
  0
LINE
  5
252
330
22
100
AcDbEntity
  8
_4-7_
  6
Continuous
 62
     7
100
AcDbLine
 10
971.1473137468837
 20
1167.894974520772
 30
0.0
 11
971.0954856809735
 21
1167.870399540783
 31
0.0
  0
LINE
  5
253
330
22
100
AcDbEntity
  8
_4-7_
  6
Continuous
 62
     7
100
AcDbLine
 10
971.0954856809735
 20
1167.870399540783
 30
0.0
 11
971.0491366448229
 21
1167.838011876908
 31
0.0
  0
LINE
  5
254
330
22
100
AcDbEntity
  8
_4-7_
  6
Continuous
 62
     7
100
AcDbLine
 10
971.0491366448229
 20
1167.838011876908
 30
0.0
 11
971.0096749304423
 21
1167.798795611924
 31
0.0
  0
LINE
  5
255
330
22
100
AcDbEntity
  8
_4-7_
  6
Continuous
 62
     7
100
AcDbLine
 10
971.0096749304423
 20
1167.798795611924
 30
0.0
 11
970.9782995620544
 21
1167.7539423122
 31
0.0
  0
LINE
  5
256
330
22
100
AcDbEntity
  8
_4-7_
  6
Continuous
 62
     7
100
AcDbLine
 10
970.9782995620544
 20
1167.7539423122
 30
0.0
 11
970.9559638643504
 21
1167.704814822551
 31
0.0
  0
LINE
  5
257
330
22
100
AcDbEntity
  8
_4-7_
  6
Continuous
 62
     7
100
AcDbLine
 10
970.9559638643504
 20
1167.704814822551
 30
0.0
 11
970.9433464962032
 21
1167.652905856889
 31
0.0
  0
LINE
  5
258
330
22
100
AcDbEntity
  8
_4-7_
  6
Continuous
 62
     7
100
AcDbLine
 10
970.9433464962032
 20
1167.652905856889
 30
0.0
 11
970.9408308299593
 21
1167.626751773662
 31
0.0
  0
LINE
  5
259
330
22
100
AcDbEntity
  8
_4-7_
  6
Continuous
 62
     7
100
AcDbLine
 10
959.654646626396
 20
1167.830012280412
 30
0.0
 11
959.654646626396
 21
1167.830012280412
 31
0.0
  0
LINE
  5
25A
330
22
100
AcDbEntity
  8
_4-7_
  6
Continuous
 62
     7
100
AcDbLine
 10
959.654646626396
 20
1167.830012280412
 30
0.0
 11
959.5711564221664
 21
1167.852628039101
 31
0.0
  0
LINE
  5
25B
330
22
100
AcDbEntity
  8
_4-7_
  6
Continuous
 62
     7
100
AcDbLine
 10
959.5711564221664
 20
1167.852628039101
 30
0.0
 11
959.4846170145315
 21
1167.861713274064
 31
0.0
  0
LINE
  5
25C
330
22
100
AcDbEntity
  8
_4-7_
  6
Continuous
 62
     7
100
AcDbLine
 10
959.4846170145315
 20
1167.861713274064
 30
0.0
 11
959.4485062756458
 21
1167.861434363592
 31
0.0
  0
LINE
  5
25D
330
22
100
AcDbEntity
  8
_4-7_
  6
Continuous
 62
     7
100
AcDbLine
 10
958.211664171146
 20
1168.178648179912
 30
0.0
 11
958.211664171146
 21
1168.178648179912
 31
0.0
  0
LINE
  5
25E
330
22
100
AcDbEntity
  8
_4-7_
  6
Continuous
 62
     7
100
AcDbLine
 10
958.211664171146
 20
1168.178648179912
 30
0.0
 11
958.246370780632
 21
1168.182423665876
 31
0.0
  0
LINE
  5
25F
330
22
100
AcDbEntity
  8
_4-7_
  6
Continuous
 62
     7
100
AcDbLine
 10
958.246370780632
 20
1168.182423665876
 30
0.0
 11
958.2798293352473
 21
1168.191623562095
 31
0.0
  0
LINE
  5
260
330
22
100
AcDbEntity
  8
_4-7_
  6
Continuous
 62
     7
100
AcDbLine
 10
958.2798293352473
 20
1168.191623562095
 30
0.0
 11
958.3110232137407
 21
1168.205968334376
 31
0.0
  0
LINE
  5
261
330
22
100
AcDbEntity
  8
_4-7_
  6
Continuous
 62
     7
100
AcDbLine
 10
958.3110232137407
 20
1168.205968334376
 30
0.0
 11
958.3390046058992
 21
1168.225022124074
 31
0.0
  0
LINE
  5
262
330
22
100
AcDbEntity
  8
_4-7_
  6
Continuous
 62
     7
100
AcDbLine
 10
958.3390046058992
 20
1168.225022124074
 30
0.0
 11
958.3629233112809
 21
1168.24820599143
 31
0.0
  0
LINE
  5
263
330
22
100
AcDbEntity
  8
_4-7_
  6
Continuous
 62
     7
100
AcDbLine
 10
958.3629233112809
 20
1168.24820599143
 30
0.0
 11
958.3820525721268
 21
1168.274815506365
 31
0.0
  0
LINE
  5
264
330
22
100
AcDbEntity
  8
_4-7_
  6
Continuous
 62
     7
100
AcDbLine
 10
958.3820525721268
 20
1168.274815506365
 30
0.0
 11
958.3958111555256
 21
1168.304042152233
 31
0.0
  0
LINE
  5
265
330
22
100
AcDbEntity
  8
_4-7_
  6
Continuous
 62
     7
100
AcDbLine
 10
958.3958111555256
 20
1168.304042152233
 30
0.0
 11
958.4037810138829
 21
1168.33499789219
 31
0.0
  0
LINE
  5
266
330
22
100
AcDbEntity
  8
_4-7_
  6
Continuous
 62
     7
100
AcDbLine
 10
958.4037810138829
 20
1168.33499789219
 30
0.0
 11
958.4057199870851
 21
1168.366742151741
 31
0.0
  0
LINE
  5
267
330
22
100
AcDbEntity
  8
_4-7_
  6
Continuous
 62
     7
100
AcDbLine
 10
958.4057199870851
 20
1168.366742151741
 30
0.0
 11
958.4015691604136
 21
1168.398310397623
 31
0.0
  0
LINE
  5
268
330
22
100
AcDbEntity
  8
_4-7_
  6
Continuous
 62
     7
100
AcDbLine
 10
958.4015691604136
 20
1168.398310397623
 30
0.0
 11
958.391454654636
 21
1168.428743444659
 31
0.0
  0
LINE
  5
269
330
22
100
AcDbEntity
  8
_4-7_
  6
Continuous
 62
     7
100
AcDbLine
 10
958.391454654636
 20
1168.428743444659
 30
0.0
 11
958.3756837938913
 21
1168.457116600114
 31
0.0
  0
LINE
  5
26A
330
22
100
AcDbEntity
  8
_4-7_
  6
Continuous
 62
     7
100
AcDbLine
 10
958.3756837938913
 20
1168.457116600114
 30
0.0
 11
958.3547357678041
 21
1168.482567760019
 31
0.0
  0
LINE
  5
26B
330
22
100
AcDbEntity
  8
_4-7_
  6
Continuous
 62
     7
100
AcDbLine
 10
958.3547357678041
 20
1168.482567760019
 30
0.0
 11
958.3292470715461
 21
1168.504323603757
 31
0.0
  0
LINE
  5
26C
330
22
100
AcDbEntity
  8
_4-7_
  6
Continuous
 62
     7
100
AcDbLine
 10
958.3292470715461
 20
1168.504323603757
 30
0.0
 11
958.2999921662551
 21
1168.521723091027
 31
0.0
  0
LINE
  5
26D
330
22
100
AcDbEntity
  8
_4-7_
  6
Continuous
 62
     7
100
AcDbLine
 10
958.2999921662551
 20
1168.521723091027
 30
0.0
 11
958.2678599474252
 21
1168.534237547211
 31
0.0
  0
LINE
  5
26E
330
22
100
AcDbEntity
  8
_4-7_
  6
Continuous
 62
     7
100
AcDbLine
 10
958.2678599474252
 20
1168.534237547211
 30
0.0
 11
958.2338267362656
 21
1168.541486726892
 31
0.0
  0
LINE
  5
26F
330
22
100
AcDbEntity
  8
_4-7_
  6
Continuous
 62
     7
100
AcDbLine
 10
958.2338267362656
 20
1168.541486726892
 30
0.0
 11
958.1989266146754
 21
1168.543250367412
 31
0.0
  0
LINE
  5
270
330
22
100
AcDbEntity
  8
_4-7_
  6
Continuous
 62
     7
100
AcDbLine
 10
958.1989266146754
 20
1168.543250367412
 30
0.0
 11
958.1989266146754
 21
1168.543250367412
 31
0.0
  0
LINE
  5
271
330
22
100
AcDbEntity
  8
_4-7_
  6
Continuous
 62
     7
100
AcDbLine
 10
981.3164596064515
 20
1171.482220523662
 30
0.0
 11
983.8761378395211
 21
1171.482220523662
 31
0.0
  0
LINE
  5
272
330
22
100
AcDbEntity
  8
_4-7_
  6
Continuous
 62
     7
100
AcDbLine
 10
983.8761378395211
 20
1171.482220523662
 30
0.0
 11
983.8761378395211
 21
1169.607220523662
 31
0.0
  0
LINE
  5
273
330
22
100
AcDbEntity
  8
_4-7_
  6
Continuous
 62
     7
100
AcDbLine
 10
981.3164596064515
 20
1171.482220523662
 30
0.0
 11
980.801109031324
 21
1171.950970523662
 31
0.0
  0
LINE
  5
274
330
22
100
AcDbEntity
  8
_4-7_
  6
Continuous
 62
     7
100
AcDbLine
 10
980.801109031324
 20
1171.950970523662
 30
0.0
 11
979.4894804518774
 21
1171.950970523662
 31
0.0
  0
LINE
  5
275
330
22
100
AcDbEntity
  8
_4-7_
  6
Continuous
 62
     7
100
AcDbLine
 10
979.4894804518774
 20
1171.950970523662
 30
0.0
 11
976.9159846310968
 21
1171.608333492411
 31
0.0
  0
LINE
  5
276
330
22
100
AcDbEntity
  8
_4-7_
  6
Continuous
 62
     7
100
AcDbLine
 10
976.9159846310968
 20
1171.608333492411
 30
0.0
 11
976.6612255632706
 21
1171.457131148661
 31
0.0
  0
LINE
  5
277
330
22
100
AcDbEntity
  8
_4-7_
  6
Continuous
 62
     7
100
AcDbLine
 10
976.6612255632706
 20
1171.457131148661
 30
0.0
 11
976.6612255632706
 21
1171.482220523662
 31
0.0
  0
LINE
  5
278
330
22
100
AcDbEntity
  8
_4-7_
  6
Continuous
 62
     7
100
AcDbLine
 10
976.6612255632706
 20
1171.482220523662
 30
0.0
 11
975.5274536341469
 21
1171.482220523662
 31
0.0
  0
LINE
  5
279
330
22
100
AcDbEntity
  8
_4-7_
  6
Continuous
 62
     7
100
AcDbLine
 10
975.5274536341469
 20
1171.482220523662
 30
0.0
 11
975.0121027572717
 21
1171.211587673306
 31
0.0
  0
LINE
  5
27A
330
22
100
AcDbEntity
  8
_4-7_
  6
Continuous
 62
     7
100
AcDbLine
 10
974.857497494208
 20
1171.292777554911
 30
0.0
 11
974.857497494208
 21
1171.904095523662
 31
0.0
  0
LINE
  5
27B
330
22
100
AcDbEntity
  8
_4-7_
  6
Continuous
 62
     7
100
AcDbLine
 10
974.857497494208
 20
1171.904095523662
 30
0.0
 11
972.2116283730336
 21
1171.904095523662
 31
0.0
  0
LINE
  5
27C
330
22
100
AcDbEntity
  8
_4-7_
  6
Continuous
 62
     7
100
AcDbLine
 10
972.2116283730336
 20
1171.904095523662
 30
0.0
 11
971.610786969896
 21
1171.590677086162
 31
0.0
  0
LINE
  5
27D
330
22
100
AcDbEntity
  8
_4-7_
  6
Continuous
 62
     7
100
AcDbLine
 10
971.610786969896
 20
1171.590677086162
 30
0.0
 11
971.610786969896
 21
1171.587689273661
 31
0.0
  0
LINE
  5
27E
330
22
100
AcDbEntity
  8
_4-7_
  6
Continuous
 62
     7
100
AcDbLine
 10
971.6107871910104
 20
1171.587686665358
 30
0.0
 11
971.610786969896
 21
1171.587689273661
 31
0.0
  0
LINE
  5
27F
330
22
100
AcDbEntity
  8
_4-7_
  6
Continuous
 62
     7
100
AcDbLine
 10
971.6107871910104
 20
1171.587686665358
 30
0.0
 11
971.610786969896
 21
1171.587689273661
 31
0.0
  0
LINE
  5
280
330
22
100
AcDbEntity
  8
_4-7_
  6
Continuous
 62
     7
100
AcDbLine
 10
970.9408308299588
 20
1171.567319742412
 30
0.0
 11
970.9408308299588
 21
1171.904095523662
 31
0.0
  0
LINE
  5
281
330
22
100
AcDbEntity
  8
_4-7_
  6
Continuous
 62
     7
100
AcDbLine
 10
970.9408308299588
 20
1171.904095523662
 30
0.0
 11
967.3175601194754
 21
1171.904095523662
 31
0.0
  0
LINE
  5
282
330
22
100
AcDbEntity
  8
_4-7_
  6
Continuous
 62
     7
100
AcDbLine
 10
967.3175601194754
 20
1171.904095523662
 30
0.0
 11
966.7149655133719
 21
1171.587691031748
 31
0.0
  0
LINE
  5
283
330
22
100
AcDbEntity
  8
_4-7_
  6
Continuous
 62
     7
100
AcDbLine
 10
966.7149536395832
 20
1171.587689273661
 30
0.0
 11
967.0133607628583
 21
1171.585444504689
 31
0.0
  0
LINE
  5
284
330
22
100
AcDbEntity
  8
_4-7_
  6
Continuous
 62
     7
100
AcDbLine
 10
967.0133607628583
 20
1171.585444504689
 30
0.0
 11
967.024164165709
 21
1171.385019499924
 31
0.0
  0
LINE
  5
285
330
22
100
AcDbEntity
  8
_4-7_
  6
Continuous
 62
     7
100
AcDbLine
 10
967.1787694287717
 20
1171.28585572482
 30
0.0
 11
967.6941203056456
 21
1171.567319742412
 31
0.0
  0
LINE
  5
286
330
22
100
AcDbEntity
  8
_4-7_
  6
Continuous
 62
     7
100
AcDbLine
 10
967.6941203056456
 20
1171.567319742412
 30
0.0
 11
967.992527473768
 21
1171.567319837488
 31
0.0
  0
LINE
  5
287
330
22
100
AcDbEntity
  8
_4-7_
  6
Continuous
 62
     7
100
AcDbLine
 10
967.992527473768
 20
1171.567319837488
 30
0.0
 11
968.0033308317716
 21
1171.349799586161
 31
0.0
  0
LINE
  5
288
330
22
100
AcDbEntity
  8
_4-7_
  6
Continuous
 62
     7
100
AcDbLine
 10
968.157936094834
 20
1171.250055992587
 30
0.0
 11
968.6732869717094
 21
1171.567319742412
 31
0.0
  0
LINE
  5
289
330
22
100
AcDbEntity
  8
_4-7_
  6
Continuous
 62
     7
100
AcDbLine
 10
968.6732869717094
 20
1171.567319742412
 30
0.0
 11
968.9716941974015
 21
1171.567319742412
 31
0.0
  0
LINE
  5
28A
330
22
100
AcDbEntity
  8
_4-7_
  6
Continuous
 62
     7
100
AcDbLine
 10
968.9716941974015
 20
1171.567319742412
 30
0.0
 11
968.9824974978337
 21
1171.349799586161
 31
0.0
  0
LINE
  5
28B
330
22
100
AcDbEntity
  8
_4-7_
  6
Continuous
 62
     7
100
AcDbLine
 10
969.1371027608962
 20
1171.250055992587
 30
0.0
 11
969.6524536377715
 21
1171.567319742412
 31
0.0
  0
LINE
  5
28C
330
22
100
AcDbEntity
  8
_4-7_
  6
Continuous
 62
     7
100
AcDbLine
 10
969.6524536377715
 20
1171.567319742412
 30
0.0
 11
969.9508608634641
 21
1171.567319742412
 31
0.0
  0
LINE
  5
28D
330
22
100
AcDbEntity
  8
_4-7_
  6
Continuous
 62
     7
100
AcDbLine
 10
969.9508608634641
 20
1171.567319742412
 30
0.0
 11
969.9616641638963
 21
1171.349799586161
 31
0.0
  0
LINE
  5
28E
330
22
100
AcDbEntity
  8
_4-7_
  6
Continuous
 62
     7
100
AcDbLine
 10
970.1162694269587
 20
1171.250055992587
 30
0.0
 11
970.6316203038337
 21
1171.567319837488
 31
0.0
  0
LINE
  5
28F
330
22
100
AcDbEntity
  8
_4-7_
  6
Continuous
 62
     7
100
AcDbLine
 10
970.6316203038337
 20
1171.567319837488
 30
0.0
 11
970.9408308299588
 21
1171.567319742412
 31
0.0
  0
LINE
  5
290
330
22
100
AcDbEntity
  8
_4-7_
  6
Continuous
 62
     7
100
AcDbLine
 10
971.6107871910104
 20
1171.587686665358
 30
0.0
 11
971.9091943591317
 21
1171.58538341458
 31
0.0
  0
LINE
  5
291
330
22
100
AcDbEntity
  8
_4-7_
  6
Continuous
 62
     7
100
AcDbLine
 10
971.9091943591317
 20
1171.58538341458
 30
0.0
 11
971.9199974960213
 21
1171.386980367413
 31
0.0
  0
LINE
  5
292
330
22
100
AcDbEntity
  8
_4-7_
  6
Continuous
 62
     7
100
AcDbLine
 10
972.0746027590834
 20
1171.285672779711
 30
0.0
 11
972.5899536359586
 21
1171.567319837488
 31
0.0
  0
LINE
  5
293
330
22
100
AcDbEntity
  8
_4-7_
  6
Continuous
 62
     7
100
AcDbLine
 10
972.5899536359586
 20
1171.567319837488
 30
0.0
 11
972.8883608040801
 21
1171.567319837488
 31
0.0
  0
LINE
  5
294
330
22
100
AcDbEntity
  8
_4-7_
  6
Continuous
 62
     7
100
AcDbLine
 10
972.8883608040801
 20
1171.567319837488
 30
0.0
 11
972.8991641620835
 21
1171.349799586161
 31
0.0
  0
LINE
  5
295
330
22
100
AcDbEntity
  8
_4-7_
  6
Continuous
 62
     7
100
AcDbLine
 10
973.0537694251459
 20
1171.250055992587
 30
0.0
 11
973.5691203020209
 21
1171.567319742412
 31
0.0
  0
LINE
  5
296
330
22
100
AcDbEntity
  8
_4-7_
  6
Continuous
 62
     7
100
AcDbLine
 10
973.5691203020209
 20
1171.567319742412
 30
0.0
 11
973.8675274701423
 21
1171.567319837488
 31
0.0
  0
LINE
  5
297
330
22
100
AcDbEntity
  8
_4-7_
  6
Continuous
 62
     7
100
AcDbLine
 10
973.8675274701423
 20
1171.567319837488
 30
0.0
 11
973.8784755663708
 21
1171.349245778356
 31
0.0
  0
LINE
  5
298
330
22
100
AcDbEntity
  8
_4-7_
  6
Continuous
 62
     7
100
AcDbLine
 10
974.0329360912095
 20
1171.250055992587
 30
0.0
 11
974.5482869680833
 21
1171.567319837488
 31
0.0
  0
LINE
  5
299
330
22
100
AcDbEntity
  8
_4-7_
  6
Continuous
 62
     7
100
AcDbLine
 10
974.5482869680833
 20
1171.567319837488
 30
0.0
 11
974.857497494208
 21
1171.56731973897
 31
0.0
  0
LINE
  5
29A
330
22
100
AcDbEntity
  8
_4-7_
  6
Continuous
 62
     7
100
AcDbLine
 10
966.0449974996467
 20
1171.567319742412
 30
0.0
 11
966.0449974996467
 21
1171.904095523662
 31
0.0
  0
LINE
  5
29B
330
22
100
AcDbEntity
  8
_4-7_
  6
Continuous
 62
     7
100
AcDbLine
 10
966.0449974996467
 20
1171.904095523662
 30
0.0
 11
964.0148464153726
 21
1171.904095523662
 31
0.0
  0
LINE
  5
29C
330
22
100
AcDbEntity
  8
_4-7_
  6
Continuous
 62
     7
100
AcDbLine
 10
964.0148464153726
 20
1171.904095523662
 30
0.0
 11
961.8191203092713
 21
1171.587979429911
 31
0.0
  0
LINE
  5
29D
330
22
100
AcDbEntity
  8
_4-7_
  6
Continuous
 62
     7
100
AcDbLine
 10
961.8191203092713
 20
1171.587979429911
 30
0.0
 11
962.1175272368599
 21
1171.587520356372
 31
0.0
  0
LINE
  5
29E
330
22
100
AcDbEntity
  8
_4-7_
  6
Continuous
 62
     7
100
AcDbLine
 10
962.1175272368599
 20
1171.587520356372
 30
0.0
 11
962.1283308353961
 21
1171.394590054911
 31
0.0
  0
LINE
  5
29F
330
22
100
AcDbEntity
  8
_4-7_
  6
Continuous
 62
     7
100
AcDbLine
 10
961.8191203092713
 20
1171.587979429911
 30
0.0
 11
961.303769432396
 21
1171.317056423307
 31
0.0
  0
LINE
  5
2A0
330
22
100
AcDbEntity
  8
_4-7_
  6
Continuous
 62
     7
100
AcDbLine
 10
962.2829360984583
 20
1171.304242201918
 30
0.0
 11
962.7982869753335
 21
1171.585868660332
 31
0.0
  0
LINE
  5
2A1
330
22
100
AcDbEntity
  8
_4-7_
  6
Continuous
 62
     7
100
AcDbLine
 10
962.7982869753335
 20
1171.585868660332
 30
0.0
 11
963.0966939029208
 21
1171.584565595167
 31
0.0
  0
LINE
  5
2A2
330
22
100
AcDbEntity
  8
_4-7_
  6
Continuous
 62
     7
100
AcDbLine
 10
963.0966939029208
 20
1171.584565595167
 30
0.0
 11
963.1074975014584
 21
1171.383111304912
 31
0.0
  0
LINE
  5
2A3
330
22
100
AcDbEntity
  8
_4-7_
  6
Continuous
 62
     7
100
AcDbLine
 10
963.2621027645207
 20
1171.290295370025
 30
0.0
 11
963.7774534008624
 21
1171.580212782103
 31
0.0
  0
LINE
  5
2A4
330
22
100
AcDbEntity
  8
_4-7_
  6
Continuous
 62
     7
100
AcDbLine
 10
963.7774534008624
 20
1171.580212782103
 30
0.0
 11
964.0758605689843
 21
1171.577673506668
 31
0.0
  0
LINE
  5
2A5
330
22
100
AcDbEntity
  8
_4-7_
  6
Continuous
 62
     7
100
AcDbLine
 10
964.0758605689843
 20
1171.577673506668
 30
0.0
 11
964.0866641675209
 21
1171.368515159625
 31
0.0
  0
LINE
  5
2A6
330
22
100
AcDbEntity
  8
_4-7_
  6
Continuous
 62
     7
100
AcDbLine
 10
964.2412694305832
 20
1171.27023102452
 30
0.0
 11
964.7566200669256
 21
1171.570357664648
 31
0.0
  0
LINE
  5
2A7
330
22
100
AcDbEntity
  8
_4-7_
  6
Continuous
 62
     7
100
AcDbLine
 10
964.7566200669256
 20
1171.570357664648
 30
0.0
 11
965.0550275331507
 21
1171.567319742412
 31
0.0
  0
LINE
  5
2A8
330
22
100
AcDbEntity
  8
_4-7_
  6
Continuous
 62
     7
100
AcDbLine
 10
965.0550275331507
 20
1171.567319742412
 30
0.0
 11
965.0658308335843
 21
1171.349799586161
 31
0.0
  0
LINE
  5
2A9
330
22
100
AcDbEntity
  8
_4-7_
  6
Continuous
 62
     7
100
AcDbLine
 10
965.2204360966457
 20
1171.250055992587
 30
0.0
 11
965.7357869735207
 21
1171.567319837488
 31
0.0
  0
LINE
  5
2AA
330
22
100
AcDbEntity
  8
_4-7_
  6
Continuous
 62
     7
100
AcDbLine
 10
965.7357869735207
 20
1171.567319837488
 30
0.0
 11
966.0449974996467
 21
1171.567319742412
 31
0.0
  0
LINE
  5
2AB
330
22
100
AcDbEntity
  8
_4-7_
  6
Continuous
 62
     7
100
AcDbLine
 10
961.1491641693335
 20
1171.398246304912
 30
0.0
 11
961.1491641693335
 21
1171.482220523662
 31
0.0
  0
LINE
  5
2AC
330
22
100
AcDbEntity
  8
_4-7_
  6
Continuous
 62
     7
100
AcDbLine
 10
961.1491641693335
 20
1171.482220523662
 30
0.0
 11
960.6595808363023
 21
1171.482220523662
 31
0.0
  0
LINE
  5
2AD
330
22
100
AcDbEntity
  8
_4-7_
  6
Continuous
 62
     7
100
AcDbLine
 10
960.6595808363023
 20
1171.482220523662
 30
0.0
 11
960.6595808363023
 21
1171.388470523662
 31
0.0
  0
LINE
  5
2AE
330
22
100
AcDbEntity
  8
_4-7_
  6
Continuous
 62
     7
100
AcDbLine
 10
960.6595808363023
 20
1171.388470523662
 30
0.0
 11
959.654646626396
 21
1171.388470523662
 31
0.0
  0
LINE
  5
2AF
330
22
100
AcDbEntity
  8
_4-7_
  6
Continuous
 62
     7
100
AcDbLine
 10
959.654646626396
 20
1171.388470523662
 30
0.0
 11
959.654646626396
 21
1171.384428766911
 31
0.0
  0
LINE
  5
2B0
330
22
100
AcDbEntity
  8
_4-7_
  6
Continuous
 62
     7
100
AcDbLine
 10
959.448506275646
 20
1171.353006773661
 30
0.0
 11
955.7294802801344
 21
1171.353006682075
 31
0.0
  0
LINE
  5
2B1
330
22
100
AcDbEntity
  8
_4-7_
  6
Continuous
 62
     7
100
AcDbLine
 10
955.7294802801344
 20
1171.353006682075
 30
0.0
 11
955.3223422650338
 21
1171.077733336162
 31
0.0
  0
LINE
  5
2B2
330
22
100
AcDbEntity
  8
_4-7_
  6
Continuous
 62
     7
100
AcDbLine
 10
955.3223422650338
 20
1171.077733336162
 30
0.0
 11
954.5011378576461
 21
1170.450970523662
 31
0.0
  0
LINE
  5
2B3
330
22
100
AcDbEntity
  8
_4-7_
  6
Continuous
 62
     7
100
AcDbLine
 10
954.5011378576461
 20
1170.450970523662
 30
0.0
 11
954.5011378576461
 21
1170.357608973977
 31
0.0
  0
LINE
  5
2B4
330
22
100
AcDbEntity
  8
_4-7_
  6
Continuous
 62
     7
100
AcDbLine
 10
954.5011378576461
 20
1170.357608973977
 30
0.0
 11
955.7294802801344
 21
1171.0357927923
 31
0.0
  0
LINE
  5
2B5
330
22
100
AcDbEntity
  8
_4-7_
  6
Continuous
 62
     7
100
AcDbLine
 10
955.7294802801344
 20
1171.0357927923
 30
0.0
 11
958.2116641711465
 21
1171.035792867412
 31
0.0
  0
LINE
  5
2B6
330
22
100
AcDbEntity
  8
_4-7_
  6
Continuous
 62
     7
100
AcDbLine
 10
958.2116641711465
 20
1170.671190679912
 30
0.0
 11
955.7294803755709
 21
1170.671190850807
 31
0.0
  0
LINE
  5
2B7
330
22
100
AcDbEntity
  8
_4-7_
  6
Continuous
 62
     7
100
AcDbLine
 10
955.7294803755709
 20
1170.671190850807
 30
0.0
 11
954.5011378576461
 21
1169.993006872536
 31
0.0
  0
LINE
  5
2B8
330
22
100
AcDbEntity
  8
_4-7_
  6
Continuous
 62
     7
100
AcDbLine
 10
954.5011378576461
 20
1169.993006872536
 30
0.0
 11
954.5011378576461
 21
1169.607220523662
 31
0.0
  0
LINE
  5
2B9
330
22
100
AcDbEntity
  8
_4-7_
  6
Continuous
 62
     7
100
AcDbLine
 10
974.8574974942084
 20
1171.292777554912
 30
0.0
 11
974.8574974942084
 21
1171.292777554912
 31
0.0
  0
LINE
  5
2BA
330
22
100
AcDbEntity
  8
_4-7_
  6
Continuous
 62
     7
100
AcDbLine
 10
974.8574974942084
 20
1171.292777554912
 30
0.0
 11
974.8604061096553
 21
1171.2759285231
 31
0.0
  0
LINE
  5
2BB
330
22
100
AcDbEntity
  8
_4-7_
  6
Continuous
 62
     7
100
AcDbLine
 10
974.8604061096553
 20
1171.2759285231
 30
0.0
 11
974.8664872097366
 21
1171.259794869966
 31
0.0
  0
LINE
  5
2BC
330
22
100
AcDbEntity
  8
_4-7_
  6
Continuous
 62
     7
100
AcDbLine
 10
974.8664872097366
 20
1171.259794869966
 30
0.0
 11
974.8755560233032
 21
1171.244866808399
 31
0.0
  0
LINE
  5
2BD
330
22
100
AcDbEntity
  8
_4-7_
  6
Continuous
 62
     7
100
AcDbLine
 10
974.8755560233032
 20
1171.244866808399
 30
0.0
 11
974.8873369990439
 21
1171.231597919995
 31
0.0
  0
LINE
  5
2BE
330
22
100
AcDbEntity
  8
_4-7_
  6
Continuous
 62
     7
100
AcDbLine
 10
974.8873369990439
 20
1171.231597919995
 30
0.0
 11
974.9014721779726
 21
1171.220391373213
 31
0.0
  0
LINE
  5
2BF
330
22
100
AcDbEntity
  8
_4-7_
  6
Continuous
 62
     7
100
AcDbLine
 10
974.9014721779726
 20
1171.220391373213
 30
0.0
 11
974.91753206983
 21
1171.211587673308
 31
0.0
  0
LINE
  5
2C0
330
22
100
AcDbEntity
  8
_4-7_
  6
Continuous
 62
     7
100
AcDbLine
 10
974.91753206983
 20
1171.211587673308
 30
0.0
 11
974.9350287029288
 21
1171.205454316244
 31
0.0
  0
LINE
  5
2C1
330
22
100
AcDbEntity
  8
_4-7_
  6
Continuous
 62
     7
100
AcDbLine
 10
974.9350287029288
 20
1171.205454316244
 30
0.0
 11
974.9534304509261
 21
1171.202177660974
 31
0.0
  0
LINE
  5
2C2
330
22
100
AcDbEntity
  8
_4-7_
  6
Continuous
 62
     7
100
AcDbLine
 10
974.9534304509261
 20
1171.202177660974
 30
0.0
 11
974.9721781860205
 21
1171.20185726701
 31
0.0
  0
LINE
  5
2C3
330
22
100
AcDbEntity
  8
_4-7_
  6
Continuous
 62
     7
100
AcDbLine
 10
974.9721781860205
 20
1171.20185726701
 30
0.0
 11
974.9907022677684
 21
1171.20450286936
 31
0.0
  0
LINE
  5
2C4
330
22
100
AcDbEntity
  8
_4-7_
  6
Continuous
 62
     7
100
AcDbLine
 10
974.9907022677684
 20
1171.20450286936
 30
0.0
 11
975.0084398513189
 21
1171.210034082735
 31
0.0
  0
LINE
  5
2C5
330
22
100
AcDbEntity
  8
_4-7_
  6
Continuous
 62
     7
100
AcDbLine
 10
975.0084398513189
 20
1171.210034082735
 30
0.0
 11
975.0248519891719
 21
1171.218282844016
 31
0.0
  0
LINE
  5
2C6
330
22
100
AcDbEntity
  8
_4-7_
  6
Continuous
 62
     7
100
AcDbLine
 10
975.0248519891719
 20
1171.218282844016
 30
0.0
 11
975.0248523901872
 21
1171.218283089339
 31
0.0
  0
LINE
  5
2C7
330
22
100
AcDbEntity
  8
_4-7_
  6
Continuous
 62
     7
100
AcDbLine
 10
973.8783308281464
 20
1171.349799586162
 30
0.0
 11
973.8783308281464
 21
1171.349799586162
 31
0.0
  0
LINE
  5
2C8
330
22
100
AcDbEntity
  8
_4-7_
  6
Continuous
 62
     7
100
AcDbLine
 10
973.8783308281464
 20
1171.349799586162
 30
0.0
 11
973.8861517970585
 21
1171.328222568453
 31
0.0
  0
LINE
  5
2C9
330
22
100
AcDbEntity
  8
_4-7_
  6
Continuous
 62
     7
100
AcDbLine
 10
973.8861517970585
 20
1171.328222568453
 30
0.0
 11
973.8979732475449
 21
1171.308208644482
 31
0.0
  0
LINE
  5
2CA
330
22
100
AcDbEntity
  8
_4-7_
  6
Continuous
 62
     7
100
AcDbLine
 10
973.8979732475449
 20
1171.308208644482
 30
0.0
 11
973.9134359908145
 21
1171.290365927203
 31
0.0
  0
LINE
  5
2CB
330
22
100
AcDbEntity
  8
_4-7_
  6
Continuous
 62
     7
100
AcDbLine
 10
973.9134359908145
 20
1171.290365927203
 30
0.0
 11
973.9320701992376
 21
1171.27523655855
 31
0.0
  0
LINE
  5
2CC
330
22
100
AcDbEntity
  8
_4-7_
  6
Continuous
 62
     7
100
AcDbLine
 10
973.9320701992376
 20
1171.27523655855
 30
0.0
 11
973.953309681821
 21
1171.263280236734
 31
0.0
  0
LINE
  5
2CD
330
22
100
AcDbEntity
  8
_4-7_
  6
Continuous
 62
     7
100
AcDbLine
 10
973.953309681821
 20
1171.263280236734
 30
0.0
 11
973.9765090876336
 21
1171.254860248544
 31
0.0
  0
LINE
  5
2CE
330
22
100
AcDbEntity
  8
_4-7_
  6
Continuous
 62
     7
100
AcDbLine
 10
973.9765090876336
 20
1171.254860248544
 30
0.0
 11
974.0009635144696
 21
1171.25023243106
 31
0.0
  0
LINE
  5
2CF
330
22
100
AcDbEntity
  8
_4-7_
  6
Continuous
 62
     7
100
AcDbLine
 10
974.0009635144696
 20
1171.25023243106
 30
0.0
 11
974.0259299269439
 21
1171.249537398174
 31
0.0
  0
LINE
  5
2D0
330
22
100
AcDbEntity
  8
_4-7_
  6
Continuous
 62
     7
100
AcDbLine
 10
974.0259299269439
 20
1171.249537398174
 30
0.0
 11
974.032936091209
 21
1171.250055992587
 31
0.0
  0
LINE
  5
2D1
330
22
100
AcDbEntity
  8
_4-7_
  6
Continuous
 62
     7
100
AcDbLine
 10
972.8991641620829
 20
1171.349799586162
 30
0.0
 11
972.8991641620829
 21
1171.349799586162
 31
0.0
  0
LINE
  5
2D2
330
22
100
AcDbEntity
  8
_4-7_
  6
Continuous
 62
     7
100
AcDbLine
 10
972.8991641620829
 20
1171.349799586162
 30
0.0
 11
972.9069851309947
 21
1171.328222568453
 31
0.0
  0
LINE
  5
2D3
330
22
100
AcDbEntity
  8
_4-7_
  6
Continuous
 62
     7
100
AcDbLine
 10
972.9069851309947
 20
1171.328222568453
 30
0.0
 11
972.9188065814813
 21
1171.308208644482
 31
0.0
  0
LINE
  5
2D4
330
22
100
AcDbEntity
  8
_4-7_
  6
Continuous
 62
     7
100
AcDbLine
 10
972.9188065814813
 20
1171.308208644482
 30
0.0
 11
972.9342693247508
 21
1171.290365927203
 31
0.0
  0
LINE
  5
2D5
330
22
100
AcDbEntity
  8
_4-7_
  6
Continuous
 62
     7
100
AcDbLine
 10
972.9342693247508
 20
1171.290365927203
 30
0.0
 11
972.9529035331744
 21
1171.27523655855
 31
0.0
  0
LINE
  5
2D6
330
22
100
AcDbEntity
  8
_4-7_
  6
Continuous
 62
     7
100
AcDbLine
 10
972.9529035331744
 20
1171.27523655855
 30
0.0
 11
972.9741430157574
 21
1171.263280236734
 31
0.0
  0
LINE
  5
2D7
330
22
100
AcDbEntity
  8
_4-7_
  6
Continuous
 62
     7
100
AcDbLine
 10
972.9741430157574
 20
1171.263280236734
 30
0.0
 11
972.9973424215701
 21
1171.254860248544
 31
0.0
  0
LINE
  5
2D8
330
22
100
AcDbEntity
  8
_4-7_
  6
Continuous
 62
     7
100
AcDbLine
 10
972.9973424215701
 20
1171.254860248544
 30
0.0
 11
973.0217968484062
 21
1171.25023243106
 31
0.0
  0
LINE
  5
2D9
330
22
100
AcDbEntity
  8
_4-7_
  6
Continuous
 62
     7
100
AcDbLine
 10
973.0217968484062
 20
1171.25023243106
 30
0.0
 11
973.0467632608805
 21
1171.249537398174
 31
0.0
  0
LINE
  5
2DA
330
22
100
AcDbEntity
  8
_4-7_
  6
Continuous
 62
     7
100
AcDbLine
 10
973.0467632608805
 20
1171.249537398174
 30
0.0
 11
973.0537694251456
 21
1171.250055992587
 31
0.0
  0
LINE
  5
2DB
330
22
100
AcDbEntity
  8
_4-7_
  6
Continuous
 62
     7
100
AcDbLine
 10
971.9199974960206
 20
1171.385416373287
 30
0.0
 11
971.9199974960206
 21
1171.385416373287
 31
0.0
  0
LINE
  5
2DC
330
22
100
AcDbEntity
  8
_4-7_
  6
Continuous
 62
     7
100
AcDbLine
 10
971.9199974960206
 20
1171.385416373287
 30
0.0
 11
971.9278184649326
 21
1171.363839355577
 31
0.0
  0
LINE
  5
2DD
330
22
100
AcDbEntity
  8
_4-7_
  6
Continuous
 62
     7
100
AcDbLine
 10
971.9278184649326
 20
1171.363839355577
 30
0.0
 11
971.9396399154188
 21
1171.343825431607
 31
0.0
  0
LINE
  5
2DE
330
22
100
AcDbEntity
  8
_4-7_
  6
Continuous
 62
     7
100
AcDbLine
 10
971.9396399154188
 20
1171.343825431607
 30
0.0
 11
971.9551026586884
 21
1171.325982714327
 31
0.0
  0
LINE
  5
2DF
330
22
100
AcDbEntity
  8
_4-7_
  6
Continuous
 62
     7
100
AcDbLine
 10
971.9551026586884
 20
1171.325982714327
 30
0.0
 11
971.9737368671118
 21
1171.310853345674
 31
0.0
  0
LINE
  5
2E0
330
22
100
AcDbEntity
  8
_4-7_
  6
Continuous
 62
     7
100
AcDbLine
 10
971.9737368671118
 20
1171.310853345674
 30
0.0
 11
971.9949763496954
 21
1171.298897023859
 31
0.0
  0
LINE
  5
2E1
330
22
100
AcDbEntity
  8
_4-7_
  6
Continuous
 62
     7
100
AcDbLine
 10
971.9949763496954
 20
1171.298897023859
 30
0.0
 11
972.0181757555078
 21
1171.290477035668
 31
0.0
  0
LINE
  5
2E2
330
22
100
AcDbEntity
  8
_4-7_
  6
Continuous
 62
     7
100
AcDbLine
 10
972.0181757555078
 20
1171.290477035668
 30
0.0
 11
972.0426301823438
 21
1171.285849218184
 31
0.0
  0
LINE
  5
2E3
330
22
100
AcDbEntity
  8
_4-7_
  6
Continuous
 62
     7
100
AcDbLine
 10
972.0426301823438
 20
1171.285849218184
 30
0.0
 11
972.0675965948178
 21
1171.285154185299
 31
0.0
  0
LINE
  5
2E4
330
22
100
AcDbEntity
  8
_4-7_
  6
Continuous
 62
     7
100
AcDbLine
 10
972.0675965948178
 20
1171.285154185299
 30
0.0
 11
972.0746027590832
 21
1171.285672779712
 31
0.0
  0
LINE
  5
2E5
330
22
100
AcDbEntity
  8
_4-7_
  6
Continuous
 62
     7
100
AcDbLine
 10
969.9616641638959
 20
1171.349799586162
 30
0.0
 11
969.9616641638959
 21
1171.349799586162
 31
0.0
  0
LINE
  5
2E6
330
22
100
AcDbEntity
  8
_4-7_
  6
Continuous
 62
     7
100
AcDbLine
 10
969.9616641638959
 20
1171.349799586162
 30
0.0
 11
969.9694851328079
 21
1171.328222568453
 31
0.0
  0
LINE
  5
2E7
330
22
100
AcDbEntity
  8
_4-7_
  6
Continuous
 62
     7
100
AcDbLine
 10
969.9694851328079
 20
1171.328222568453
 30
0.0
 11
969.9813065832941
 21
1171.308208644482
 31
0.0
  0
LINE
  5
2E8
330
22
100
AcDbEntity
  8
_4-7_
  6
Continuous
 62
     7
100
AcDbLine
 10
969.9813065832941
 20
1171.308208644482
 30
0.0
 11
969.9967693265637
 21
1171.290365927203
 31
0.0
  0
LINE
  5
2E9
330
22
100
AcDbEntity
  8
_4-7_
  6
Continuous
 62
     7
100
AcDbLine
 10
969.9967693265637
 20
1171.290365927203
 30
0.0
 11
970.015403534987
 21
1171.27523655855
 31
0.0
  0
LINE
  5
2EA
330
22
100
AcDbEntity
  8
_4-7_
  6
Continuous
 62
     7
100
AcDbLine
 10
970.015403534987
 20
1171.27523655855
 30
0.0
 11
970.0366430175703
 21
1171.263280236734
 31
0.0
  0
LINE
  5
2EB
330
22
100
AcDbEntity
  8
_4-7_
  6
Continuous
 62
     7
100
AcDbLine
 10
970.0366430175703
 20
1171.263280236734
 30
0.0
 11
970.0598424233831
 21
1171.254860248544
 31
0.0
  0
LINE
  5
2EC
330
22
100
AcDbEntity
  8
_4-7_
  6
Continuous
 62
     7
100
AcDbLine
 10
970.0598424233831
 20
1171.254860248544
 30
0.0
 11
970.084296850219
 21
1171.25023243106
 31
0.0
  0
LINE
  5
2ED
330
22
100
AcDbEntity
  8
_4-7_
  6
Continuous
 62
     7
100
AcDbLine
 10
970.084296850219
 20
1171.25023243106
 30
0.0
 11
970.1092632626931
 21
1171.249537398174
 31
0.0
  0
LINE
  5
2EE
330
22
100
AcDbEntity
  8
_4-7_
  6
Continuous
 62
     7
100
AcDbLine
 10
970.1092632626931
 20
1171.249537398174
 30
0.0
 11
970.1162694269582
 21
1171.250055992587
 31
0.0
  0
LINE
  5
2EF
330
22
100
AcDbEntity
  8
_4-7_
  6
Continuous
 62
     7
100
AcDbLine
 10
968.9824974978336
 20
1171.349799586162
 30
0.0
 11
968.9824974978336
 21
1171.349799586162
 31
0.0
  0
LINE
  5
2F0
330
22
100
AcDbEntity
  8
_4-7_
  6
Continuous
 62
     7
100
AcDbLine
 10
968.9824974978336
 20
1171.349799586162
 30
0.0
 11
968.9903184667453
 21
1171.328222568453
 31
0.0
  0
LINE
  5
2F1
330
22
100
AcDbEntity
  8
_4-7_
  6
Continuous
 62
     7
100
AcDbLine
 10
968.9903184667453
 20
1171.328222568453
 30
0.0
 11
969.0021399172319
 21
1171.308208644482
 31
0.0
  0
LINE
  5
2F2
330
22
100
AcDbEntity
  8
_4-7_
  6
Continuous
 62
     7
100
AcDbLine
 10
969.0021399172319
 20
1171.308208644482
 30
0.0
 11
969.0176026605016
 21
1171.290365927203
 31
0.0
  0
LINE
  5
2F3
330
22
100
AcDbEntity
  8
_4-7_
  6
Continuous
 62
     7
100
AcDbLine
 10
969.0176026605016
 20
1171.290365927203
 30
0.0
 11
969.0362368689246
 21
1171.27523655855
 31
0.0
  0
LINE
  5
2F4
330
22
100
AcDbEntity
  8
_4-7_
  6
Continuous
 62
     7
100
AcDbLine
 10
969.0362368689246
 20
1171.27523655855
 30
0.0
 11
969.057476351508
 21
1171.263280236734
 31
0.0
  0
LINE
  5
2F5
330
22
100
AcDbEntity
  8
_4-7_
  6
Continuous
 62
     7
100
AcDbLine
 10
969.057476351508
 20
1171.263280236734
 30
0.0
 11
969.0806757573207
 21
1171.254860248544
 31
0.0
  0
LINE
  5
2F6
330
22
100
AcDbEntity
  8
_4-7_
  6
Continuous
 62
     7
100
AcDbLine
 10
969.0806757573207
 20
1171.254860248544
 30
0.0
 11
969.1051301841568
 21
1171.25023243106
 31
0.0
  0
LINE
  5
2F7
330
22
100
AcDbEntity
  8
_4-7_
  6
Continuous
 62
     7
100
AcDbLine
 10
969.1051301841568
 20
1171.25023243106
 30
0.0
 11
969.1300965966309
 21
1171.249537398174
 31
0.0
  0
LINE
  5
2F8
330
22
100
AcDbEntity
  8
_4-7_
  6
Continuous
 62
     7
100
AcDbLine
 10
969.1300965966309
 20
1171.249537398174
 30
0.0
 11
969.137102760896
 21
1171.250055992587
 31
0.0
  0
LINE
  5
2F9
330
22
100
AcDbEntity
  8
_4-7_
  6
Continuous
 62
     7
100
AcDbLine
 10
968.0033308317712
 20
1171.349799586162
 30
0.0
 11
968.0033308317712
 21
1171.349799586162
 31
0.0
  0
LINE
  5
2FA
330
22
100
AcDbEntity
  8
_4-7_
  6
Continuous
 62
     7
100
AcDbLine
 10
968.0033308317712
 20
1171.349799586162
 30
0.0
 11
968.011151800683
 21
1171.328222568453
 31
0.0
  0
LINE
  5
2FB
330
22
100
AcDbEntity
  8
_4-7_
  6
Continuous
 62
     7
100
AcDbLine
 10
968.011151800683
 20
1171.328222568453
 30
0.0
 11
968.0229732511694
 21
1171.308208644482
 31
0.0
  0
LINE
  5
2FC
330
22
100
AcDbEntity
  8
_4-7_
  6
Continuous
 62
     7
100
AcDbLine
 10
968.0229732511694
 20
1171.308208644482
 30
0.0
 11
968.0384359944389
 21
1171.290365927203
 31
0.0
  0
LINE
  5
2FD
330
22
100
AcDbEntity
  8
_4-7_
  6
Continuous
 62
     7
100
AcDbLine
 10
968.0384359944389
 20
1171.290365927203
 30
0.0
 11
968.0570702028624
 21
1171.27523655855
 31
0.0
  0
LINE
  5
2FE
330
22
100
AcDbEntity
  8
_4-7_
  6
Continuous
 62
     7
100
AcDbLine
 10
968.0570702028624
 20
1171.27523655855
 30
0.0
 11
968.0783096854455
 21
1171.263280236734
 31
0.0
  0
LINE
  5
2FF
330
22
100
AcDbEntity
  8
_4-7_
  6
Continuous
 62
     7
100
AcDbLine
 10
968.0783096854455
 20
1171.263280236734
 30
0.0
 11
968.1015090912584
 21
1171.254860248544
 31
0.0
  0
LINE
  5
300
330
22
100
AcDbEntity
  8
_4-7_
  6
Continuous
 62
     7
100
AcDbLine
 10
968.1015090912584
 20
1171.254860248544
 30
0.0
 11
968.1259635180943
 21
1171.25023243106
 31
0.0
  0
LINE
  5
301
330
22
100
AcDbEntity
  8
_4-7_
  6
Continuous
 62
     7
100
AcDbLine
 10
968.1259635180943
 20
1171.25023243106
 30
0.0
 11
968.1509299305687
 21
1171.249537398174
 31
0.0
  0
LINE
  5
302
330
22
100
AcDbEntity
  8
_4-7_
  6
Continuous
 62
     7
100
AcDbLine
 10
968.1509299305687
 20
1171.249537398174
 30
0.0
 11
968.1579360948337
 21
1171.250055992587
 31
0.0
  0
LINE
  5
303
330
22
100
AcDbEntity
  8
_4-7_
  6
Continuous
 62
     7
100
AcDbLine
 10
967.0241641657087
 20
1171.385599318395
 30
0.0
 11
967.0241641657087
 21
1171.385599318395
 31
0.0
  0
LINE
  5
304
330
22
100
AcDbEntity
  8
_4-7_
  6
Continuous
 62
     7
100
AcDbLine
 10
967.0241641657087
 20
1171.385599318395
 30
0.0
 11
967.0319851346206
 21
1171.364022300686
 31
0.0
  0
LINE
  5
305
330
22
100
AcDbEntity
  8
_4-7_
  6
Continuous
 62
     7
100
AcDbLine
 10
967.0319851346206
 20
1171.364022300686
 30
0.0
 11
967.0438065851069
 21
1171.344008376715
 31
0.0
  0
LINE
  5
306
330
22
100
AcDbEntity
  8
_4-7_
  6
Continuous
 62
     7
100
AcDbLine
 10
967.0438065851069
 20
1171.344008376715
 30
0.0
 11
967.0592693283767
 21
1171.326165659436
 31
0.0
  0
LINE
  5
307
330
22
100
AcDbEntity
  8
_4-7_
  6
Continuous
 62
     7
100
AcDbLine
 10
967.0592693283767
 20
1171.326165659436
 30
0.0
 11
967.0779035367999
 21
1171.311036290783
 31
0.0
  0
LINE
  5
308
330
22
100
AcDbEntity
  8
_4-7_
  6
Continuous
 62
     7
100
AcDbLine
 10
967.0779035367999
 20
1171.311036290783
 30
0.0
 11
967.0991430193835
 21
1171.299079968967
 31
0.0
  0
LINE
  5
309
330
22
100
AcDbEntity
  8
_4-7_
  6
Continuous
 62
     7
100
AcDbLine
 10
967.0991430193835
 20
1171.299079968967
 30
0.0
 11
967.1223424251961
 21
1171.290659980777
 31
0.0
  0
LINE
  5
30A
330
22
100
AcDbEntity
  8
_4-7_
  6
Continuous
 62
     7
100
AcDbLine
 10
967.1223424251961
 20
1171.290659980777
 30
0.0
 11
967.1467968520319
 21
1171.286032163292
 31
0.0
  0
LINE
  5
30B
330
22
100
AcDbEntity
  8
_4-7_
  6
Continuous
 62
     7
100
AcDbLine
 10
967.1467968520319
 20
1171.286032163292
 30
0.0
 11
967.1717632645062
 21
1171.285337130407
 31
0.0
  0
LINE
  5
30C
330
22
100
AcDbEntity
  8
_4-7_
  6
Continuous
 62
     7
100
AcDbLine
 10
967.1717632645062
 20
1171.285337130407
 30
0.0
 11
967.1787694287713
 21
1171.28585572482
 31
0.0
  0
LINE
  5
30D
330
22
100
AcDbEntity
  8
_4-7_
  6
Continuous
 62
     7
100
AcDbLine
 10
965.065830833584
 20
1171.349799586162
 30
0.0
 11
965.065830833584
 21
1171.349799586162
 31
0.0
  0
LINE
  5
30E
330
22
100
AcDbEntity
  8
_4-7_
  6
Continuous
 62
     7
100
AcDbLine
 10
965.065830833584
 20
1171.349799586162
 30
0.0
 11
965.0736518024958
 21
1171.328222568453
 31
0.0
  0
LINE
  5
30F
330
22
100
AcDbEntity
  8
_4-7_
  6
Continuous
 62
     7
100
AcDbLine
 10
965.0736518024958
 20
1171.328222568453
 30
0.0
 11
965.0854732529822
 21
1171.308208644482
 31
0.0
  0
LINE
  5
310
330
22
100
AcDbEntity
  8
_4-7_
  6
Continuous
 62
     7
100
AcDbLine
 10
965.0854732529822
 20
1171.308208644482
 30
0.0
 11
965.100935996252
 21
1171.290365927203
 31
0.0
  0
LINE
  5
311
330
22
100
AcDbEntity
  8
_4-7_
  6
Continuous
 62
     7
100
AcDbLine
 10
965.100935996252
 20
1171.290365927203
 30
0.0
 11
965.1195702046752
 21
1171.27523655855
 31
0.0
  0
LINE
  5
312
330
22
100
AcDbEntity
  8
_4-7_
  6
Continuous
 62
     7
100
AcDbLine
 10
965.1195702046752
 20
1171.27523655855
 30
0.0
 11
965.1408096872582
 21
1171.263280236734
 31
0.0
  0
LINE
  5
313
330
22
100
AcDbEntity
  8
_4-7_
  6
Continuous
 62
     7
100
AcDbLine
 10
965.1408096872582
 20
1171.263280236734
 30
0.0
 11
965.1640090930712
 21
1171.254860248544
 31
0.0
  0
LINE
  5
314
330
22
100
AcDbEntity
  8
_4-7_
  6
Continuous
 62
     7
100
AcDbLine
 10
965.1640090930712
 20
1171.254860248544
 30
0.0
 11
965.1884635199072
 21
1171.25023243106
 31
0.0
  0
LINE
  5
315
330
22
100
AcDbEntity
  8
_4-7_
  6
Continuous
 62
     7
100
AcDbLine
 10
965.1884635199072
 20
1171.25023243106
 30
0.0
 11
965.2134299323815
 21
1171.249537398174
 31
0.0
  0
LINE
  5
316
330
22
100
AcDbEntity
  8
_4-7_
  6
Continuous
 62
     7
100
AcDbLine
 10
965.2134299323815
 20
1171.249537398174
 30
0.0
 11
965.2204360966466
 21
1171.250055992587
 31
0.0
  0
LINE
  5
317
330
22
100
AcDbEntity
  8
_4-7_
  6
Continuous
 62
     7
100
AcDbLine
 10
964.0866641675204
 20
1171.369974618096
 30
0.0
 11
964.0866641675204
 21
1171.369974618096
 31
0.0
  0
LINE
  5
318
330
22
100
AcDbEntity
  8
_4-7_
  6
Continuous
 62
     7
100
AcDbLine
 10
964.0866641675204
 20
1171.369974618096
 30
0.0
 11
964.0944851364324
 21
1171.348397600386
 31
0.0
  0
LINE
  5
319
330
22
100
AcDbEntity
  8
_4-7_
  6
Continuous
 62
     7
100
AcDbLine
 10
964.0944851364324
 20
1171.348397600386
 30
0.0
 11
964.1063065869188
 21
1171.328383676416
 31
0.0
  0
LINE
  5
31A
330
22
100
AcDbEntity
  8
_4-7_
  6
Continuous
 62
     7
100
AcDbLine
 10
964.1063065869188
 20
1171.328383676416
 30
0.0
 11
964.1217693301886
 21
1171.310540959136
 31
0.0
  0
LINE
  5
31B
330
22
100
AcDbEntity
  8
_4-7_
  6
Continuous
 62
     7
100
AcDbLine
 10
964.1217693301886
 20
1171.310540959136
 30
0.0
 11
964.1404035386115
 21
1171.295411590483
 31
0.0
  0
LINE
  5
31C
330
22
100
AcDbEntity
  8
_4-7_
  6
Continuous
 62
     7
100
AcDbLine
 10
964.1404035386115
 20
1171.295411590483
 30
0.0
 11
964.1616430211952
 21
1171.283455268667
 31
0.0
  0
LINE
  5
31D
330
22
100
AcDbEntity
  8
_4-7_
  6
Continuous
 62
     7
100
AcDbLine
 10
964.1616430211952
 20
1171.283455268667
 30
0.0
 11
964.1848424270076
 21
1171.275035280477
 31
0.0
  0
LINE
  5
31E
330
22
100
AcDbEntity
  8
_4-7_
  6
Continuous
 62
     7
100
AcDbLine
 10
964.1848424270076
 20
1171.275035280477
 30
0.0
 11
964.2092968538435
 21
1171.270407462993
 31
0.0
  0
LINE
  5
31F
330
22
100
AcDbEntity
  8
_4-7_
  6
Continuous
 62
     7
100
AcDbLine
 10
964.2092968538435
 20
1171.270407462993
 30
0.0
 11
964.2342632663181
 21
1171.269712430107
 31
0.0
  0
LINE
  5
320
330
22
100
AcDbEntity
  8
_4-7_
  6
Continuous
 62
     7
100
AcDbLine
 10
964.2342632663181
 20
1171.269712430107
 30
0.0
 11
964.2412694305827
 21
1171.27023102452
 31
0.0
  0
LINE
  5
321
330
22
100
AcDbEntity
  8
_4-7_
  6
Continuous
 62
     7
100
AcDbLine
 10
963.1074975014579
 20
1171.3900389636
 30
0.0
 11
963.1074975014579
 21
1171.3900389636
 31
0.0
  0
LINE
  5
322
330
22
100
AcDbEntity
  8
_4-7_
  6
Continuous
 62
     7
100
AcDbLine
 10
963.1074975014579
 20
1171.3900389636
 30
0.0
 11
963.1153184703698
 21
1171.368461945891
 31
0.0
  0
LINE
  5
323
330
22
100
AcDbEntity
  8
_4-7_
  6
Continuous
 62
     7
100
AcDbLine
 10
963.1153184703698
 20
1171.368461945891
 30
0.0
 11
963.1271399208564
 21
1171.34844802192
 31
0.0
  0
LINE
  5
324
330
22
100
AcDbEntity
  8
_4-7_
  6
Continuous
 62
     7
100
AcDbLine
 10
963.1271399208564
 20
1171.34844802192
 30
0.0
 11
963.1426026641261
 21
1171.330605304641
 31
0.0
  0
LINE
  5
325
330
22
100
AcDbEntity
  8
_4-7_
  6
Continuous
 62
     7
100
AcDbLine
 10
963.1426026641261
 20
1171.330605304641
 30
0.0
 11
963.1612368725491
 21
1171.315475935987
 31
0.0
  0
LINE
  5
326
330
22
100
AcDbEntity
  8
_4-7_
  6
Continuous
 62
     7
100
AcDbLine
 10
963.1612368725491
 20
1171.315475935987
 30
0.0
 11
963.1824763551323
 21
1171.303519614172
 31
0.0
  0
LINE
  5
327
330
22
100
AcDbEntity
  8
_4-7_
  6
Continuous
 62
     7
100
AcDbLine
 10
963.1824763551323
 20
1171.303519614172
 30
0.0
 11
963.2056757609452
 21
1171.295099625982
 31
0.0
  0
LINE
  5
328
330
22
100
AcDbEntity
  8
_4-7_
  6
Continuous
 62
     7
100
AcDbLine
 10
963.2056757609452
 20
1171.295099625982
 30
0.0
 11
963.2301301877809
 21
1171.290471808497
 31
0.0
  0
LINE
  5
329
330
22
100
AcDbEntity
  8
_4-7_
  6
Continuous
 62
     7
100
AcDbLine
 10
963.2301301877809
 20
1171.290471808497
 30
0.0
 11
963.2550966002556
 21
1171.289776775612
 31
0.0
  0
LINE
  5
32A
330
22
100
AcDbEntity
  8
_4-7_
  6
Continuous
 62
     7
100
AcDbLine
 10
963.2550966002556
 20
1171.289776775612
 30
0.0
 11
963.2621027645205
 21
1171.290295370025
 31
0.0
  0
LINE
  5
32B
330
22
100
AcDbEntity
  8
_4-7_
  6
Continuous
 62
     7
100
AcDbLine
 10
962.1283308353966
 20
1171.403985795494
 30
0.0
 11
962.1283308353966
 21
1171.403985795494
 31
0.0
  0
LINE
  5
32C
330
22
100
AcDbEntity
  8
_4-7_
  6
Continuous
 62
     7
100
AcDbLine
 10
962.1283308353966
 20
1171.403985795494
 30
0.0
 11
962.1361518043087
 21
1171.382408777784
 31
0.0
  0
LINE
  5
32D
330
22
100
AcDbEntity
  8
_4-7_
  6
Continuous
 62
     7
100
AcDbLine
 10
962.1361518043087
 20
1171.382408777784
 30
0.0
 11
962.1479732547951
 21
1171.362394853814
 31
0.0
  0
LINE
  5
32E
330
22
100
AcDbEntity
  8
_4-7_
  6
Continuous
 62
     7
100
AcDbLine
 10
962.1479732547951
 20
1171.362394853814
 30
0.0
 11
962.1634359980648
 21
1171.344552136534
 31
0.0
  0
LINE
  5
32F
330
22
100
AcDbEntity
  8
_4-7_
  6
Continuous
 62
     7
100
AcDbLine
 10
962.1634359980648
 20
1171.344552136534
 30
0.0
 11
962.1820702064882
 21
1171.329422767881
 31
0.0
  0
LINE
  5
330
330
22
100
AcDbEntity
  8
_4-7_
  6
Continuous
 62
     7
100
AcDbLine
 10
962.1820702064882
 20
1171.329422767881
 30
0.0
 11
962.2033096890712
 21
1171.317466446065
 31
0.0
  0
LINE
  5
331
330
22
100
AcDbEntity
  8
_4-7_
  6
Continuous
 62
     7
100
AcDbLine
 10
962.2033096890712
 20
1171.317466446065
 30
0.0
 11
962.226509094884
 21
1171.309046457875
 31
0.0
  0
LINE
  5
332
330
22
100
AcDbEntity
  8
_4-7_
  6
Continuous
 62
     7
100
AcDbLine
 10
962.226509094884
 20
1171.309046457875
 30
0.0
 11
962.25096352172
 21
1171.304418640391
 31
0.0
  0
LINE
  5
333
330
22
100
AcDbEntity
  8
_4-7_
  6
Continuous
 62
     7
100
AcDbLine
 10
962.25096352172
 20
1171.304418640391
 30
0.0
 11
962.2759299341943
 21
1171.303723607505
 31
0.0
  0
LINE
  5
334
330
22
100
AcDbEntity
  8
_4-7_
  6
Continuous
 62
     7
100
AcDbLine
 10
962.2759299341943
 20
1171.303723607505
 30
0.0
 11
962.2829360984594
 21
1171.304242201919
 31
0.0
  0
LINE
  5
335
330
22
100
AcDbEntity
  8
_4-7_
  6
Continuous
 62
     7
100
AcDbLine
 10
961.1491641693335
 20
1171.398246304912
 30
0.0
 11
961.1491641693335
 21
1171.398246304912
 31
0.0
  0
LINE
  5
336
330
22
100
AcDbEntity
  8
_4-7_
  6
Continuous
 62
     7
100
AcDbLine
 10
961.1491641693335
 20
1171.398246304912
 30
0.0
 11
961.1523490561138
 21
1171.381280094951
 31
0.0
  0
LINE
  5
337
330
22
100
AcDbEntity
  8
_4-7_
  6
Continuous
 62
     7
100
AcDbLine
 10
961.1523490561138
 20
1171.381280094951
 30
0.0
 11
961.1587246009966
 21
1171.365074679805
 31
0.0
  0
LINE
  5
338
330
22
100
AcDbEntity
  8
_4-7_
  6
Continuous
 62
     7
100
AcDbLine
 10
961.1587246009966
 20
1171.365074679805
 30
0.0
 11
961.1680970862751
 21
1171.350122452816
 31
0.0
  0
LINE
  5
339
330
22
100
AcDbEntity
  8
_4-7_
  6
Continuous
 62
     7
100
AcDbLine
 10
961.1680970862751
 20
1171.350122452816
 30
0.0
 11
961.1801817337283
 21
1171.336877729834
 31
0.0
  0
LINE
  5
33A
330
22
100
AcDbEntity
  8
_4-7_
  6
Continuous
 62
     7
100
AcDbLine
 10
961.1801817337283
 20
1171.336877729834
 30
0.0
 11
961.1946113574582
 21
1171.325742945064
 31
0.0
  0
LINE
  5
33B
330
22
100
AcDbEntity
  8
_4-7_
  6
Continuous
 62
     7
100
AcDbLine
 10
961.1946113574582
 20
1171.325742945064
 30
0.0
 11
961.2109475206493
 21
1171.317056423307
 31
0.0
  0
LINE
  5
33C
330
22
100
AcDbEntity
  8
_4-7_
  6
Continuous
 62
     7
100
AcDbLine
 10
961.2109475206493
 20
1171.317056423307
 30
0.0
 11
961.2286938572493
 21
1171.311082100131
 31
0.0
  0
LINE
  5
33D
330
22
100
AcDbEntity
  8
_4-7_
  6
Continuous
 62
     7
100
AcDbLine
 10
961.2286938572493
 20
1171.311082100131
 30
0.0
 11
961.2473111538008
 21
1171.308001502323
 31
0.0
  0
LINE
  5
33E
330
22
100
AcDbEntity
  8
_4-7_
  6
Continuous
 62
     7
100
AcDbLine
 10
961.2473111538008
 20
1171.308001502323
 30
0.0
 11
961.2662337331691
 21
1171.307908232288
 31
0.0
  0
LINE
  5
33F
330
22
100
AcDbEntity
  8
_4-7_
  6
Continuous
 62
     7
100
AcDbLine
 10
961.2662337331691
 20
1171.307908232288
 30
0.0
 11
961.2848866423554
 21
1171.310805123989
 31
0.0
  0
LINE
  5
340
330
22
100
AcDbEntity
  8
_4-7_
  6
Continuous
 62
     7
100
AcDbLine
 10
961.2848866423554
 20
1171.310805123989
 30
0.0
 11
961.302703122153
 21
1171.316604156837
 31
0.0
  0
LINE
  5
341
330
22
100
AcDbEntity
  8
_4-7_
  6
Continuous
 62
     7
100
AcDbLine
 10
961.302703122153
 20
1171.316604156837
 30
0.0
 11
961.3191418278384
 21
1171.325129130155
 31
0.0
  0
LINE
  5
342
330
22
100
AcDbEntity
  8
_4-7_
  6
Continuous
 62
     7
100
AcDbLine
 10
961.3191418278384
 20
1171.325129130155
 30
0.0
 11
961.3192246330019
 21
1171.325181313753
 31
0.0
  0
LINE
  5
343
330
22
100
AcDbEntity
  8
_4-7_
  6
Continuous
 62
     7
100
AcDbLine
 10
966.0449974996463
 20
1171.587689273661
 30
0.0
 11
966.0449974996463
 21
1171.587689273661
 31
0.0
  0
LINE
  5
344
330
22
100
AcDbEntity
  8
_4-7_
  6
Continuous
 62
     7
100
AcDbLine
 10
966.0449974996463
 20
1171.587689273661
 30
0.0
 11
966.0526599725509
 21
1171.534985629415
 31
0.0
  0
LINE
  5
345
330
22
100
AcDbEntity
  8
_4-7_
  6
Continuous
 62
     7
100
AcDbLine
 10
966.0526599725509
 20
1171.534985629415
 30
0.0
 11
966.0702677642429
 21
1171.484292928504
 31
0.0
  0
LINE
  5
346
330
22
100
AcDbEntity
  8
_4-7_
  6
Continuous
 62
     7
100
AcDbLine
 10
966.0702677642429
 20
1171.484292928504
 30
0.0
 11
966.0972858708817
 21
1171.437151442992
 31
0.0
  0
LINE
  5
347
330
22
100
AcDbEntity
  8
_4-7_
  6
Continuous
 62
     7
100
AcDbLine
 10
966.0972858708817
 20
1171.437151442992
 30
0.0
 11
966.1328933609681
 21
1171.394993543064
 31
0.0
  0
LINE
  5
348
330
22
100
AcDbEntity
  8
_4-7_
  6
Continuous
 62
     7
100
AcDbLine
 10
966.1328933609681
 20
1171.394993543064
 30
0.0
 11
966.1760083189347
 21
1171.359100175174
 31
0.0
  0
LINE
  5
349
330
22
100
AcDbEntity
  8
_4-7_
  6
Continuous
 62
     7
100
AcDbLine
 10
966.1760083189347
 20
1171.359100175174
 30
0.0
 11
966.2253207186008
 21
1171.330561941144
 31
0.0
  0
LINE
  5
34A
330
22
100
AcDbEntity
  8
_4-7_
  6
Continuous
 62
     7
100
AcDbLine
 10
966.2253207186008
 20
1171.330561941144
 30
0.0
 11
966.2793322276559
 21
1171.310245960773
 31
0.0
  0
LINE
  5
34B
330
22
100
AcDbEntity
  8
_4-7_
  6
Continuous
 62
     7
100
AcDbLine
 10
966.2793322276559
 20
1171.310245960773
 30
0.0
 11
966.3364017337286
 21
1171.298769524845
 31
0.0
  0
LINE
  5
34C
330
22
100
AcDbEntity
  8
_4-7_
  6
Continuous
 62
     7
100
AcDbLine
 10
966.3364017337286
 20
1171.298769524845
 30
0.0
 11
966.3947952087552
 21
1171.296481339058
 31
0.0
  0
LINE
  5
34D
330
22
100
AcDbEntity
  8
_4-7_
  6
Continuous
 62
     7
100
AcDbLine
 10
966.3947952087552
 20
1171.296481339058
 30
0.0
 11
966.4527383965456
 21
1171.303450928779
 31
0.0
  0
LINE
  5
34E
330
22
100
AcDbEntity
  8
_4-7_
  6
Continuous
 62
     7
100
AcDbLine
 10
966.4527383965456
 20
1171.303450928779
 30
0.0
 11
966.5084707226593
 21
1171.319466526551
 31
0.0
  0
LINE
  5
34F
330
22
100
AcDbEntity
  8
_4-7_
  6
Continuous
 62
     7
100
AcDbLine
 10
966.5084707226593
 20
1171.319466526551
 30
0.0
 11
966.5602987885696
 21
1171.34404150654
 31
0.0
  0
LINE
  5
350
330
22
100
AcDbEntity
  8
_4-7_
  6
Continuous
 62
     7
100
AcDbLine
 10
966.5602987885696
 20
1171.34404150654
 30
0.0
 11
966.60664782472
 21
1171.376429170416
 31
0.0
  0
LINE
  5
351
330
22
100
AcDbEntity
  8
_4-7_
  6
Continuous
 62
     7
100
AcDbLine
 10
966.60664782472
 20
1171.376429170416
 30
0.0
 11
966.6461095391007
 21
1171.415645435399
 31
0.0
  0
LINE
  5
352
330
22
100
AcDbEntity
  8
_4-7_
  6
Continuous
 62
     7
100
AcDbLine
 10
966.6461095391007
 20
1171.415645435399
 30
0.0
 11
966.6774849074887
 21
1171.460498735123
 31
0.0
  0
LINE
  5
353
330
22
100
AcDbEntity
  8
_4-7_
  6
Continuous
 62
     7
100
AcDbLine
 10
966.6774849074887
 20
1171.460498735123
 30
0.0
 11
966.6998206051927
 21
1171.509626224773
 31
0.0
  0
LINE
  5
354
330
22
100
AcDbEntity
  8
_4-7_
  6
Continuous
 62
     7
100
AcDbLine
 10
966.6998206051927
 20
1171.509626224773
 30
0.0
 11
966.7124379733396
 21
1171.561535190435
 31
0.0
  0
LINE
  5
355
330
22
100
AcDbEntity
  8
_4-7_
  6
Continuous
 62
     7
100
AcDbLine
 10
966.7124379733396
 20
1171.561535190435
 30
0.0
 11
966.7149536395836
 21
1171.587689273661
 31
0.0
  0
LINE
  5
356
330
22
100
AcDbEntity
  8
_4-7_
  6
Continuous
 62
     7
100
AcDbLine
 10
970.9408308299593
 20
1171.587689273661
 30
0.0
 11
970.9408308299593
 21
1171.587689273661
 31
0.0
  0
LINE
  5
357
330
22
100
AcDbEntity
  8
_4-7_
  6
Continuous
 62
     7
100
AcDbLine
 10
970.9408308299593
 20
1171.587689273661
 30
0.0
 11
970.948493302864
 21
1171.534985629415
 31
0.0
  0
LINE
  5
358
330
22
100
AcDbEntity
  8
_4-7_
  6
Continuous
 62
     7
100
AcDbLine
 10
970.948493302864
 20
1171.534985629415
 30
0.0
 11
970.9661010945559
 21
1171.484292928504
 31
0.0
  0
LINE
  5
359
330
22
100
AcDbEntity
  8
_4-7_
  6
Continuous
 62
     7
100
AcDbLine
 10
970.9661010945559
 20
1171.484292928504
 30
0.0
 11
970.9931192011943
 21
1171.437151442992
 31
0.0
  0
LINE
  5
35A
330
22
100
AcDbEntity
  8
_4-7_
  6
Continuous
 62
     7
100
AcDbLine
 10
970.9931192011943
 20
1171.437151442992
 30
0.0
 11
971.0287266912812
 21
1171.394993543064
 31
0.0
  0
LINE
  5
35B
330
22
100
AcDbEntity
  8
_4-7_
  6
Continuous
 62
     7
100
AcDbLine
 10
971.0287266912812
 20
1171.394993543064
 30
0.0
 11
971.0718416492476
 21
1171.359100175174
 31
0.0
  0
LINE
  5
35C
330
22
100
AcDbEntity
  8
_4-7_
  6
Continuous
 62
     7
100
AcDbLine
 10
971.0718416492476
 20
1171.359100175174
 30
0.0
 11
971.121154048914
 21
1171.330561941144
 31
0.0
  0
LINE
  5
35D
330
22
100
AcDbEntity
  8
_4-7_
  6
Continuous
 62
     7
100
AcDbLine
 10
971.121154048914
 20
1171.330561941144
 30
0.0
 11
971.1751655579691
 21
1171.310245960773
 31
0.0
  0
LINE
  5
35E
330
22
100
AcDbEntity
  8
_4-7_
  6
Continuous
 62
     7
100
AcDbLine
 10
971.1751655579691
 20
1171.310245960773
 30
0.0
 11
971.2322350640416
 21
1171.298769524845
 31
0.0
  0
LINE
  5
35F
330
22
100
AcDbEntity
  8
_4-7_
  6
Continuous
 62
     7
100
AcDbLine
 10
971.2322350640416
 20
1171.298769524845
 30
0.0
 11
971.290628539068
 21
1171.296481339058
 31
0.0
  0
LINE
  5
360
330
22
100
AcDbEntity
  8
_4-7_
  6
Continuous
 62
     7
100
AcDbLine
 10
971.290628539068
 20
1171.296481339058
 30
0.0
 11
971.3485717268584
 21
1171.303450928779
 31
0.0
  0
LINE
  5
361
330
22
100
AcDbEntity
  8
_4-7_
  6
Continuous
 62
     7
100
AcDbLine
 10
971.3485717268584
 20
1171.303450928779
 30
0.0
 11
971.4043040529725
 21
1171.319466526551
 31
0.0
  0
LINE
  5
362
330
22
100
AcDbEntity
  8
_4-7_
  6
Continuous
 62
     7
100
AcDbLine
 10
971.4043040529725
 20
1171.319466526551
 30
0.0
 11
971.4561321188828
 21
1171.34404150654
 31
0.0
  0
LINE
  5
363
330
22
100
AcDbEntity
  8
_4-7_
  6
Continuous
 62
     7
100
AcDbLine
 10
971.4561321188828
 20
1171.34404150654
 30
0.0
 11
971.5024811550328
 21
1171.376429170416
 31
0.0
  0
LINE
  5
364
330
22
100
AcDbEntity
  8
_4-7_
  6
Continuous
 62
     7
100
AcDbLine
 10
971.5024811550328
 20
1171.376429170416
 30
0.0
 11
971.5419428694135
 21
1171.415645435399
 31
0.0
  0
LINE
  5
365
330
22
100
AcDbEntity
  8
_4-7_
  6
Continuous
 62
     7
100
AcDbLine
 10
971.5419428694135
 20
1171.415645435399
 30
0.0
 11
971.5733182378018
 21
1171.460498735123
 31
0.0
  0
LINE
  5
366
330
22
100
AcDbEntity
  8
_4-7_
  6
Continuous
 62
     7
100
AcDbLine
 10
971.5733182378018
 20
1171.460498735123
 30
0.0
 11
971.5956539355056
 21
1171.509626224773
 31
0.0
  0
LINE
  5
367
330
22
100
AcDbEntity
  8
_4-7_
  6
Continuous
 62
     7
100
AcDbLine
 10
971.5956539355056
 20
1171.509626224773
 30
0.0
 11
971.6082713036527
 21
1171.561535190435
 31
0.0
  0
LINE
  5
368
330
22
100
AcDbEntity
  8
_4-7_
  6
Continuous
 62
     7
100
AcDbLine
 10
971.6082713036527
 20
1171.561535190435
 30
0.0
 11
971.6107869698968
 21
1171.587689273661
 31
0.0
  0
LINE
  5
369
330
22
100
AcDbEntity
  8
_4-7_
  6
Continuous
 62
     7
100
AcDbLine
 10
959.4485062756458
 20
1171.353006683731
 30
0.0
 11
959.4485062756458
 21
1171.353006683731
 31
0.0
  0
LINE
  5
36A
330
22
100
AcDbEntity
  8
_4-7_
  6
Continuous
 62
     7
100
AcDbLine
 10
959.4485062756458
 20
1171.353006683731
 30
0.0
 11
959.5355410393427
 21
1171.356384136498
 31
0.0
  0
LINE
  5
36B
330
22
100
AcDbEntity
  8
_4-7_
  6
Continuous
 62
     7
100
AcDbLine
 10
959.5355410393427
 20
1171.356384136498
 30
0.0
 11
959.6206087550196
 21
1171.373457066509
 31
0.0
  0
LINE
  5
36C
330
22
100
AcDbEntity
  8
_4-7_
  6
Continuous
 62
     7
100
AcDbLine
 10
959.6206087550196
 20
1171.373457066509
 30
0.0
 11
959.654646626396
 21
1171.384428766911
 31
0.0
  0
LINE
  5
36D
330
22
100
AcDbEntity
  8
_4-7_
  6
Continuous
 62
     7
100
AcDbLine
 10
958.1989266146754
 20
1170.671190679912
 30
0.0
 11
958.1989266146754
 21
1170.671190679912
 31
0.0
  0
LINE
  5
36E
330
22
100
AcDbEntity
  8
_4-7_
  6
Continuous
 62
     7
100
AcDbLine
 10
958.1989266146754
 20
1170.671190679912
 30
0.0
 11
958.2338267362656
 21
1170.672954320433
 31
0.0
  0
LINE
  5
36F
330
22
100
AcDbEntity
  8
_4-7_
  6
Continuous
 62
     7
100
AcDbLine
 10
958.2338267362656
 20
1170.672954320433
 30
0.0
 11
958.2678599474252
 21
1170.680203500113
 31
0.0
  0
LINE
  5
370
330
22
100
AcDbEntity
  8
_4-7_
  6
Continuous
 62
     7
100
AcDbLine
 10
958.2678599474252
 20
1170.680203500113
 30
0.0
 11
958.2999921662551
 21
1170.692717956297
 31
0.0
  0
LINE
  5
371
330
22
100
AcDbEntity
  8
_4-7_
  6
Continuous
 62
     7
100
AcDbLine
 10
958.2999921662551
 20
1170.692717956297
 30
0.0
 11
958.3292470715461
 21
1170.710117443567
 31
0.0
  0
LINE
  5
372
330
22
100
AcDbEntity
  8
_4-7_
  6
Continuous
 62
     7
100
AcDbLine
 10
958.3292470715461
 20
1170.710117443567
 30
0.0
 11
958.3547357678041
 21
1170.731873287305
 31
0.0
  0
LINE
  5
373
330
22
100
AcDbEntity
  8
_4-7_
  6
Continuous
 62
     7
100
AcDbLine
 10
958.3547357678041
 20
1170.731873287305
 30
0.0
 11
958.3756837938913
 21
1170.75732444721
 31
0.0
  0
LINE
  5
374
330
22
100
AcDbEntity
  8
_4-7_
  6
Continuous
 62
     7
100
AcDbLine
 10
958.3756837938913
 20
1170.75732444721
 30
0.0
 11
958.391454654636
 21
1170.785697602665
 31
0.0
  0
LINE
  5
375
330
22
100
AcDbEntity
  8
_4-7_
  6
Continuous
 62
     7
100
AcDbLine
 10
958.391454654636
 20
1170.785697602665
 30
0.0
 11
958.4015691604136
 21
1170.816130649701
 31
0.0
  0
LINE
  5
376
330
22
100
AcDbEntity
  8
_4-7_
  6
Continuous
 62
     7
100
AcDbLine
 10
958.4015691604136
 20
1170.816130649701
 30
0.0
 11
958.4057199870851
 21
1170.847698895583
 31
0.0
  0
LINE
  5
377
330
22
100
AcDbEntity
  8
_4-7_
  6
Continuous
 62
     7
100
AcDbLine
 10
958.4057199870851
 20
1170.847698895583
 30
0.0
 11
958.4037810138829
 21
1170.879443155134
 31
0.0
  0
LINE
  5
378
330
22
100
AcDbEntity
  8
_4-7_
  6
Continuous
 62
     7
100
AcDbLine
 10
958.4037810138829
 20
1170.879443155134
 30
0.0
 11
958.3958111555256
 21
1170.910398895091
 31
0.0
  0
LINE
  5
379
330
22
100
AcDbEntity
  8
_4-7_
  6
Continuous
 62
     7
100
AcDbLine
 10
958.3958111555256
 20
1170.910398895091
 30
0.0
 11
958.3820525721268
 21
1170.939625540959
 31
0.0
  0
LINE
  5
37A
330
22
100
AcDbEntity
  8
_4-7_
  6
Continuous
 62
     7
100
AcDbLine
 10
958.3820525721268
 20
1170.939625540959
 30
0.0
 11
958.3629233112809
 21
1170.966235055894
 31
0.0
  0
LINE
  5
37B
330
22
100
AcDbEntity
  8
_4-7_
  6
Continuous
 62
     7
100
AcDbLine
 10
958.3629233112809
 20
1170.966235055894
 30
0.0
 11
958.3390046058992
 21
1170.98941892325
 31
0.0
  0
LINE
  5
37C
330
22
100
AcDbEntity
  8
_4-7_
  6
Continuous
 62
     7
100
AcDbLine
 10
958.3390046058992
 20
1170.98941892325
 30
0.0
 11
958.3110232137407
 21
1171.008472712948
 31
0.0
  0
LINE
  5
37D
330
22
100
AcDbEntity
  8
_4-7_
  6
Continuous
 62
     7
100
AcDbLine
 10
958.3110232137407
 20
1171.008472712948
 30
0.0
 11
958.2798293352473
 21
1171.022817485229
 31
0.0
  0
LINE
  5
37E
330
22
100
AcDbEntity
  8
_4-7_
  6
Continuous
 62
     7
100
AcDbLine
 10
958.2798293352473
 20
1171.022817485229
 30
0.0
 11
958.246370780632
 21
1171.032017381448
 31
0.0
  0
LINE
  5
37F
330
22
100
AcDbEntity
  8
_4-7_
  6
Continuous
 62
     7
100
AcDbLine
 10
958.246370780632
 20
1171.032017381448
 30
0.0
 11
958.211664171146
 21
1171.035792867412
 31
0.0
  0
LINE
  5
380
330
22
100
AcDbEntity
  8
_4-7_
  6
Continuous
 62
     7
100
AcDbLine
 10
958.211664171146
 20
1171.035792867412
 30
0.0
 11
958.211664171146
 21
1171.035792867412
 31
0.0
  0
ENDSEC
  0
SECTION
  2
OBJECTS
  0
DICTIONARY
  5
C
330
0
100
AcDbDictionary
281
     1
  3
ACAD_COLOR
350
1B
  3
ACAD_GROUP
350
D
  3
ACAD_LAYOUT
350
19
  3
ACAD_MATERIAL
350
1A
  3
ACAD_MLINESTYLE
350
16
  3
ACAD_PLOTSETTINGS
350
18
  3
ACAD_PLOTSTYLENAME
350
E
  3
ACAD_TABLESTYLE
350
1C
  3
ACDBHEADERROUNDTRIPXREC
350
388
  3
AcDbVariableDictionary
350
383
  0
DICTIONARY
  5
1B
102
{ACAD_REACTORS
330
C
102
}
330
C
100
AcDbDictionary
281
     1
  0
DICTIONARY
  5
D
102
{ACAD_REACTORS
330
C
102
}
330
C
100
AcDbDictionary
281
     1
  0
DICTIONARY
  5
19
102
{ACAD_REACTORS
330
C
102
}
330
C
100
AcDbDictionary
281
     1
  3
Model
350
25
  3
レイアウト1
350
21
  0
DICTIONARY
  5
1A
102
{ACAD_REACTORS
330
C
102
}
330
C
100
AcDbDictionary
281
     1
  0
DICTIONARY
  5
16
102
{ACAD_REACTORS
330
C
102
}
330
C
100
AcDbDictionary
281
     1
  3
Standard
350
17
  0
DICTIONARY
  5
18
102
{ACAD_REACTORS
330
C
102
}
330
C
100
AcDbDictionary
281
     1
  0
ACDBDICTIONARYWDFLT
  5
E
102
{ACAD_REACTORS
330
C
102
}
330
C
100
AcDbDictionary
281
     1
  3
Normal
350
F
100
AcDbDictionaryWithDefault
340
F
  0
DICTIONARY
  5
1C
102
{ACAD_REACTORS
330
C
102
}
330
C
100
AcDbDictionary
281
     1
  3
Standard
350
1D
  0
DICTIONARY
  5
388
102
{ACAD_REACTORS
330
C
102
}
330
C
100
AcDbDictionary
281
     1
  0
DICTIONARY
  5
383
102
{ACAD_REACTORS
330
C
102
}
330
C
100
AcDbDictionary
281
     1
  3
CTABLESTYLE
350
384
  3
DIMASSOC
350
385
  3
PROJECTNAME
350
386
  0
LAYOUT
  5
25
102
{ACAD_XDICTIONARY
360
38B
102
}
102
{ACAD_REACTORS
330
19
102
}
330
19
100
AcDbPlotSettings
  1

  2
PC1665
  4

  6

 40
0.0
 41
0.0
 42
0.0
 43
0.0
 44
0.0
 45
0.0
 46
0.0
 47
0.0
 48
0.0
 49
0.0
140
0.0
141
0.0
142
1.0
143
1.0
 70
  1712
 72
     0
 73
     0
 74
     0
  7

 75
     0
147
1.0
148
0.0
149
0.0
100
AcDbLayout
  1
Model
 70
     1
 71
     0
 10
0.0
 20
0.0
 11
12.0
 21
9.0
 12
0.0
 22
0.0
 32
0.0
 14
0.0
 24
0.0
 34
0.0
 15
0.0
 25
0.0
 35
0.0
146
0.0
 13
0.0
 23
0.0
 33
0.0
 16
1.0
 26
0.0
 36
0.0
 17
0.0
 27
1.0
 37
0.0
 76
     0
330
22
  0
LAYOUT
  5
21
102
{ACAD_XDICTIONARY
360
389
102
}
102
{ACAD_REACTORS
330
19
102
}
330
19
100
AcDbPlotSettings
  1

  2
PC1665
  4

  6

 40
0.0
 41
0.0
 42
0.0
 43
0.0
 44
0.0
 45
0.0
 46
0.0
 47
0.0
 48
0.0
 49
0.0
140
0.0
141
0.0
142
1.0
143
1.0
 70
   688
 72
     0
 73
     0
 74
     5
  7

 75
    16
147
1.0
148
0.0
149
0.0
100
AcDbLayout
  1
レイアウト1
 70
     1
 71
     1
 10
0.0
 20
0.0
 11
12.0
 21
9.0
 12
0.0
 22
0.0
 32
0.0
 14
1.000000000000000E+20
 24
1.000000000000000E+20
 34
1.000000000000000E+20
 15
-1.000000000000000E+20
 25
-1.000000000000000E+20
 35
-1.000000000000000E+20
146
0.0
 13
0.0
 23
0.0
 33
0.0
 16
1.0
 26
0.0
 36
0.0
 17
0.0
 27
1.0
 37
0.0
 76
     0
330
1E
  0
MLINESTYLE
  5
17
102
{ACAD_REACTORS
330
16
102
}
330
16
100
AcDbMlineStyle
  2
STANDARD
 70
     0
  3

 62
   256
 51
90.0
 52
90.0
 71
     2
 49
0.5
 62
   256
  6
BYLAYER
 49
-0.5
 62
   256
  6
BYLAYER
  0
ACDBPLACEHOLDER
  5
F
102
{ACAD_REACTORS
330
E
102
}
330
E
  0
TABLESTYLE
  5
1D
102
{ACAD_REACTORS
330
1C
102
}
330
1C
100
AcDbTableStyle
  3
Standard
 70
     0
 71
     0
 40
0.06
 41
0.06
280
     0
281
     0
  7
STANDARD
140
0.18
170
     2
 62
     0
 63
     7
283
     0
274
    -2
284
     1
 64
     0
275
    -2
285
     1
 65
     0
276
    -2
286
     1
 66
     0
277
    -2
287
     1
 67
     0
278
    -2
288
     1
 68
     0
279
    -2
289
     1
 69
     0
  7
STANDARD
140
0.25
170
     5
 62
     0
 63
     7
283
     0
274
    -2
284
     1
 64
     0
275
    -2
285
     1
 65
     0
276
    -2
286
     1
 66
     0
277
    -2
287
     1
 67
     0
278
    -2
288
     1
 68
     0
279
    -2
289
     1
 69
     0
  7
STANDARD
140
0.18
170
     5
 62
     0
 63
     7
283
     0
274
    -2
284
     1
 64
     0
275
    -2
285
     1
 65
     0
276
    -2
286
     1
 66
     0
277
    -2
287
     1
 67
     0
278
    -2
288
     1
 68
     0
279
    -2
289
     1
 69
     0
  0
DICTIONARYVAR
  5
384
102
{ACAD_REACTORS
330
383
102
}
330
383
100
DictionaryVariables
280
     0
  1
STANDARD
  0
DICTIONARYVAR
  5
385
102
{ACAD_REACTORS
330
383
102
}
330
383
100
DictionaryVariables
280
     0
  1
1
  0
DICTIONARYVAR
  5
386
102
{ACAD_REACTORS
330
383
102
}
330
383
100
DictionaryVariables
280
     0
  1

  0
DICTIONARY
  5
38B
330
25
100
AcDbDictionary
280
     1
281
     1
  3
ACAD_XREC_ROUNDTRIP
360
38C
  0
DICTIONARY
  5
389
330
21
100
AcDbDictionary
280
     1
281
     1
  3
ACAD_XREC_ROUNDTRIP
360
38A
  0
XRECORD
  5
38C
102
{ACAD_REACTORS
330
38B
102
}
330
38B
100
AcDbXrecord
280
     1
102
SHADEPLOT
 70
     0
102
SHADEPLOTRESLEVEL
 70
     2
102
SHADEPLOTCUSTOMDPI
 70
   300
  0
XRECORD
  5
38A
102
{ACAD_REACTORS
330
389
102
}
330
389
100
AcDbXrecord
280
     1
102
SHADEPLOT
 70
     0
102
SHADEPLOTRESLEVEL
 70
     2
102
SHADEPLOTCUSTOMDPI
 70
   300
  0
ENDSEC
  0
EOF
