  0
SECTION
  2
HEADER
  9
$ACADVER
  1
AC1015
  9
$ACADMAINTVER
 70
    20
  9
$DWGCODEPAGE
  3
ANSI_932
  9
$INSBASE
 10
0.0
 20
0.0
 30
0.0
  9
$EXTMIN
 10
527.0507867530113
 20
37.11593978004021
 30
-0.0015258207003583
  9
$EXTMAX
 10
1527.287296703186
 20
1467.144473651592
 30
0.0000000349246037
  9
$LIMMIN
 10
0.0
 20
0.0
  9
$LIMMAX
 10
2100.0
 20
1485.0
  9
$ORTHOMODE
 70
     0
  9
$REGENMODE
 70
     1
  9
$FILLMODE
 70
     1
  9
$QTEXTMODE
 70
     0
  9
$MIRRTEXT
 70
     0
  9
$LTSCALE
 40
5.0
  9
$ATTMODE
 70
     1
  9
$TEXTSIZE
 40
0.2
  9
$TRACEWID
 40
0.05
  9
$TEXTSTYLE
  7
STANDARD
  9
$CLAYER
  8
0
  9
$CELTYPE
  6
CONTINUOUS
  9
$CECOLOR
 62
   256
  9
$CELTSCALE
 40
1.0
  9
$DISPSILH
 70
     0
  9
$DIMSCALE
 40
1.0
  9
$DIMASZ
 40
0.18
  9
$DIMEXO
 40
0.0625
  9
$DIMDLI
 40
0.38
  9
$DIMRND
 40
0.0
  9
$DIMDLE
 40
0.0
  9
$DIMEXE
 40
0.18
  9
$DIMTP
 40
0.0
  9
$DIMTM
 40
0.0
  9
$DIMTXT
 40
0.18
  9
$DIMCEN
 40
0.09
  9
$DIMTSZ
 40
0.0
  9
$DIMTOL
 70
     0
  9
$DIMLIM
 70
     0
  9
$DIMTIH
 70
     1
  9
$DIMTOH
 70
     1
  9
$DIMSE1
 70
     0
  9
$DIMSE2
 70
     0
  9
$DIMTAD
 70
     0
  9
$DIMZIN
 70
     0
  9
$DIMBLK
  1

  9
$DIMASO
 70
     1
  9
$DIMSHO
 70
     1
  9
$DIMPOST
  1

  9
$DIMAPOST
  1

  9
$DIMALT
 70
     0
  9
$DIMALTD
 70
     2
  9
$DIMALTF
 40
25.4
  9
$DIMLFAC
 40
1.0
  9
$DIMTOFL
 70
     0
  9
$DIMTVP
 40
0.0
  9
$DIMTIX
 70
     0
  9
$DIMSOXD
 70
     0
  9
$DIMSAH
 70
     0
  9
$DIMBLK1
  1

  9
$DIMBLK2
  1

  9
$DIMSTYLE
  2
Standard
  9
$DIMCLRD
 70
     0
  9
$DIMCLRE
 70
     0
  9
$DIMCLRT
 70
     0
  9
$DIMTFAC
 40
1.0
  9
$DIMGAP
 40
0.09
  9
$DIMJUST
 70
     0
  9
$DIMSD1
 70
     0
  9
$DIMSD2
 70
     0
  9
$DIMTOLJ
 70
     1
  9
$DIMTZIN
 70
     0
  9
$DIMALTZ
 70
     0
  9
$DIMALTTZ
 70
     0
  9
$DIMUPT
 70
     0
  9
$DIMDEC
 70
     4
  9
$DIMTDEC
 70
     4
  9
$DIMALTU
 70
     2
  9
$DIMALTTD
 70
     2
  9
$DIMTXSTY
  7
STANDARD
  9
$DIMAUNIT
 70
     0
  9
$DIMADEC
 70
     0
  9
$DIMALTRND
 40
0.0
  9
$DIMAZIN
 70
     0
  9
$DIMDSEP
 70
    46
  9
$DIMATFIT
 70
     3
  9
$DIMFRAC
 70
     0
  9
$DIMLDRBLK
  1

  9
$DIMLUNIT
 70
     2
  9
$DIMLWD
 70
    -2
  9
$DIMLWE
 70
    -2
  9
$DIMTMOVE
 70
     0
  9
$LUNITS
 70
     2
  9
$LUPREC
 70
     4
  9
$SKETCHINC
 40
0.1
  9
$FILLETRAD
 40
0.0
  9
$AUNITS
 70
     0
  9
$AUPREC
 70
     0
  9
$MENU
  1
.
  9
$ELEVATION
 40
0.0
  9
$PELEVATION
 40
0.0
  9
$THICKNESS
 40
0.0
  9
$LIMCHECK
 70
     0
  9
$CHAMFERA
 40
0.0
  9
$CHAMFERB
 40
0.0
  9
$CHAMFERC
 40
0.0
  9
$CHAMFERD
 40
0.0
  9
$SKPOLY
 70
     0
  9
$TDCREATE
 40
2454846.609661308
  9
$TDUCREATE
 40
2454846.234661308
  9
$TDUPDATE
 40
2454846.615999445
  9
$TDUUPDATE
 40
2454846.240999445
  9
$TDINDWG
 40
0.0063404861
  9
$TDUSRTIMER
 40
0.0063404861
  9
$USRTIMER
 70
     1
  9
$ANGBASE
 50
0.0
  9
$ANGDIR
 70
     0
  9
$PDMODE
 70
     0
  9
$PDSIZE
 40
0.0
  9
$PLINEWID
 40
0.0
  9
$SPLFRAME
 70
     0
  9
$SPLINETYPE
 70
     6
  9
$SPLINESEGS
 70
     8
  9
$HANDSEED
  5
76A
  9
$SURFTAB1
 70
     6
  9
$SURFTAB2
 70
     6
  9
$SURFTYPE
 70
     6
  9
$SURFU
 70
     6
  9
$SURFV
 70
     6
  9
$UCSBASE
  2

  9
$UCSNAME
  2

  9
$UCSORG
 10
0.0
 20
0.0
 30
0.0
  9
$UCSXDIR
 10
1.0
 20
0.0
 30
0.0
  9
$UCSYDIR
 10
0.0
 20
1.0
 30
0.0
  9
$UCSORTHOREF
  2

  9
$UCSORTHOVIEW
 70
     0
  9
$UCSORGTOP
 10
0.0
 20
0.0
 30
0.0
  9
$UCSORGBOTTOM
 10
0.0
 20
0.0
 30
0.0
  9
$UCSORGLEFT
 10
0.0
 20
0.0
 30
0.0
  9
$UCSORGRIGHT
 10
0.0
 20
0.0
 30
0.0
  9
$UCSORGFRONT
 10
0.0
 20
0.0
 30
0.0
  9
$UCSORGBACK
 10
0.0
 20
0.0
 30
0.0
  9
$PUCSBASE
  2

  9
$PUCSNAME
  2

  9
$PUCSORG
 10
0.0
 20
0.0
 30
0.0
  9
$PUCSXDIR
 10
1.0
 20
0.0
 30
0.0
  9
$PUCSYDIR
 10
0.0
 20
1.0
 30
0.0
  9
$PUCSORTHOREF
  2

  9
$PUCSORTHOVIEW
 70
     0
  9
$PUCSORGTOP
 10
0.0
 20
0.0
 30
0.0
  9
$PUCSORGBOTTOM
 10
0.0
 20
0.0
 30
0.0
  9
$PUCSORGLEFT
 10
0.0
 20
0.0
 30
0.0
  9
$PUCSORGRIGHT
 10
0.0
 20
0.0
 30
0.0
  9
$PUCSORGFRONT
 10
0.0
 20
0.0
 30
0.0
  9
$PUCSORGBACK
 10
0.0
 20
0.0
 30
0.0
  9
$USERI1
 70
     0
  9
$USERI2
 70
     0
  9
$USERI3
 70
     0
  9
$USERI4
 70
     0
  9
$USERI5
 70
     0
  9
$USERR1
 40
0.0
  9
$USERR2
 40
0.0
  9
$USERR3
 40
0.0
  9
$USERR4
 40
0.0
  9
$USERR5
 40
0.0
  9
$WORLDVIEW
 70
     1
  9
$SHADEDGE
 70
     3
  9
$SHADEDIF
 70
    70
  9
$TILEMODE
 70
     1
  9
$MAXACTVP
 70
    64
  9
$PINSBASE
 10
0.0
 20
0.0
 30
0.0
  9
$PLIMCHECK
 70
     0
  9
$PEXTMIN
 10
1.000000000000000E+20
 20
1.000000000000000E+20
 30
1.000000000000000E+20
  9
$PEXTMAX
 10
-1.000000000000000E+20
 20
-1.000000000000000E+20
 30
-1.000000000000000E+20
  9
$PLIMMIN
 10
0.0
 20
0.0
  9
$PLIMMAX
 10
12.0
 20
9.0
  9
$UNITMODE
 70
     0
  9
$VISRETAIN
 70
     1
  9
$PLINEGEN
 70
     0
  9
$PSLTSCALE
 70
     1
  9
$TREEDEPTH
 70
  3020
  9
$CMLSTYLE
  2
Standard
  9
$CMLJUST
 70
     0
  9
$CMLSCALE
 40
1.0
  9
$PROXYGRAPHICS
 70
     1
  9
$MEASUREMENT
 70
     0
  9
$CELWEIGHT
370
    -1
  9
$ENDCAPS
280
     0
  9
$JOINSTYLE
280
     0
  9
$LWDISPLAY
290
     0
  9
$INSUNITS
 70
     0
  9
$HYPERLINKBASE
  1

  9
$STYLESHEET
  1

  9
$XEDIT
290
     1
  9
$CEPSNTYPE
380
     0
  9
$PSTYLEMODE
290
     1
  9
$FINGERPRINTGUID
  2
{E3D8E7D3-0DEF-4A54-8C00-720458CCC669}
  9
$VERSIONGUID
  2
{CA139A46-6E9F-4A31-99ED-3BE97F16E8E9}
  9
$EXTNAMES
290
     1
  9
$PSVPSCALE
 40
0.0
  9
$OLESTARTUP
290
     0
  0
ENDSEC
  0
SECTION
  2
CLASSES
  0
CLASS
  1
ACDBDICTIONARYWDFLT
  2
AcDbDictionaryWithDefault
  3
ObjectDBX Classes
 90
        0
280
     0
281
     0
  0
CLASS
  1
TABLESTYLE
  2
AcDbTableStyle
  3
ObjectDBX Classes
 90
     2047
280
     0
281
     0
  0
CLASS
  1
DICTIONARYVAR
  2
AcDbDictionaryVar
  3
ObjectDBX Classes
 90
        0
280
     0
281
     0
  0
CLASS
  1
ACDBPLACEHOLDER
  2
AcDbPlaceHolder
  3
ObjectDBX Classes
 90
        0
280
     0
281
     0
  0
CLASS
  1
LAYOUT
  2
AcDbLayout
  3
ObjectDBX Classes
 90
        0
280
     0
281
     0
  0
ENDSEC
  0
SECTION
  2
TABLES
  0
TABLE
  2
VPORT
  5
8
330
0
100
AcDbSymbolTable
 70
     2
  0
VPORT
  5
764
330
8
100
AcDbSymbolTableRecord
100
AcDbViewportTableRecord
  2
*Active
 70
     0
 10
0.0
 20
0.0
 11
1.0
 21
1.0
 12
1027.169041728098
 22
752.1302067158163
 13
0.0
 23
0.0
 14
1.0
 24
1.0
 15
0.0
 25
0.0
 16
0.0
 26
0.0
 36
1.0
 17
0.0
 27
0.0
 37
0.0
 40
1443.009125706997
 41
2.069696969696969
 42
50.0
 43
0.0
 44
0.0
 50
0.0
 51
0.0
 71
     0
 72
   100
 73
     1
 74
     1
 75
     0
 76
     0
 77
     0
 78
     0
281
     0
 65
     1
110
0.0
120
0.0
130
0.0
111
1.0
121
0.0
131
0.0
112
0.0
122
1.0
132
0.0
 79
     0
146
0.0
  0
ENDTAB
  0
TABLE
  2
LTYPE
  5
5
330
0
100
AcDbSymbolTable
 70
    35
  0
LTYPE
  5
13
330
5
100
AcDbSymbolTableRecord
100
AcDbLinetypeTableRecord
  2
ByBlock
 70
     0
  3

 72
    65
 73
     0
 40
0.0
  0
LTYPE
  5
14
330
5
100
AcDbSymbolTableRecord
100
AcDbLinetypeTableRecord
  2
ByLayer
 70
     0
  3

 72
    65
 73
     0
 40
0.0
  0
LTYPE
  5
15
330
5
100
AcDbSymbolTableRecord
100
AcDbLinetypeTableRecord
  2
CONTINUOUS
 70
     0
  3
実線
 72
    65
 73
     0
 40
0.0
  0
LTYPE
  5
26
330
5
100
AcDbSymbolTableRecord
100
AcDbLinetypeTableRecord
  2
DASHED1
 70
     0
  3
--  --  --  --  --  --  --  --  
 72
    65
 73
     2
 40
2.5
 49
1.25
 74
     0
 49
-1.25
 74
     0
  0
LTYPE
  5
27
330
5
100
AcDbSymbolTableRecord
100
AcDbLinetypeTableRecord
  2
DASHED2
 70
     0
  3
----    ----    ----    ----    
 72
    65
 73
     2
 40
5.0
 49
2.5
 74
     0
 49
-2.5
 74
     0
  0
LTYPE
  5
28
330
5
100
AcDbSymbolTableRecord
100
AcDbLinetypeTableRecord
  2
DASHED3
 70
     0
  3
------  ------  ------  ------  
 72
    65
 73
     2
 40
5.0
 49
3.75
 74
     0
 49
-1.25
 74
     0
  0
LTYPE
  5
29
330
5
100
AcDbSymbolTableRecord
100
AcDbLinetypeTableRecord
  2
CENTER1
 70
     0
  3
----- - ----- - ----- - ----- - 
 72
    65
 73
     4
 40
10.0
 49
6.25
 74
     0
 49
-1.25
 74
     0
 49
1.25
 74
     0
 49
-1.25
 74
     0
  0
LTYPE
  5
2A
330
5
100
AcDbSymbolTableRecord
100
AcDbLinetypeTableRecord
  2
CENTER2
 70
     0
  3
----------  --  ----------  --  
 72
    65
 73
     4
 40
20.0
 49
12.5
 74
     0
 49
-2.5
 74
     0
 49
2.5
 74
     0
 49
-2.5
 74
     0
  0
LTYPE
  5
2B
330
5
100
AcDbSymbolTableRecord
100
AcDbLinetypeTableRecord
  2
PHANTOM1
 70
     0
  3
--- - - --- - - --- - - --- - - 
 72
    65
 73
     6
 40
10.0
 49
3.25
 74
     0
 49
-1.25
 74
     0
 49
1.25
 74
     0
 49
-1.25
 74
     0
 49
1.25
 74
     0
 49
-1.25
 74
     0
  0
LTYPE
  5
2C
330
5
100
AcDbSymbolTableRecord
100
AcDbLinetypeTableRecord
  2
PHANTOM2
 70
     0
  3
--------  -  -  --------  -  -  
 72
    65
 73
     6
 40
20.0
 49
10.0
 74
     0
 49
-2.5
 74
     0
 49
1.25
 74
     0
 49
-2.5
 74
     0
 49
1.25
 74
     0
 49
-2.5
 74
     0
  0
LTYPE
  5
2D
330
5
100
AcDbSymbolTableRecord
100
AcDbLinetypeTableRecord
  2
DOT
 70
     0
  3
-   -   -   -   -   -   -   -   
 72
    65
 73
     2
 40
2.5
 49
0.625
 74
     0
 49
-1.875
 74
     0
  0
LTYPE
  5
2E
330
5
100
AcDbSymbolTableRecord
100
AcDbLinetypeTableRecord
  2
DUMMY
 70
     0
  3
ダミー
 72
    65
 73
     0
 40
0.0
  0
LTYPE
  5
2F
330
5
100
AcDbSymbolTableRecord
100
AcDbLinetypeTableRecord
  2
RAND1
 70
     0
  3
ランダム線1
 72
    65
 73
     4
 40
10.0
 49
1.0
 74
     0
 49
-2.0
 74
     0
 49
3.0
 74
     0
 49
-4.0
 74
     0
  0
LTYPE
  5
30
330
5
100
AcDbSymbolTableRecord
100
AcDbLinetypeTableRecord
  2
RAND2
 70
     0
  3
ランダム線2
 72
    65
 73
     4
 40
14.0
 49
2.0
 74
     0
 49
-3.0
 74
     0
 49
4.0
 74
     0
 49
-5.0
 74
     0
  0
LTYPE
  5
31
330
5
100
AcDbSymbolTableRecord
100
AcDbLinetypeTableRecord
  2
RAND3
 70
     0
  3
ランダム線3
 72
    65
 73
     4
 40
18.0
 49
3.0
 74
     0
 49
-4.0
 74
     0
 49
5.0
 74
     0
 49
-6.0
 74
     0
  0
LTYPE
  5
32
330
5
100
AcDbSymbolTableRecord
100
AcDbLinetypeTableRecord
  2
RAND4
 70
     0
  3
ランダム線4
 72
    65
 73
     4
 40
22.0
 49
4.0
 74
     0
 49
-5.0
 74
     0
 49
6.0
 74
     0
 49
-7.0
 74
     0
  0
LTYPE
  5
33
330
5
100
AcDbSymbolTableRecord
100
AcDbLinetypeTableRecord
  2
RAND5
 70
     0
  3
ランダム線5
 72
    65
 73
     4
 40
26.0
 49
5.0
 74
     0
 49
-6.0
 74
     0
 49
7.0
 74
     0
 49
-8.0
 74
     0
  0
LTYPE
  5
34
330
5
100
AcDbSymbolTableRecord
100
AcDbLinetypeTableRecord
  2
LONG1
 70
     0
  3
----------  --  ----------  --  
 72
    65
 73
     4
 40
40.0
 49
32.5
 74
     0
 49
-2.5
 74
     0
 49
2.5
 74
     0
 49
-2.5
 74
     0
  0
LTYPE
  5
35
330
5
100
AcDbSymbolTableRecord
100
AcDbLinetypeTableRecord
  2
LONG2
 70
     0
  3
--------  -  -  --------  -  -  
 72
    65
 73
     6
 40
40.0
 49
30.0
 74
     0
 49
-2.5
 74
     0
 49
1.25
 74
     0
 49
-2.5
 74
     0
 49
1.25
 74
     0
 49
-2.5
 74
     0
  0
LTYPE
  5
36
330
5
100
AcDbSymbolTableRecord
100
AcDbLinetypeTableRecord
  2
LONG3
 70
     0
  3
+++++++++++++++..+++++++++++++++
 72
    65
 73
     2
 40
40.0
 49
37.5
 74
     0
 49
-2.5
 74
     0
  0
LTYPE
  5
37
330
5
100
AcDbSymbolTableRecord
100
AcDbLinetypeTableRecord
  2
LONG4
 70
     0
  3
+++++++++++++++..+++++++++++++++
 72
    65
 73
     2
 40
80.0
 49
75.0
 74
     0
 49
-5.0
 74
     0
  0
LTYPE
  5
38
330
5
100
AcDbSymbolTableRecord
100
AcDbLinetypeTableRecord
  2
LONG5
 70
     0
  3
----------  --  ----------  --  
 72
    65
 73
     4
 40
60.0
 49
37.5
 74
     0
 49
-7.5
 74
     0
 49
7.5
 74
     0
 49
-7.5
 74
     0
  0
LTYPE
  5
39
330
5
100
AcDbSymbolTableRecord
100
AcDbLinetypeTableRecord
  2
DASHED
 70
     0
  3
-------   -------------   ------
 72
    65
 73
     2
 40
7.5
 49
6.0
 74
     0
 49
-1.5
 74
     0
  0
LTYPE
  5
3A
330
5
100
AcDbSymbolTableRecord
100
AcDbLinetypeTableRecord
  2
DASHED_SPACED
 70
     0
  3
----        --------        ----
 72
    65
 73
     2
 40
12.0
 49
6.0
 74
     0
 49
-6.0
 74
     0
  0
LTYPE
  5
3B
330
5
100
AcDbSymbolTableRecord
100
AcDbLinetypeTableRecord
  2
LONG_DASHED_DOTTED
 70
     0
  3
------------- --- --------------
 72
    65
 73
     4
 40
15.25
 49
12.0
 74
     0
 49
-1.5
 74
     0
 49
0.25
 74
     0
 49
-1.5
 74
     0
  0
LTYPE
  5
3C
330
5
100
AcDbSymbolTableRecord
100
AcDbLinetypeTableRecord
  2
LONG_DASHED_DOUBLE-DOTTED
 70
     0
  3
----------- --- --- ------------
 72
    65
 73
     6
 40
17.0
 49
12.0
 74
     0
 49
-1.5
 74
     0
 49
0.25
 74
     0
 49
-1.5
 74
     0
 49
0.25
 74
     0
 49
-1.5
 74
     0
  0
LTYPE
  5
3D
330
5
100
AcDbSymbolTableRecord
100
AcDbLinetypeTableRecord
  2
LONG_DASHED_TRIPLICATE-DOTTED
 70
     0
  3
--------- --- --- --- ----------
 72
    65
 73
     8
 40
18.75
 49
12.0
 74
     0
 49
-1.5
 74
     0
 49
0.25
 74
     0
 49
-1.5
 74
     0
 49
0.25
 74
     0
 49
-1.5
 74
     0
 49
0.25
 74
     0
 49
-1.5
 74
     0
  0
LTYPE
  5
3E
330
5
100
AcDbSymbolTableRecord
100
AcDbLinetypeTableRecord
  2
DOTTED
 70
     0
  3
   -       -       -       -    
 72
    65
 73
     2
 40
1.75
 49
0.25
 74
     0
 49
-1.5
 74
     0
  0
LTYPE
  5
3F
330
5
100
AcDbSymbolTableRecord
100
AcDbLinetypeTableRecord
  2
CHAIN
 70
     0
  3
-------------- -- --------------
 72
    65
 73
     4
 40
18.5
 49
12.0
 74
     0
 49
-1.5
 74
     0
 49
3.5
 74
     0
 49
-1.5
 74
     0
  0
LTYPE
  5
40
330
5
100
AcDbSymbolTableRecord
100
AcDbLinetypeTableRecord
  2
CHAIN_DOUBLE_DASH
 70
     0
  3
------------ -- -- -------------
 72
    65
 73
     6
 40
23.5
 49
12.0
 74
     0
 49
-1.5
 74
     0
 49
3.5
 74
     0
 49
-1.5
 74
     0
 49
3.5
 74
     0
 49
-1.5
 74
     0
  0
LTYPE
  5
41
330
5
100
AcDbSymbolTableRecord
100
AcDbLinetypeTableRecord
  2
DASHED_DOTTED
 70
     0
  3
-----------     -     ----------
 72
    65
 73
     4
 40
9.25
 49
6.0
 74
     0
 49
-1.5
 74
     0
 49
0.25
 74
     0
 49
-1.5
 74
     0
  0
LTYPE
  5
42
330
5
100
AcDbSymbolTableRecord
100
AcDbLinetypeTableRecord
  2
DOUBLE-DASHED_DOTTED
 70
     0
  3
------   -----------   -   -----
 72
    65
 73
     6
 40
16.75
 49
6.0
 74
     0
 49
-1.5
 74
     0
 49
6.0
 74
     0
 49
-1.5
 74
     0
 49
0.25
 74
     0
 49
-1.5
 74
     0
  0
LTYPE
  5
43
330
5
100
AcDbSymbolTableRecord
100
AcDbLinetypeTableRecord
  2
DASHED_DOUBLE-DOTTED
 70
     0
  3
---------    -    -    ---------
 72
    65
 73
     6
 40
11.0
 49
6.0
 74
     0
 49
-1.5
 74
     0
 49
0.25
 74
     0
 49
-1.5
 74
     0
 49
0.25
 74
     0
 49
-1.5
 74
     0
  0
LTYPE
  5
44
330
5
100
AcDbSymbolTableRecord
100
AcDbLinetypeTableRecord
  2
DOUBLE-DASHED_DOUBLE-DOTTED
 70
     0
  3
-----   ---------   -   -   ----
 72
    65
 73
     8
 40
18.5
 49
6.0
 74
     0
 49
-1.5
 74
     0
 49
6.0
 74
     0
 49
-1.5
 74
     0
 49
0.25
 74
     0
 49
-1.5
 74
     0
 49
0.25
 74
     0
 49
-1.5
 74
     0
  0
LTYPE
  5
45
330
5
100
AcDbSymbolTableRecord
100
AcDbLinetypeTableRecord
  2
DASHED_TRIPLICATE-DOTTED
 70
     0
  3
-------    -    -    -    ------
 72
    65
 73
     8
 40
12.75
 49
6.0
 74
     0
 49
-1.5
 74
     0
 49
0.25
 74
     0
 49
-1.5
 74
     0
 49
0.25
 74
     0
 49
-1.5
 74
     0
 49
0.25
 74
     0
 49
-1.5
 74
     0
  0
LTYPE
  5
46
330
5
100
AcDbSymbolTableRecord
100
AcDbLinetypeTableRecord
  2
DOUBLE-DASHED_TRIPLICATE-DOTTED
 70
     0
  3
-----  ---------  -  -  -  -----
 72
    65
 73
    10
 40
20.25
 49
6.0
 74
     0
 49
-1.5
 74
     0
 49
6.0
 74
     0
 49
-1.5
 74
     0
 49
0.25
 74
     0
 49
-1.5
 74
     0
 49
0.25
 74
     0
 49
-1.5
 74
     0
 49
0.25
 74
     0
 49
-1.5
 74
     0
  0
LTYPE
  5
47
330
5
100
AcDbSymbolTableRecord
100
AcDbLinetypeTableRecord
  2
UNDEFINED
 70
     0
  3
--------------------------------
 72
    65
 73
     0
 40
0.0
  0
ENDTAB
  0
TABLE
  2
LAYER
  5
2
330
0
100
AcDbSymbolTable
 70
    29
  0
LAYER
  5
10
330
2
100
AcDbSymbolTableRecord
100
AcDbLayerTableRecord
  2
0
 70
     0
 62
     7
  6
CONTINUOUS
370
    -3
390
F
  0
LAYER
  5
49
330
2
100
AcDbSymbolTableRecord
100
AcDbLayerTableRecord
  2
_2-2_IN_LINE
 70
     0
 62
     7
  6
CONTINUOUS
370
    -3
390
F
  0
LAYER
  5
4A
330
2
100
AcDbSymbolTableRecord
100
AcDbLayerTableRecord
  2
_2-3_
 70
     0
 62
     7
  6
CONTINUOUS
370
    -3
390
F
  0
LAYER
  5
4B
330
2
100
AcDbSymbolTableRecord
100
AcDbLayerTableRecord
  2
_2-4_OUT_LINE
 70
     0
 62
     7
  6
CONTINUOUS
370
    -3
390
F
  0
LAYER
  5
4C
330
2
100
AcDbSymbolTableRecord
100
AcDbLayerTableRecord
  2
_2-6_鋼板__アングル
 70
     0
 62
     7
  6
CONTINUOUS
370
    -3
390
F
  0
LAYER
  5
4D
330
2
100
AcDbSymbolTableRecord
100
AcDbLayerTableRecord
  2
_2-7_ビス
 70
     0
 62
     7
  6
CONTINUOUS
370
    -3
390
F
  0
LAYER
  5
4E
330
2
100
AcDbSymbolTableRecord
100
AcDbLayerTableRecord
  2
_2-8_DRAIN他
 70
     0
 62
     7
  6
CONTINUOUS
370
    -3
390
F
  0
LAYER
  5
4F
330
2
100
AcDbSymbolTableRecord
100
AcDbLayerTableRecord
  2
_2-9_STRAINER他
 70
     0
 62
     7
  6
CONTINUOUS
370
    -3
390
F
  0
LAYER
  5
50
330
2
100
AcDbSymbolTableRecord
100
AcDbLayerTableRecord
  2
_2-A_MOJI
 70
     0
 62
     7
  6
CONTINUOUS
370
    -3
390
F
  0
LAYER
  5
51
330
2
100
AcDbSymbolTableRecord
100
AcDbLayerTableRecord
  2
_2-B_DIM
 70
     0
 62
     7
  6
CONTINUOUS
370
    -3
390
F
  0
LAYER
  5
52
330
2
100
AcDbSymbolTableRecord
100
AcDbLayerTableRecord
  2
_2-D_ハッチ他
 70
     0
 62
     7
  6
CONTINUOUS
370
    -3
390
F
  0
LAYER
  5
53
330
2
100
AcDbSymbolTableRecord
100
AcDbLayerTableRecord
  2
_2-E_CON他
 70
     0
 62
     7
  6
CONTINUOUS
370
    -3
390
F
  0
LAYER
  5
54
330
2
100
AcDbSymbolTableRecord
100
AcDbLayerTableRecord
  2
_4-2_
 70
     0
 62
     7
  6
CONTINUOUS
370
    -3
390
F
  0
LAYER
  5
55
330
2
100
AcDbSymbolTableRecord
100
AcDbLayerTableRecord
  2
_4-3_
 70
     0
 62
     7
  6
CONTINUOUS
370
    -3
390
F
  0
LAYER
  5
56
330
2
100
AcDbSymbolTableRecord
100
AcDbLayerTableRecord
  2
_4-4_
 70
     0
 62
     7
  6
CONTINUOUS
370
    -3
390
F
  0
LAYER
  5
57
330
2
100
AcDbSymbolTableRecord
100
AcDbLayerTableRecord
  2
_4-6_
 70
     0
 62
     7
  6
CONTINUOUS
370
    -3
390
F
  0
LAYER
  5
58
330
2
100
AcDbSymbolTableRecord
100
AcDbLayerTableRecord
  2
_4-7_
 70
     0
 62
     7
  6
CONTINUOUS
370
    -3
390
F
  0
LAYER
  5
59
330
2
100
AcDbSymbolTableRecord
100
AcDbLayerTableRecord
  2
_4-8_
 70
     0
 62
     7
  6
CONTINUOUS
370
    -3
390
F
  0
LAYER
  5
5A
330
2
100
AcDbSymbolTableRecord
100
AcDbLayerTableRecord
  2
_4-9_
 70
     0
 62
     7
  6
CONTINUOUS
370
    -3
390
F
  0
LAYER
  5
5B
330
2
100
AcDbSymbolTableRecord
100
AcDbLayerTableRecord
  2
_4-A_
 70
     0
 62
     7
  6
CONTINUOUS
370
    -3
390
F
  0
LAYER
  5
5C
330
2
100
AcDbSymbolTableRecord
100
AcDbLayerTableRecord
  2
_4-B_
 70
     0
 62
     7
  6
CONTINUOUS
370
    -3
390
F
  0
LAYER
  5
5D
330
2
100
AcDbSymbolTableRecord
100
AcDbLayerTableRecord
  2
_4-D_
 70
     0
 62
     7
  6
CONTINUOUS
370
    -3
390
F
  0
LAYER
  5
5E
330
2
100
AcDbSymbolTableRecord
100
AcDbLayerTableRecord
  2
_4-E_
 70
     0
 62
     7
  6
CONTINUOUS
370
    -3
390
F
  0
LAYER
  5
5F
330
2
100
AcDbSymbolTableRecord
100
AcDbLayerTableRecord
  2
_F-2_
 70
     0
 62
     7
  6
CONTINUOUS
370
    -3
390
F
  0
LAYER
  5
60
330
2
100
AcDbSymbolTableRecord
100
AcDbLayerTableRecord
  2
_F-5_
 70
     0
 62
     7
  6
CONTINUOUS
370
    -3
390
F
  0
LAYER
  5
61
330
2
100
AcDbSymbolTableRecord
100
AcDbLayerTableRecord
  2
_F-7_
 70
     0
 62
     7
  6
CONTINUOUS
370
    -3
390
F
  0
LAYER
  5
62
330
2
100
AcDbSymbolTableRecord
100
AcDbLayerTableRecord
  2
_F-8_
 70
     0
 62
     7
  6
CONTINUOUS
370
    -3
390
F
  0
LAYER
  5
63
330
2
100
AcDbSymbolTableRecord
100
AcDbLayerTableRecord
  2
_F-A_
 70
     0
 62
     7
  6
CONTINUOUS
370
    -3
390
F
  0
LAYER
  5
64
330
2
100
AcDbSymbolTableRecord
100
AcDbLayerTableRecord
  2
ADD_LINE
 70
     0
 62
     7
  6
CONTINUOUS
370
    -3
390
F
  0
ENDTAB
  0
TABLE
  2
STYLE
  5
3
330
0
100
AcDbSymbolTable
 70
     2
  0
STYLE
  5
11
330
3
100
AcDbSymbolTableRecord
100
AcDbTextStyleTableRecord
  2
STANDARD
 70
     0
 40
0.0
 41
1.0
 50
0.0
 71
     0
 42
0.2
  3
txt
  4
bigfont.shx
  0
STYLE
  5
48
330
3
100
AcDbSymbolTableRecord
100
AcDbTextStyleTableRecord
  2
TATEGAKI
 70
     4
 40
0.0
 41
1.0
 50
0.0
 71
     0
 42
1.0
  3
txt
  4
bigfont.shx
  0
ENDTAB
  0
TABLE
  2
VIEW
  5
6
330
0
100
AcDbSymbolTable
 70
     0
  0
ENDTAB
  0
TABLE
  2
UCS
  5
7
330
0
100
AcDbSymbolTable
 70
     0
  0
ENDTAB
  0
TABLE
  2
APPID
  5
9
330
0
100
AcDbSymbolTable
 70
     1
  0
APPID
  5
12
330
9
100
AcDbSymbolTableRecord
100
AcDbRegAppTableRecord
  2
ACAD
 70
     0
  0
ENDTAB
  0
TABLE
  2
DIMSTYLE
  5
A
330
0
100
AcDbSymbolTable
 70
     1
100
AcDbDimStyleTable
 71
     0
  0
DIMSTYLE
105
75E
330
A
100
AcDbSymbolTableRecord
100
AcDbDimStyleTableRecord
  2
Standard
 70
     0
340
11
  0
ENDTAB
  0
TABLE
  2
BLOCK_RECORD
  5
1
330
0
100
AcDbSymbolTable
 70
     0
  0
BLOCK_RECORD
  5
22
330
1
100
AcDbSymbolTableRecord
100
AcDbBlockTableRecord
  2
*Model_Space
340
25
  0
BLOCK_RECORD
  5
1E
330
1
100
AcDbSymbolTableRecord
100
AcDbBlockTableRecord
  2
*Paper_Space
340
21
  0
ENDTAB
  0
ENDSEC
  0
SECTION
  2
BLOCKS
  0
BLOCK
  5
23
330
22
100
AcDbEntity
  8
0
100
AcDbBlockBegin
  2
*Model_Space
 70
     0
 10
0.0
 20
0.0
 30
0.0
  3
*Model_Space
  1

  0
ENDBLK
  5
24
330
22
100
AcDbEntity
  8
0
100
AcDbBlockEnd
  0
BLOCK
  5
1F
330
1E
100
AcDbEntity
 67
     1
  8
0
100
AcDbBlockBegin
  2
*Paper_Space
 70
     0
 10
0.0
 20
0.0
 30
0.0
  3
*Paper_Space
  1

  0
ENDBLK
  5
20
330
1E
100
AcDbEntity
 67
     1
  8
0
100
AcDbBlockEnd
  0
ENDSEC
  0
SECTION
  2
ENTITIES
  0
LINE
  5
68
330
22
100
AcDbEntity
  8
ADD_LINE
  6
DOT
 62
   136
100
AcDbLine
 10
1527.197988841771
 20
37.13932347369649
 30
0.0
 11
527.1979888417684
 21
37.13932347369649
 31
0.0
  0
LINE
  5
69
330
22
100
AcDbEntity
  8
ADD_LINE
  6
DOT
 62
   136
100
AcDbLine
 10
1527.197988841771
 20
1467.139323473696
 30
0.0
 11
1527.197988841771
 21
37.13932347369649
 31
0.0
  0
LINE
  5
6A
330
22
100
AcDbEntity
  8
ADD_LINE
  6
DOT
 62
   136
100
AcDbLine
 10
527.1979888417706
 20
1467.139323473696
 30
0.0
 11
1527.197988841771
 21
1467.139323473696
 31
0.0
  0
LINE
  5
6B
330
22
100
AcDbEntity
  8
ADD_LINE
  6
DOT
 62
   136
100
AcDbLine
 10
527.1979888417706
 20
1467.139323473696
 30
0.0
 11
527.1979888417706
 21
37.13932347369649
 31
0.0
  0
LINE
  5
6C
330
22
100
AcDbEntity
  8
ADD_LINE
  6
DOT
 62
   136
100
AcDbLine
 10
627.1979888417706
 20
797.1393234736942
 30
0.0
 11
1427.19798884177
 21
797.1393234736942
 31
0.0
  0
LINE
  5
6D
330
22
100
AcDbEntity
  8
ADD_LINE
  6
DOT
 62
   136
100
AcDbLine
 10
647.1979888417706
 20
817.1393234736942
 30
0.0
 11
647.1979888417706
 21
777.1393234736942
 31
0.0
  0
LINE
  5
6E
330
22
100
AcDbEntity
  8
ADD_LINE
  6
DOT
 62
   136
100
AcDbLine
 10
932.1979888417704
 20
817.1393234736942
 30
0.0
 11
932.1979888417704
 21
777.1393234736942
 31
0.0
  0
LINE
  5
6F
330
22
100
AcDbEntity
  8
ADD_LINE
  6
DOT
 62
   136
100
AcDbLine
 10
782.1979888417704
 20
817.1393234736942
 30
0.0
 11
782.1979888417704
 21
777.1393234736942
 31
0.0
  0
LINE
  5
70
330
22
100
AcDbEntity
  8
ADD_LINE
  6
DOT
 62
   136
100
AcDbLine
 10
627.1979888417706
 20
157.1393234736964
 30
0.0
 11
1427.19798884177
 21
157.1393234736964
 31
0.0
  0
LINE
  5
71
330
22
100
AcDbEntity
  8
ADD_LINE
  6
DOT
 62
   136
100
AcDbLine
 10
647.1979888417706
 20
177.1393234736965
 30
0.0
 11
647.1979888417706
 21
137.1393234736965
 31
0.0
  0
LINE
  5
72
330
22
100
AcDbEntity
  8
ADD_LINE
  6
DOT
 62
   136
100
AcDbLine
 10
932.1979888417704
 20
177.1393234736965
 30
0.0
 11
932.1979888417704
 21
137.1393234736965
 31
0.0
  0
LINE
  5
73
330
22
100
AcDbEntity
  8
ADD_LINE
  6
DOT
 62
   136
100
AcDbLine
 10
782.1979888417704
 20
177.1393234736965
 30
0.0
 11
782.1979888417704
 21
137.1393234736965
 31
0.0
  0
LINE
  5
74
330
22
100
AcDbEntity
  8
ADD_LINE
  6
DOT
 62
   136
100
AcDbLine
 10
1312.197988841771
 20
817.1393234736942
 30
0.0
 11
1312.197988841771
 21
777.1393234736942
 31
0.0
  0
LINE
  5
75
330
22
100
AcDbEntity
  8
ADD_LINE
  6
DOT
 62
   136
100
AcDbLine
 10
1207.197988841771
 20
817.1393234736942
 30
0.0
 11
1207.197988841771
 21
777.1393234736942
 31
0.0
  0
LINE
  5
76
330
22
100
AcDbEntity
  8
ADD_LINE
  6
DOT
 62
   136
100
AcDbLine
 10
1312.197988841771
 20
177.1393234736965
 30
0.0
 11
1312.197988841771
 21
137.1393234736965
 31
0.0
  0
LINE
  5
77
330
22
100
AcDbEntity
  8
ADD_LINE
  6
DOT
 62
   136
100
AcDbLine
 10
1207.197988841771
 20
177.1393234736965
 30
0.0
 11
1207.197988841771
 21
137.1393234736965
 31
0.0
  0
LINE
  5
78
330
22
100
AcDbEntity
  8
_F-7_
  6
Continuous
 62
     1
100
AcDbLine
 10
627.1979888417706
 20
777.1393234736942
 30
0.0
 11
1427.19798884177
 21
777.1393234736942
 31
0.0
  0
LINE
  5
79
330
22
100
AcDbEntity
  8
_F-5_
  6
Continuous
 62
     6
100
AcDbLine
 10
627.1979888417706
 20
817.1393234736942
 30
0.0
 11
1427.19798884177
 21
817.1393234736942
 31
0.0
  0
LINE
  5
7A
330
22
100
AcDbEntity
  8
_F-2_
  6
Continuous
 62
     7
100
AcDbLine
 10
917.1979888417704
 20
817.1393234736942
 30
0.0
 11
917.1979888417704
 21
777.1393234736942
 31
0.0
  0
TEXT
  5
7B
330
22
100
AcDbEntity
  8
_F-A_
 62
     7
100
AcDbText
 10
647.1979888417706
 20
787.1393234736943
 30
0.0
 40
20.0
  1
１１０仕様
100
AcDbText
  0
LINE
  5
7C
330
22
100
AcDbEntity
  8
_F-7_
  6
Continuous
 62
     1
100
AcDbLine
 10
627.1979888417706
 20
137.1393234736965
 30
0.0
 11
1427.19798884177
 21
137.1393234736965
 31
0.0
  0
LINE
  5
7D
330
22
100
AcDbEntity
  8
_F-5_
  6
Continuous
 62
     6
100
AcDbLine
 10
627.1979888417706
 20
177.1393234736965
 30
0.0
 11
1427.19798884177
 21
177.1393234736965
 31
0.0
  0
LINE
  5
7E
330
22
100
AcDbEntity
  8
_F-2_
  6
Continuous
 62
     7
100
AcDbLine
 10
917.1979888417704
 20
177.1393234736965
 30
0.0
 11
917.1979888417704
 21
137.1393234736965
 31
0.0
  0
TEXT
  5
7F
330
22
100
AcDbEntity
  8
_F-A_
 62
     7
100
AcDbText
 10
647.1979888417706
 20
147.1393234736964
 30
0.0
 40
20.0
  1
１１０仕様
100
AcDbText
  0
LINE
  5
80
330
22
100
AcDbEntity
  8
_F-5_
  6
Continuous
 62
     6
100
AcDbLine
 10
767.1979888417704
 20
817.1393234736942
 30
0.0
 11
767.1979888417704
 21
777.1393234736942
 31
0.0
  0
LINE
  5
81
330
22
100
AcDbEntity
  8
_F-5_
  6
Continuous
 62
     6
100
AcDbLine
 10
767.1979888417704
 20
177.1393234736965
 30
0.0
 11
767.1979888417704
 21
137.1393234736965
 31
0.0
  0
LINE
  5
82
330
22
100
AcDbEntity
  8
_F-7_
  6
Continuous
 62
     1
100
AcDbLine
 10
1427.19798884177
 20
1367.139323473694
 30
0.0
 11
1427.19798884177
 21
777.1393234736942
 31
0.0
  0
LINE
  5
83
330
22
100
AcDbEntity
  8
_F-7_
  6
Continuous
 62
     1
100
AcDbLine
 10
627.1979888417706
 20
1367.139323473694
 30
0.0
 11
1427.19798884177
 21
1367.139323473694
 31
0.0
  0
LINE
  5
84
330
22
100
AcDbEntity
  8
_F-7_
  6
Continuous
 62
     1
100
AcDbLine
 10
627.1979888417706
 20
1367.139323473694
 30
0.0
 11
627.1979888417706
 21
777.1393234736942
 31
0.0
  0
LINE
  5
85
330
22
100
AcDbEntity
  8
_F-7_
  6
Continuous
 62
     1
100
AcDbLine
 10
627.1979888417706
 20
727.1393234736942
 30
0.0
 11
627.1979888417706
 21
137.1393234736965
 31
0.0
  0
LINE
  5
86
330
22
100
AcDbEntity
  8
_F-7_
  6
Continuous
 62
     1
100
AcDbLine
 10
1427.19798884177
 20
727.1393234736942
 30
0.0
 11
1427.19798884177
 21
137.1393234736965
 31
0.0
  0
TEXT
  5
87
330
22
100
AcDbEntity
  8
_F-A_
 62
     7
100
AcDbText
 10
782.1979888417704
 20
787.1393234736943
 30
0.0
 40
17.5
  1
下地：ＲＣ
100
AcDbText
  0
TEXT
  5
88
330
22
100
AcDbEntity
  8
_F-A_
 62
     7
100
AcDbText
 10
782.1979888417704
 20
147.1393234736964
 30
0.0
 40
17.5
  1
下地：ＲＣ
100
AcDbText
  0
TEXT
  5
89
330
22
100
AcDbEntity
  8
_F-A_
 62
     7
100
AcDbText
 10
932.1979888417704
 20
147.1393234736964
 30
0.0
 40
17.5
  1
部位：ドアサッシ
100
AcDbText
  0
LINE
  5
8A
330
22
100
AcDbEntity
  8
_F-2_
  6
Continuous
 62
     7
100
AcDbLine
 10
1297.197988841771
 20
817.1393234736942
 30
0.0
 11
1297.197988841771
 21
777.1393234736942
 31
0.0
  0
LINE
  5
8B
330
22
100
AcDbEntity
  8
_F-2_
  6
Continuous
 62
     7
100
AcDbLine
 10
1192.197988841771
 20
817.1393234736942
 30
0.0
 11
1192.197988841771
 21
777.1393234736942
 31
0.0
  0
TEXT
  5
8C
330
22
100
AcDbEntity
  8
_F-A_
 62
     7
100
AcDbText
 10
1312.197988841771
 20
787.1393234736943
 30
0.0
 40
15.0
  1
図番
100
AcDbText
  0
LINE
  5
8D
330
22
100
AcDbEntity
  8
_F-2_
  6
Continuous
 62
     7
100
AcDbLine
 10
1297.197988841771
 20
177.1393234736965
 30
0.0
 11
1297.197988841771
 21
137.1393234736965
 31
0.0
  0
LINE
  5
8E
330
22
100
AcDbEntity
  8
_F-2_
  6
Continuous
 62
     7
100
AcDbLine
 10
1192.197988841771
 20
177.1393234736965
 30
0.0
 11
1192.197988841771
 21
137.1393234736965
 31
0.0
  0
TEXT
  5
8F
330
22
100
AcDbEntity
  8
_F-A_
 62
     7
100
AcDbText
 10
1312.197988841771
 20
147.1393234736964
 30
0.0
 40
15.0
  1
図番
100
AcDbText
  0
TEXT
  5
90
330
22
100
AcDbEntity
  8
_F-A_
 62
     7
100
AcDbText
 10
1207.197988841771
 20
787.1393234736943
 30
0.0
 40
15.0
  1
Ｓ＝１：８
100
AcDbText
  0
TEXT
  5
91
330
22
100
AcDbEntity
  8
_F-A_
 62
     7
100
AcDbText
 10
1207.197988841771
 20
147.1393234736964
 30
0.0
 40
15.0
  1
Ｓ＝１：５
100
AcDbText
  0
TEXT
  5
92
330
22
100
AcDbEntity
  8
_F-A_
 62
     7
100
AcDbText
 10
1358.615657565877
 20
787.1393234736943
 30
0.0
 40
15.0
  1
１－２３
100
AcDbText
  0
TEXT
  5
93
330
22
100
AcDbEntity
  8
_F-A_
 62
     7
100
AcDbText
 10
1358.615657565877
 20
147.1393234736942
 30
0.0
 40
15.0
  1
１－２４
100
AcDbText
  0
TEXT
  5
94
330
22
100
AcDbEntity
  8
_F-A_
 62
     7
100
AcDbText
 10
932.1979888417704
 20
787.1393234736943
 30
0.0
 40
17.5
  1
部位：出入口
100
AcDbText
  0
LINE
  5
95
330
22
100
AcDbEntity
  8
_2-A_MOJI
  6
Continuous
 62
     7
100
AcDbLine
 10
1042.544232911524
 20
307.1393234736943
 30
0.0
 11
1057.963861137841
 21
333.8469029954999
 31
0.0
  0
TEXT
  5
96
330
22
100
AcDbEntity
  8
_2-A_MOJI
 62
     7
100
AcDbText
 10
1085.503428120938
 20
326.3469029954999
 30
0.0
 40
15.0
  1
塩ビシート 接着工法
100
AcDbText
  0
LINE
  5
97
330
22
100
AcDbEntity
  8
_2-A_MOJI
  6
Continuous
 62
     7
100
AcDbLine
 10
1075.503428120938
 20
333.8469029954999
 30
0.0
 11
1057.963861137841
 21
333.8469029954999
 31
0.0
  0
ARC
  5
98
330
22
100
AcDbEntity
  8
_2-4_OUT_LINE
  6
Continuous
 62
     2
100
AcDbCircle
 10
940.7728324881089
 20
315.1393234736961
 30
0.0
 40
3.0
100
AcDbArc
 50
180.0
 51
270.0
  0
LINE
  5
99
330
22
100
AcDbEntity
  8
_2-4_OUT_LINE
  6
Continuous
 62
     2
100
AcDbLine
 10
940.7728324881089
 20
312.1393234736943
 30
0.0
 11
990.7728324881089
 21
312.1393234736943
 31
0.0
  0
LINE
  5
9A
330
22
100
AcDbEntity
  8
_2-4_OUT_LINE
  6
Continuous
 62
     2
100
AcDbLine
 10
990.7728324881089
 20
312.1393234736943
 30
0.0
 11
990.7728324881089
 21
307.1393234736943
 31
0.0
  0
LINE
  5
9B
330
22
100
AcDbEntity
  8
_2-4_OUT_LINE
  6
Continuous
 62
     2
100
AcDbLine
 10
990.7728324881089
 20
307.1393234736943
 30
0.0
 11
1352.197988841771
 21
307.1393234736943
 31
0.0
  0
LINE
  5
9C
330
22
100
AcDbEntity
  8
_2-A_MOJI
  6
Continuous
 62
     7
100
AcDbLine
 10
989.9537853556418
 20
408.8469029954999
 30
0.0
 11
959.1162148582418
 21
408.8469029954999
 31
0.0
  0
TEXT
  5
9D
330
22
100
AcDbEntity
  8
_2-A_MOJI
 62
     7
100
AcDbText
 10
999.9537853556418
 20
351.3469029954999
 30
0.0
 40
15.0
  1
塩ビシート 接着工法
100
AcDbText
  0
TEXT
  5
9E
330
22
100
AcDbEntity
  8
_2-A_MOJI
 62
     7
100
AcDbText
 10
999.9537853556418
 20
376.3469029954999
 30
0.0
 40
15.0
  1
Ｋ－８（ホルダー内、ロンシーラントＬ充填）
100
AcDbText
  0
TEXT
  5
9F
330
22
100
AcDbEntity
  8
_2-A_MOJI
 62
     7
100
AcDbText
 10
999.9537853556418
 20
401.3469029954999
 30
0.0
 40
15.0
  1
ロンシーラントＳ
100
AcDbText
  0
LINE
  5
A0
330
22
100
AcDbEntity
  8
_2-A_MOJI
  6
Continuous
 62
     7
100
AcDbLine
 10
989.9537853556418
 20
383.8469029954999
 30
0.0
 11
950.1428858550207
 21
383.8469029954999
 31
0.0
  0
LINE
  5
A1
330
22
100
AcDbEntity
  8
_2-A_MOJI
  6
Continuous
 62
     7
100
AcDbLine
 10
939.4945703062081
 20
402.2903265410681
 30
0.0
 11
950.1428858550207
 21
383.8469029954999
 31
0.0
  0
LINE
  5
A2
330
22
100
AcDbEntity
  8
_2-B_DIM
  6
Continuous
 62
     7
100
AcDbLine
 10
990.7728324881089
 20
332.9392937091764
 30
0.0
 11
990.7728324881089
 21
320.3681163648692
 31
0.0
  0
POINT
  5
A3
330
22
100
AcDbEntity
  8
_2-B_DIM
 62
     1
100
AcDbPoint
 10
990.7728324881089
 20
332.9392937091764
 30
0.0
  0
LINE
  5
A4
330
22
100
AcDbEntity
  8
_2-B_DIM
  6
Continuous
 62
     7
100
AcDbLine
 10
937.772832488109
 20
332.9392937091764
 30
0.0
 11
990.7728324881089
 21
332.9392937091764
 31
0.0
  0
POINT
  5
A5
330
22
100
AcDbEntity
  8
_2-B_DIM
 62
     1
100
AcDbPoint
 10
937.772832488109
 20
332.9392937091764
 30
0.0
  0
LINE
  5
A6
330
22
100
AcDbEntity
  8
_2-A_MOJI
  6
Continuous
 62
     7
100
AcDbLine
 10
937.772832488109
 20
345.0903950042798
 30
0.0
 11
945.7151560799491
 21
358.8469029954999
 31
0.0
  0
LINE
  5
A7
330
22
100
AcDbEntity
  8
_2-A_MOJI
  6
Continuous
 62
     7
100
AcDbLine
 10
989.9537853556418
 20
358.8469029954999
 30
0.0
 11
945.7151560799491
 21
358.8469029954999
 31
0.0
  0
LINE
  5
A8
330
22
100
AcDbEntity
  8
_2-E_CON他
  6
Continuous
 62
     4
100
AcDbLine
 10
824.5721983394536
 20
227.8172748018969
 30
0.0
 11
932.7728324881091
 21
336.0179089505513
 31
0.0
  0
LINE
  5
A9
330
22
100
AcDbEntity
  8
_2-E_CON他
  6
Continuous
 62
     4
100
AcDbLine
 10
816.8231791993878
 20
227.1393234736965
 30
0.0
 11
932.7728324881091
 21
343.088976762418
 31
0.0
  0
LINE
  5
AA
330
22
100
AcDbEntity
  8
_2-E_CON他
  6
Continuous
 62
     4
100
AcDbLine
 10
809.0741600593206
 20
226.4613721454961
 30
0.0
 11
932.7728324881091
 21
350.1600445742824
 31
0.0
  0
LINE
  5
AB
330
22
100
AcDbEntity
  8
_2-E_CON他
  6
Continuous
 62
     4
100
AcDbLine
 10
1009.752111387522
 20
227.1393234736965
 30
0.0
 11
1084.752111387521
 21
302.1393234736943
 31
0.0
  0
LINE
  5
AC
330
22
100
AcDbEntity
  8
_2-E_CON他
  6
Continuous
 62
     4
100
AcDbLine
 10
1223.216295683051
 20
227.1393234736965
 30
0.0
 11
1298.21629568305
 21
302.1393234736943
 31
0.0
  0
LINE
  5
AD
330
22
100
AcDbEntity
  8
_2-E_CON他
  6
Continuous
 62
     4
100
AcDbLine
 10
1023.894247011252
 20
227.1393234736965
 30
0.0
 11
1098.894247011252
 21
302.1393234736943
 31
0.0
  0
LINE
  5
AE
330
22
100
AcDbEntity
  8
_2-E_CON他
  6
Continuous
 62
     4
100
AcDbLine
 10
1016.823179199388
 20
227.1393234736965
 30
0.0
 11
1091.823179199386
 21
302.1393234736943
 31
0.0
  0
LINE
  5
AF
330
22
100
AcDbEntity
  8
_2-E_CON他
  6
Continuous
 62
     4
100
AcDbLine
 10
1209.074160059321
 20
227.1393234736965
 30
0.0
 11
1284.074160059319
 21
302.1393234736943
 31
0.0
  0
LINE
  5
B0
330
22
100
AcDbEntity
  8
_2-E_CON他
  6
Continuous
 62
     4
100
AcDbLine
 10
1216.145227871186
 20
227.1393234736965
 30
0.0
 11
1291.145227871185
 21
302.1393234736943
 31
0.0
  0
POINT
  5
B1
330
22
100
AcDbEntity
  8
_2-B_DIM
 62
     1
100
AcDbPoint
 10
1340.852579153121
 20
307.1393234736943
 30
0.0
  0
LINE
  5
B2
330
22
100
AcDbEntity
  8
_2-B_DIM
  6
Continuous
 62
     7
100
AcDbLine
 10
1340.852579153121
 20
307.1393234736943
 30
0.0
 11
1318.544657544959
 21
307.1393234736943
 31
0.0
  0
POINT
  5
B3
330
22
100
AcDbEntity
  8
_2-3_
 62
     3
100
AcDbPoint
 10
917.7703090378086
 20
462.2510511337995
 30
0.0
  0
POINT
  5
B4
330
22
100
AcDbEntity
  8
_2-3_
 62
     3
100
AcDbPoint
 10
909.4485325572291
 20
451.0686639880176
 30
0.0
  0
POINT
  5
B5
330
22
100
AcDbEntity
  8
_2-3_
 62
     3
100
AcDbPoint
 10
897.4859788663923
 20
460.6907180436891
 30
0.0
  0
POINT
  5
B6
330
22
100
AcDbEntity
  8
_2-3_
 62
     3
100
AcDbPoint
 10
867.8396501543229
 20
458.610273923542
 30
0.0
  0
POINT
  5
B7
330
22
100
AcDbEntity
  8
_2-3_
 62
     3
100
AcDbPoint
 10
879.8022038451575
 20
464.071439738926
 30
0.0
  0
POINT
  5
B8
330
22
100
AcDbEntity
  8
_2-3_
 62
     3
100
AcDbPoint
 10
852.4963747682498
 20
469.0124945242687
 30
0.0
  0
LINE
  5
B9
330
22
100
AcDbEntity
  8
_2-9_STRAINER他
  6
Continuous
 62
     4
100
AcDbLine
 10
917.9988934019444
 20
466.6576659501502
 30
0.0
 11
921.4801200325359
 21
466.2956422679608
 31
0.0
  0
LINE
  5
BA
330
22
100
AcDbEntity
  8
_2-9_STRAINER他
  6
Continuous
 62
     4
100
AcDbLine
 10
917.8437403952932
 20
465.1657116798932
 30
0.0
 11
921.3249670258834
 21
464.8036879977107
 31
0.0
  0
LINE
  5
BB
330
22
100
AcDbEntity
  8
_2-9_STRAINER他
  6
Continuous
 62
     4
100
AcDbLine
 10
897.9191577217839
 20
471.761998914886
 30
0.0
 11
921.7904260458352
 21
469.2795508084699
 31
0.0
  0
LINE
  5
BC
330
22
100
AcDbEntity
  8
_2-9_STRAINER他
  6
Continuous
 62
     4
100
AcDbLine
 10
923.2823803160895
 20
469.1243978018164
 30
0.0
 11
957.9878616463602
 21
465.515265884695
 31
0.0
  0
LINE
  5
BD
330
22
100
AcDbEntity
  8
_2-9_STRAINER他
  6
Continuous
 62
     4
100
AcDbLine
 10
917.8437419735903
 20
465.1657268568383
 30
0.0
 11
917.9988965585366
 21
466.6576963040332
 31
0.0
  0
LINE
  5
BE
330
22
100
AcDbEntity
  8
_2-9_STRAINER他
  6
Continuous
 62
     4
100
AcDbLine
 10
922.972077459384
 20
466.1405196151994
 30
0.0
 11
923.2823803160895
 21
469.1243978018164
 31
0.0
  0
LINE
  5
BF
330
22
100
AcDbEntity
  8
_2-9_STRAINER他
  6
Continuous
 62
     4
100
AcDbLine
 10
900.9349269107215
 20
466.9241275988846
 30
0.0
 11
901.0900814956665
 21
468.4160970460819
 31
0.0
  0
LINE
  5
C0
330
22
100
AcDbEntity
  8
_2-9_STRAINER他
  6
Continuous
 62
     4
100
AcDbLine
 10
897.6088548650784
 20
468.7781207282669
 30
0.0
 11
897.9191577217839
 21
471.761998914886
 31
0.0
  0
LINE
  5
C1
330
22
100
AcDbEntity
  8
_2-9_STRAINER他
  6
Continuous
 62
     4
100
AcDbLine
 10
897.4536987018302
 20
467.2861361041222
 30
0.0
 11
900.9349253324204
 21
466.9241124219396
 31
0.0
  0
LINE
  5
C2
330
22
100
AcDbEntity
  8
_2-9_STRAINER他
  6
Continuous
 62
     4
100
AcDbLine
 10
897.6088517084814
 20
468.7780903743791
 30
0.0
 11
901.0900783390738
 21
468.4160666921896
 31
0.0
  0
LINE
  5
C3
330
22
100
AcDbEntity
  8
_2-9_STRAINER他
  6
Continuous
 62
     4
100
AcDbLine
 10
896.1169005948239
 20
468.9332737349159
 30
0.0
 11
896.4272034515294
 21
471.917151921535
 31
0.0
  0
LINE
  5
C4
330
22
100
AcDbEntity
  8
_2-9_STRAINER他
  6
Continuous
 62
     4
100
AcDbLine
 10
921.4801231891295
 20
466.2956726218529
 30
0.0
 11
921.7904260458352
 21
469.2795508084699
 31
0.0
  0
LINE
  5
C5
330
22
100
AcDbEntity
  8
_2-9_STRAINER他
  6
Continuous
 62
     4
100
AcDbLine
 10
957.9727912893792
 20
442.1393539912774
 30
0.0
 11
949.7728401175038
 21
442.1393539912774
 31
0.0
  0
LINE
  5
C6
330
22
100
AcDbEntity
  8
_2-9_STRAINER他
  6
Continuous
 62
     4
100
AcDbLine
 10
959.7728401175038
 20
467.1393539912774
 30
0.0
 11
959.7728401175038
 21
427.1393234736942
 31
0.0
  0
LINE
  5
C7
330
22
100
AcDbEntity
  8
_2-9_STRAINER他
  6
Continuous
 62
     4
100
AcDbLine
 10
949.7728401175038
 20
443.9393417842424
 30
0.0
 11
949.7728401175038
 21
442.1393539912774
 31
0.0
  0
LINE
  5
C8
330
22
100
AcDbEntity
  8
_2-9_STRAINER他
  6
Continuous
 62
     4
100
AcDbLine
 10
957.9727912893792
 20
465.5319931514336
 30
0.0
 11
957.9727912893792
 21
443.9393417842424
 31
0.0
  0
LINE
  5
C9
330
22
100
AcDbEntity
  8
_2-9_STRAINER他
  6
Continuous
 62
     4
100
AcDbLine
 10
957.9727912893792
 20
443.9393417842424
 30
0.0
 11
949.7728401175038
 21
443.9393417842424
 31
0.0
  0
LINE
  5
CA
330
22
100
AcDbEntity
  8
_2-9_STRAINER他
  6
Continuous
 62
     4
100
AcDbLine
 10
957.9727912893792
 20
442.1393539912774
 30
0.0
 11
957.9727912893792
 21
427.1393234736942
 31
0.0
  0
ARC
  5
CB
330
22
100
AcDbEntity
  8
_2-9_STRAINER他
  6
Continuous
 62
     4
100
AcDbCircle
 10
897.608899687815
 20
468.7780869014303
 30
0.0
 40
1.5
100
AcDbArc
 50
174.0625118587527
 51
264.0634206439569
  0
ARC
  5
CC
330
22
100
AcDbEntity
  8
_2-9_STRAINER他
  6
Continuous
 62
     4
100
AcDbCircle
 10
921.4801765432856
 20
466.2956345088522
 30
0.0
 40
1.5
100
AcDbArc
 50
264.0633660024417
 51
354.0630543182195
  0
LINE
  5
CD
330
22
100
AcDbEntity
  8
_2-9_STRAINER他
  6
Continuous
 62
     4
100
AcDbLine
 10
837.7728401175035
 20
478.0168032351966
 30
0.0
 11
896.4272034515294
 21
471.917151921535
 31
0.0
  0
POINT
  5
CE
330
22
100
AcDbEntity
  8
_2-3_
 62
     3
100
AcDbPoint
 10
930.2878600911197
 20
454.9913609355743
 30
0.0
  0
POINT
  5
CF
330
22
100
AcDbEntity
  8
_2-3_
 62
     3
100
AcDbPoint
 10
944.7528050852303
 20
449.1073155142394
 30
0.0
  0
POINT
  5
D0
330
22
100
AcDbEntity
  8
_2-3_
 62
     3
100
AcDbPoint
 10
952.5981989803439
 20
460.1399006792402
 30
0.0
  0
LINE
  5
D1
330
22
100
AcDbEntity
  8
_2-D_ハッチ他
  6
Continuous
 62
     4
100
AcDbLine
 10
934.2728324881081
 20
431.0837459277363
 30
0.0
 11
935.2869500461542
 21
432.0978634857837
 31
0.0
  0
LINE
  5
D2
330
22
100
AcDbEntity
  8
_2-D_ハッチ他
  6
Continuous
 62
     4
100
AcDbLine
 10
939.3258101134211
 20
421.9945879293127
 30
0.0
 11
949.2218574840149
 21
431.8906352999134
 31
0.0
  0
LINE
  5
D3
330
22
100
AcDbEntity
  8
_2-D_ハッチ他
  6
Continuous
 62
     4
100
AcDbLine
 10
949.8193703490393
 20
425.4170803530708
 30
0.0
 11
956.4785123803515
 21
432.0762223843835
 31
0.0
  0
LINE
  5
D4
330
22
100
AcDbEntity
  8
_2-D_ハッチ他
  6
Continuous
 62
     4
100
AcDbLine
 10
935.8364652971285
 20
425.57631092489
 30
0.0
 11
942.1623450045604
 21
431.9021906323231
 31
0.0
  0
LINE
  5
D5
330
22
100
AcDbEntity
  8
_2-D_ハッチ他
  6
Continuous
 62
     4
100
AcDbLine
 10
932.7728324881091
 20
432.1393234736942
 30
0.0
 11
957.9727912893885
 21
442.1393234736942
 31
0.0
  0
LINE
  5
D6
330
22
100
AcDbEntity
  8
_2-D_ハッチ他
  6
Continuous
 62
     4
100
AcDbLine
 10
957.9727912893885
 20
432.1393234736942
 30
0.0
 11
932.7728324881091
 21
442.1393234736942
 31
0.0
  0
LINE
  5
D7
330
22
100
AcDbEntity
  8
_2-9_STRAINER他
  6
Continuous
 62
     4
100
AcDbLine
 10
959.7728401175038
 20
427.1393234736942
 30
0.0
 11
957.9727912893792
 21
427.1393234736942
 31
0.0
  0
LINE
  5
D8
330
22
100
AcDbEntity
  8
_2-9_STRAINER他
  6
Continuous
 62
     4
100
AcDbLine
 10
839.5727856727617
 20
479.6393159173939
 30
0.0
 11
959.7727832375959
 21
467.1393409560605
 31
0.0
  0
LINE
  5
D9
330
22
100
AcDbEntity
  8
_2-8_DRAIN他
  6
Continuous
 62
     4
100
AcDbLine
 10
837.7728401175035
 20
489.6393234736942
 30
0.0
 11
849.7728401175061
 21
489.6393234736942
 31
0.0
  0
LINE
  5
DA
330
22
100
AcDbEntity
  8
_2-8_DRAIN他
  6
Continuous
 62
     4
100
AcDbLine
 10
836.272840117506
 20
491.1393234736951
 30
0.0
 11
836.272840117506
 21
479.6393234736942
 31
0.0
  0
LINE
  5
DB
330
22
100
AcDbEntity
  8
_2-9_STRAINER他
  6
Continuous
 62
     4
100
AcDbLine
 10
837.7728401175035
 20
489.6393234736942
 30
0.0
 11
837.7728401175035
 21
478.0168032351966
 31
0.0
  0
LINE
  5
DC
330
22
100
AcDbEntity
  8
_2-9_STRAINER他
  6
Continuous
 62
     4
100
AcDbLine
 10
839.572766875316
 20
479.6393234736942
 30
0.0
 11
839.572766875316
 21
489.6393234736942
 31
0.0
  0
LINE
  5
DD
330
22
100
AcDbEntity
  8
_2-8_DRAIN他
  6
Continuous
 62
     4
100
AcDbLine
 10
837.7728401175035
 20
479.6393234736942
 30
0.0
 11
836.272840117506
 21
479.6393234736942
 31
0.0
  0
ARC
  5
DE
330
22
100
AcDbEntity
  8
_2-6_鋼板__アングル
  6
Continuous
 62
     2
100
AcDbCircle
 10
941.2103574881108
 20
421.636617483792
 30
0.0
 40
0.187748
100
AcDbArc
 50
355.0659180000001
 51
125.411952
  0
LINE
  5
DF
330
22
100
AcDbEntity
  8
_2-6_鋼板__アングル
  6
Continuous
 62
     2
100
AcDbLine
 10
940.1025458437484
 20
405.1390619112598
 30
0.0
 11
940.0975248125529
 21
419.0478047444034
 31
0.0
  0
LINE
  5
E0
330
22
100
AcDbEntity
  8
_2-6_鋼板__アングル
  6
Continuous
 62
     2
100
AcDbLine
 10
940.1025458437484
 20
405.1390619112598
 30
0.0
 11
936.8978324881108
 21
401.6580283703488
 31
0.0
  0
LINE
  5
E1
330
22
100
AcDbEntity
  8
_2-6_鋼板__アングル
  6
Continuous
 62
     2
100
AcDbLine
 10
936.8978324881108
 20
395.9634264837936
 30
0.0
 11
936.8978324881108
 21
401.6580283703488
 31
0.0
  0
LINE
  5
E2
330
22
100
AcDbEntity
  8
_2-6_鋼板__アングル
  6
Continuous
 62
     2
100
AcDbLine
 10
936.8978324881108
 20
395.9634264837936
 30
0.0
 11
938.6478324881112
 21
395.9634264837936
 31
0.0
  0
LINE
  5
E3
330
22
100
AcDbEntity
  8
_2-6_鋼板__アングル
  6
Continuous
 62
     2
100
AcDbLine
 10
938.6478324881112
 20
400.9648953621931
 30
0.0
 11
938.6478324881112
 21
395.9634264837936
 31
0.0
  0
LINE
  5
E4
330
22
100
AcDbEntity
  8
_2-6_鋼板__アングル
  6
Continuous
 62
     2
100
AcDbLine
 10
941.3978325911475
 20
403.9634265961385
 30
0.0
 11
938.6478324881112
 21
400.9648953621931
 31
0.0
  0
LINE
  5
E5
330
22
100
AcDbEntity
  8
_2-6_鋼板__アングル
  6
Continuous
 62
     2
100
AcDbLine
 10
941.3974084881113
 20
421.6245584837915
 30
0.0
 11
941.3978325911475
 21
403.9634265961385
 31
0.0
  0
LINE
  5
E6
330
22
100
AcDbEntity
  8
_2-6_鋼板__アングル
  6
Continuous
 62
     2
100
AcDbLine
 10
941.1070974881102
 20
421.7939994837896
 30
0.0
 11
940.0976720701704
 21
421.2022914193821
 31
0.0
  0
ARC
  5
E7
330
22
100
AcDbEntity
  8
_2-7_ビス
  6
Continuous
 62
     7
100
AcDbCircle
 10
941.3976204881123
 20
412.7961379837878
 30
0.0
 40
3.311199832977679
100
AcDbArc
 50
270.0
 51
90.0
  0
LINE
  5
E8
330
22
100
AcDbEntity
  8
_2-7_ビス
  6
Continuous
 62
     7
100
AcDbLine
 10
941.3976204881123
 20
409.4849381508091
 30
0.0
 11
941.3976204881123
 21
416.1073378167666
 31
0.0
  0
LINE
  5
E9
330
22
100
AcDbEntity
  8
_2-6_鋼板__アングル
  6
Continuous
 62
     2
100
AcDbLine
 10
932.7728324881091
 20
426.5479346176934
 30
0.0
 11
940.0975248125529
 21
419.0478047444034
 31
0.0
  0
LINE
  5
EA
330
22
100
AcDbEntity
  8
_2-6_鋼板__アングル
  6
Continuous
 62
     2
100
AcDbLine
 10
934.2728324881113
 20
432.1393234736942
 30
0.0
 11
932.7728324881091
 21
432.1393234736942
 31
0.0
  0
LINE
  5
EB
330
22
100
AcDbEntity
  8
_2-6_鋼板__アングル
  6
Continuous
 62
     2
100
AcDbLine
 10
932.7728324881091
 20
432.1393234736942
 30
0.0
 11
932.7728324881091
 21
426.5479346176934
 31
0.0
  0
LINE
  5
EC
330
22
100
AcDbEntity
  8
_2-6_鋼板__アングル
  6
Continuous
 62
     2
100
AcDbLine
 10
934.2728324881113
 20
432.1393234736942
 30
0.0
 11
934.2728324881113
 21
427.181339915588
 31
0.0
  0
LINE
  5
ED
330
22
100
AcDbEntity
  8
_2-6_鋼板__アングル
  6
Continuous
 62
     2
100
AcDbLine
 10
934.2728324881113
 20
427.181339915588
 30
0.0
 11
940.0976720701704
 21
421.2022914193821
 31
0.0
  0
LINE
  5
EE
330
22
100
AcDbEntity
  8
_2-7_ビス
  6
Continuous
 62
     7
100
AcDbLine
 10
941.3976204881123
 20
410.7961379837896
 30
0.0
 11
932.7728324881091
 21
410.7961379837896
 31
0.0
  0
LINE
  5
EF
330
22
100
AcDbEntity
  8
_2-7_ビス
  6
Continuous
 62
     7
100
AcDbLine
 10
941.3976204881123
 20
414.7961379837928
 30
0.0
 11
932.7728324881091
 21
414.7961379837928
 31
0.0
  0
LINE
  5
F0
330
22
100
AcDbEntity
  8
_2-8_DRAIN他
  6
Continuous
 62
     4
100
AcDbLine
 10
784.7728324881098
 20
491.1393234736951
 30
0.0
 11
784.7728324881098
 21
489.6393234736942
 31
0.0
  0
LINE
  5
F1
330
22
100
AcDbEntity
  8
_2-8_DRAIN他
  6
Continuous
 62
     4
100
AcDbLine
 10
796.7728324881115
 20
504.6393234736942
 30
0.0
 11
796.7728324881115
 21
516.6393234736992
 31
0.0
  0
LINE
  5
F2
330
22
100
AcDbEntity
  8
_2-8_DRAIN他
  6
Continuous
 62
     4
100
AcDbLine
 10
845.2728401175034
 20
503.1393234736955
 30
0.0
 11
798.2728324881088
 21
503.1393234736955
 31
0.0
  0
LINE
  5
F3
330
22
100
AcDbEntity
  8
_2-8_DRAIN他
  6
Continuous
 62
     4
100
AcDbLine
 10
845.2728401175034
 20
491.1393234736951
 30
0.0
 11
845.2728401175034
 21
503.1393234736955
 31
0.0
  0
LINE
  5
F4
330
22
100
AcDbEntity
  8
_2-8_DRAIN他
  6
Continuous
 62
     4
100
AcDbLine
 10
774.2728324881114
 20
518.1393234736956
 30
0.0
 11
806.7728324881114
 21
518.1393234736956
 31
0.0
  0
LINE
  5
F5
330
22
100
AcDbEntity
  8
_2-8_DRAIN他
  6
Continuous
 62
     4
100
AcDbLine
 10
774.2728324881114
 20
491.1393234736951
 30
0.0
 11
774.2728324881114
 21
518.1393234736956
 31
0.0
  0
LINE
  5
F6
330
22
100
AcDbEntity
  8
_2-8_DRAIN他
  6
Continuous
 62
     4
100
AcDbLine
 10
806.7728324881114
 20
519.6393234736943
 30
0.0
 11
774.2728324881114
 21
519.6393234736943
 31
0.0
  0
LINE
  5
F7
330
22
100
AcDbEntity
  8
_2-8_DRAIN他
  6
Continuous
 62
     4
100
AcDbLine
 10
798.2728324881088
 20
516.6393234736992
 30
0.0
 11
806.7728324881114
 21
516.6393234736992
 31
0.0
  0
LINE
  5
F8
330
22
100
AcDbEntity
  8
_2-8_DRAIN他
  6
Continuous
 62
     4
100
AcDbLine
 10
798.2728324881088
 20
504.6393234736942
 30
0.0
 11
798.2728324881088
 21
516.6393234736992
 31
0.0
  0
LINE
  5
F9
330
22
100
AcDbEntity
  8
_2-8_DRAIN他
  6
Continuous
 62
     4
100
AcDbLine
 10
845.2728401175034
 20
504.6393234736942
 30
0.0
 11
798.2728324881088
 21
504.6393234736942
 31
0.0
  0
LINE
  5
FA
330
22
100
AcDbEntity
  8
_2-8_DRAIN他
  6
Continuous
 62
     4
100
AcDbLine
 10
846.7728401175042
 20
491.1393234736951
 30
0.0
 11
846.7728401175042
 21
503.1393234736955
 31
0.0
  0
LINE
  5
FB
330
22
100
AcDbEntity
  8
_2-8_DRAIN他
  6
Continuous
 62
     4
100
AcDbLine
 10
772.7728324881115
 20
491.1393234736951
 30
0.0
 11
772.7728324881115
 21
518.1393234736956
 31
0.0
  0
LINE
  5
FC
330
22
100
AcDbEntity
  8
_2-8_DRAIN他
  6
Continuous
 62
     4
100
AcDbLine
 10
784.7728324881098
 20
491.1393234736951
 30
0.0
 11
774.2728324881114
 21
491.1393234736951
 31
0.0
  0
LINE
  5
FD
330
22
100
AcDbEntity
  8
_2-8_DRAIN他
  6
Continuous
 62
     4
100
AcDbLine
 10
837.0545331308392
 20
503.1393255722114
 30
0.0
 11
835.5545315127834
 21
504.6393271902692
 31
0.0
  0
LINE
  5
FE
330
22
100
AcDbEntity
  8
_2-8_DRAIN他
  6
Continuous
 62
     4
100
AcDbLine
 10
774.2728319985858
 20
509.3524767074003
 30
0.0
 11
772.7728303805304
 21
510.8524783254583
 31
0.0
  0
LINE
  5
FF
330
22
100
AcDbEntity
  8
_2-8_DRAIN他
  6
Continuous
 62
     4
100
AcDbLine
 10
798.2728309134961
 20
513.6367598295497
 30
0.0
 11
796.6728313454894
 21
515.2367593975585
 31
0.0
  0
LINE
  5
100
330
22
100
AcDbEntity
  8
_2-8_DRAIN他
  6
Continuous
 62
     4
100
AcDbLine
 10
846.7728276389367
 20
493.4210310641183
 30
0.0
 11
845.2727397041361
 21
494.9211189989191
 31
0.0
  0
LINE
  5
101
330
22
100
AcDbEntity
  8
_2-8_DRAIN他
  6
Continuous
 62
     4
100
AcDbLine
 10
808.7702635271069
 20
503.1393272159411
 30
0.0
 11
807.2702619090511
 21
504.6393288339991
 31
0.0
  0
LINE
  5
102
330
22
100
AcDbEntity
  8
_2-8_DRAIN他
  6
Continuous
 62
     4
100
AcDbLine
 10
793.7702689257354
 20
518.1393218173079
 30
0.0
 11
792.2702673076799
 21
519.6393234353658
 31
0.0
  0
LINE
  5
103
330
22
100
AcDbEntity
  8
_2-8_DRAIN他
  6
Continuous
 62
     4
100
AcDbLine
 10
798.2728324881088
 20
507.590968371156
 30
0.0
 11
798.2728324881088
 21
513.3714096553362
 31
0.0
  0
LINE
  5
104
330
22
100
AcDbEntity
  8
_2-8_DRAIN他
  6
Continuous
 62
     4
100
AcDbLine
 10
798.4817313504584
 20
507.2191481148465
 30
0.0
 11
800.3563904899454
 21
504.7946462080844
 31
0.0
  0
LINE
  5
105
330
22
100
AcDbEntity
  8
_2-8_DRAIN他
  6
Continuous
 62
     4
100
AcDbLine
 10
801.0092648750047
 20
505.2556729538681
 30
0.0
 11
799.5728285912343
 21
507.4893143281597
 31
0.0
  0
LINE
  5
106
330
22
100
AcDbEntity
  8
_2-8_DRAIN他
  6
Continuous
 62
     4
100
AcDbLine
 10
799.5728355398694
 20
507.4893295772116
 30
0.0
 11
801.2728324881107
 21
507.4893295772116
 31
0.0
  0
LINE
  5
107
330
22
100
AcDbEntity
  8
_2-8_DRAIN他
  6
Continuous
 62
     4
100
AcDbLine
 10
801.2728345486754
 20
507.489312835788
 30
0.0
 11
803.1449502239535
 21
504.8102019416464
 31
0.0
  0
LINE
  5
108
330
22
100
AcDbEntity
  8
_2-8_DRAIN他
  6
Continuous
 62
     4
100
AcDbLine
 10
802.4728446951428
 20
507.4893295772116
 30
0.0
 11
804.2728324881114
 21
507.4893295772116
 31
0.0
  0
LINE
  5
109
330
22
100
AcDbEntity
  8
_2-8_DRAIN他
  6
Continuous
 62
     4
100
AcDbLine
 10
802.4728446951428
 20
507.4893295772116
 30
0.0
 11
804.2728324881114
 21
507.4893295772116
 31
0.0
  0
LINE
  5
10A
330
22
100
AcDbEntity
  8
_2-8_DRAIN他
  6
Continuous
 62
     4
100
AcDbLine
 10
803.9995854560014
 20
513.6473452155688
 30
0.0
 11
803.9773126424675
 21
513.5893243061771
 31
0.0
  0
LINE
  5
10B
330
22
100
AcDbEntity
  8
_2-8_DRAIN他
  6
Continuous
 62
     4
100
AcDbLine
 10
800.3563982071623
 20
516.2839913816228
 30
0.0
 11
798.4817379009736
 21
513.8594879659567
 31
0.0
  0
LINE
  5
10C
330
22
100
AcDbEntity
  8
_2-8_DRAIN他
  6
Continuous
 62
     4
100
AcDbLine
 10
799.5728326220739
 20
513.5893198138351
 30
0.0
 11
801.0092694575622
 21
515.8229631010348
 31
0.0
  0
LINE
  5
10D
330
22
100
AcDbEntity
  8
_2-8_DRAIN他
  6
Continuous
 62
     4
100
AcDbLine
 10
799.5728355398694
 20
513.5893204219415
 30
0.0
 11
801.2728324881107
 21
513.5893204219415
 31
0.0
  0
LINE
  5
10E
330
22
100
AcDbEntity
  8
_2-8_DRAIN他
  6
Continuous
 62
     4
100
AcDbLine
 10
801.2728344934783
 20
513.5893164386707
 30
0.0
 11
803.1536808362613
 21
516.2809229584772
 31
0.0
  0
LINE
  5
10F
330
22
100
AcDbEntity
  8
_2-8_DRAIN他
  6
Continuous
 62
     4
100
AcDbLine
 10
802.4728446951428
 20
513.5893204219415
 30
0.0
 11
803.9773155203363
 21
513.5893204219415
 31
0.0
  0
LINE
  5
110
330
22
100
AcDbEntity
  8
_2-8_DRAIN他
  6
Continuous
 62
     4
100
AcDbLine
 10
801.0199391363835
 20
515.8530730378251
 30
0.0
 11
801.0146193248408
 21
515.8380169116035
 31
0.0
  0
LINE
  5
111
330
22
100
AcDbEntity
  8
_2-8_DRAIN他
  6
Continuous
 62
     4
100
AcDbLine
 10
801.0146297756625
 20
515.8380138647872
 30
0.0
 11
801.0092738189529
 21
515.8229543625848
 31
0.0
  0
LINE
  5
112
330
22
100
AcDbEntity
  8
_2-8_DRAIN他
  6
Continuous
 62
     4
100
AcDbLine
 10
803.7751083417436
 20
505.3131741792329
 30
0.0
 11
802.4728308338467
 21
507.4893304139103
 31
0.0
  0
LINE
  5
113
330
22
100
AcDbEntity
  8
_2-8_DRAIN他
  6
Continuous
 62
     4
100
AcDbLine
 10
803.826070267736
 20
515.8506446954934
 30
0.0
 11
802.472829248153
 21
513.589325773738
 31
0.0
  0
ARC
  5
114
330
22
100
AcDbEntity
  8
_2-8_DRAIN他
  6
Continuous
 62
     4
100
AcDbCircle
 10
774.2728324881114
 20
491.1393234736951
 30
0.0
 40
1.5
100
AcDbArc
 50
180.0
 51
270.0000025044778
  0
ARC
  5
115
330
22
100
AcDbEntity
  8
_2-8_DRAIN他
  6
Continuous
 62
     4
100
AcDbCircle
 10
774.2728324881114
 20
518.1393234736956
 30
0.0
 40
1.5
100
AcDbArc
 50
89.9999974955215
 51
180.0
  0
ARC
  5
116
330
22
100
AcDbEntity
  8
_2-8_DRAIN他
  6
Continuous
 62
     4
100
AcDbCircle
 10
806.7728324881114
 20
518.1393234736956
 30
0.0
 40
1.5
100
AcDbArc
 50
269.9999993167541
 51
89.99999749552154
  0
ARC
  5
117
330
22
100
AcDbEntity
  8
_2-8_DRAIN他
  6
Continuous
 62
     4
100
AcDbCircle
 10
798.2728324881088
 20
516.6393234736992
 30
0.0
 40
1.5
100
AcDbArc
 50
89.9999974955215
 51
180.0
  0
ARC
  5
118
330
22
100
AcDbEntity
  8
_2-8_DRAIN他
  6
Continuous
 62
     4
100
AcDbCircle
 10
798.2728324881088
 20
504.6393234736942
 30
0.0
 40
1.5
100
AcDbArc
 50
180.0
 51
270.0000025044778
  0
ARC
  5
119
330
22
100
AcDbEntity
  8
_2-8_DRAIN他
  6
Continuous
 62
     4
100
AcDbCircle
 10
845.2728401175034
 20
503.1393234736955
 30
0.0
 40
1.5
100
AcDbArc
 50
359.9999949910434
 51
89.99999749552207
  0
ARC
  5
11A
330
22
100
AcDbEntity
  8
_2-8_DRAIN他
  6
Continuous
 62
     4
100
AcDbCircle
 10
845.2728401175034
 20
491.1393234736951
 30
0.0
 40
1.5
100
AcDbArc
 50
270.0000025044772
 51
359.9999913485774
  0
ARC
  5
11B
330
22
100
AcDbEntity
  8
_2-8_DRAIN他
  6
Continuous
 62
     4
100
AcDbCircle
 10
807.8836723318612
 20
506.9444992549491
 30
0.0
 40
2.828360080718994
100
AcDbArc
 50
319.869505390578
 51
22.2133274550559
  0
ARC
  5
11C
330
22
100
AcDbEntity
  8
_2-8_DRAIN他
  6
Continuous
 62
     4
100
AcDbCircle
 10
813.1185508718989
 20
510.3505661494805
 30
0.0
 40
3.50803804397583
100
AcDbArc
 50
151.141159850943
 51
221.7686694917566
  0
ARC
  5
11D
330
22
100
AcDbEntity
  8
_2-8_DRAIN他
  6
Continuous
 62
     4
100
AcDbCircle
 10
806.5526176443595
 20
513.0928909785788
 30
0.0
 40
3.647681951522828
100
AcDbArc
 50
343.2844866956492
 51
52.2560101420056
  0
ARC
  5
11E
330
22
100
AcDbEntity
  8
_2-8_DRAIN他
  6
Continuous
 62
     4
100
AcDbCircle
 10
807.2227989187751
 20
513.111415148504
 30
0.0
 40
3.264250040054321
100
AcDbArc
 50
61.39763094979868
 51
172.1371263548427
  0
ARC
  5
11F
330
22
100
AcDbEntity
  8
_2-8_DRAIN他
  6
Continuous
 62
     4
100
AcDbCircle
 10
810.8178001394787
 20
511.3268539912732
 30
0.0
 40
7.587050914764406
100
AcDbArc
 50
210.3845063341513
 51
235.8775965998606
  0
ARC
  5
120
330
22
100
AcDbEntity
  8
_2-8_DRAIN他
  6
Continuous
 62
     4
100
AcDbCircle
 10
808.2683616629161
 20
507.7022659785789
 30
0.0
 40
3.133805036544799
100
AcDbArc
 50
237.2801110591255
 51
304.5622008746565
  0
ARC
  5
121
330
22
100
AcDbEntity
  8
_2-8_DRAIN他
  6
Continuous
 62
     4
100
AcDbCircle
 10
800.6708427420177
 20
516.0364944942021
 30
0.0
 40
0.4001649916172029
100
AcDbArc
 50
327.7506830889367
 51
141.7929019150963
  0
ARC
  5
122
330
22
100
AcDbEntity
  8
_2-8_DRAIN他
  6
Continuous
 62
     4
100
AcDbCircle
 10
803.4704032888919
 20
516.0353500850224
 30
0.0
 40
0.4007759988307952
100
AcDbArc
 50
325.6479956925707
 51
142.2101513413034
  0
ARC
  5
123
330
22
100
AcDbEntity
  8
_2-8_DRAIN他
  6
Continuous
 62
     4
100
AcDbCircle
 10
803.4735923758068
 20
505.044810534242
 30
0.0
 40
0.4037849903106692
100
AcDbArc
 50
215.5238311760804
 51
41.77321338878676
  0
ARC
  5
124
330
22
100
AcDbEntity
  8
_2-8_DRAIN他
  6
Continuous
 62
     4
100
AcDbCircle
 10
800.6719566336176
 20
505.0395004756487
 30
0.0
 40
0.399414986371994
100
AcDbArc
 50
217.8101960196038
 51
32.65413220525807
  0
ARC
  5
125
330
22
100
AcDbEntity
  8
_2-8_DRAIN他
  6
Continuous
 62
     4
100
AcDbCircle
 10
805.4594779959222
 20
510.5841782100274
 30
0.0
 40
7.708209991455078
100
AcDbArc
 50
154.8547934668341
 51
158.8017685428877
  0
ARC
  5
126
330
22
100
AcDbEntity
  8
_2-8_DRAIN他
  6
Continuous
 62
     4
100
AcDbCircle
 10
802.2956443777582
 20
509.6064255244764
 30
0.0
 40
4.499448776245117
100
AcDbArc
 50
206.6110009875429
 51
212.0440920383025
  0
LINE
  5
127
330
22
100
AcDbEntity
  8
_2-8_DRAIN他
  6
Continuous
 62
     4
100
AcDbLine
 10
845.2728401175034
 20
491.1393234736951
 30
0.0
 11
836.272840117506
 21
491.1393234736951
 31
0.0
  0
POINT
  5
128
330
22
100
AcDbEntity
  8
_2-3_
 62
     3
100
AcDbPoint
 10
832.7321556268667
 20
465.3717173140156
 30
0.0
  0
POINT
  5
129
330
22
100
AcDbEntity
  8
_2-3_
 62
     3
100
AcDbPoint
 10
828.0511563565402
 20
479.1546596099768
 30
0.0
  0
POINT
  5
12A
330
22
100
AcDbEntity
  8
_2-3_
 62
     3
100
AcDbPoint
 10
796.5844390393422
 20
477.5943265198711
 30
0.0
  0
POINT
  5
12B
330
22
100
AcDbEntity
  8
_2-3_
 62
     3
100
AcDbPoint
 10
798.9249386745074
 20
498.6588232363451
 30
0.0
  0
POINT
  5
12C
330
22
100
AcDbEntity
  8
_2-3_
 62
     3
100
AcDbPoint
 10
789.5629401338533
 20
509.5811548671063
 30
0.0
  0
POINT
  5
12D
330
22
100
AcDbEntity
  8
_2-3_
 62
     3
100
AcDbPoint
 10
779.1607195331265
 20
501.7794894165588
 30
0.0
  0
POINT
  5
12E
330
22
100
AcDbEntity
  8
_2-3_
 62
     3
100
AcDbPoint
 10
779.1607195331265
 20
513.4819875923776
 30
0.0
  0
POINT
  5
12F
330
22
100
AcDbEntity
  8
_2-3_
 62
     3
100
AcDbPoint
 10
819.209268845924
 20
498.6588232363451
 30
0.0
  0
POINT
  5
130
330
22
100
AcDbEntity
  8
_2-3_
 62
     3
100
AcDbPoint
 10
840.2737655623957
 20
498.1387122063082
 30
0.0
  0
POINT
  5
131
330
22
100
AcDbEntity
  8
_2-3_
 62
     3
100
AcDbPoint
 10
803.8659934598523
 20
489.2968246956852
 30
0.0
  0
POINT
  5
132
330
22
100
AcDbEntity
  8
_2-3_
 62
     3
100
AcDbPoint
 10
816.3486581807216
 20
473.9535493096159
 30
0.0
  0
POINT
  5
133
330
22
100
AcDbEntity
  8
_2-3_
 62
     3
100
AcDbPoint
 10
823.6302126012322
 20
489.5568802107036
 30
0.0
  0
LINE
  5
134
330
22
100
AcDbEntity
  8
_2-4_OUT_LINE
  6
Continuous
 62
     2
100
AcDbLine
 10
782.7728324881116
 20
489.6393234736942
 30
0.0
 11
782.7728324881116
 21
419.6393234736942
 31
0.0
  0
LINE
  5
135
330
22
100
AcDbEntity
  8
_2-4_OUT_LINE
  6
Continuous
 62
     2
100
AcDbLine
 10
782.7728324881116
 20
419.6393234736942
 30
0.0
 11
702.1979888417706
 21
419.6393234736942
 31
0.0
  0
LINE
  5
136
330
22
100
AcDbEntity
  8
_2-8_DRAIN他
  6
Continuous
 62
     4
100
AcDbLine
 10
784.7728324881098
 20
489.6393234736942
 30
0.0
 11
769.7728324881097
 21
489.6393234736942
 31
0.0
  0
LINE
  5
137
330
22
100
AcDbEntity
  8
_2-D_ハッチ他
  6
Continuous
 62
     4
100
AcDbLine
 10
937.772832488107
 20
404.4364801587844
 30
0.0
 11
940.1019586641337
 21
406.7656063348121
 31
0.0
  0
LINE
  5
138
330
22
100
AcDbEntity
  8
_2-D_ハッチ他
  6
Continuous
 62
     4
100
AcDbLine
 10
937.7728324881118
 20
407.9720140647358
 30
0.0
 11
940.1006828033199
 21
410.2998643799409
 31
0.0
  0
LINE
  5
139
330
22
100
AcDbEntity
  8
_2-D_ハッチ他
  6
Continuous
 62
     4
100
AcDbLine
 10
937.7728324881148
 20
415.0430818766025
 30
0.0
 11
940.0981310817021
 21
417.3683804701894
 31
0.0
  0
LINE
  5
13A
330
22
100
AcDbEntity
  8
_2-D_ハッチ他
  6
Continuous
 62
     4
100
AcDbLine
 10
937.772832488107
 20
418.5786157825177
 30
0.0
 11
939.1807521824
 21
419.9865354768108
 31
0.0
  0
LINE
  5
13B
330
22
100
AcDbEntity
  8
_2-D_ハッチ他
  6
Continuous
 62
     4
100
AcDbLine
 10
937.0868597940273
 20
421.4281769943826
 30
0.0
 11
937.4339050554512
 21
421.7752222558065
 31
0.0
  0
LINE
  5
13C
330
22
100
AcDbEntity
  8
_2-D_ハッチ他
  6
Continuous
 62
     4
100
AcDbLine
 10
933.5513258881089
 20
421.4281769943871
 30
0.0
 11
935.6870579285088
 21
423.5639090347885
 31
0.0
  0
LINE
  5
13D
330
22
100
AcDbEntity
  8
_2-D_ハッチ他
  6
Continuous
 62
     4
100
AcDbLine
 10
932.772832488107
 20
424.1852175003268
 30
0.0
 11
933.9402108015576
 21
425.3525958137819
 31
0.0
  0
LINE
  5
13E
330
22
100
AcDbEntity
  8
_2-4_OUT_LINE
  6
Continuous
 62
     2
100
AcDbLine
 10
937.772832488109
 20
315.1393234736961
 30
0.0
 11
937.772832488109
 21
395.9634264837936
 31
0.0
  0
LINE
  5
13F
330
22
100
AcDbEntity
  8
_2-8_DRAIN他
  6
Continuous
 62
     4
100
AcDbLine
 10
849.7728401175061
 20
489.6393234736942
 30
0.0
 11
849.7728401175061
 21
677.1393234736944
 31
0.0
  0
LINE
  5
140
330
22
100
AcDbEntity
  8
_2-8_DRAIN他
  6
Continuous
 62
     4
100
AcDbLine
 10
769.7728324881097
 20
489.6393234736942
 30
0.0
 11
769.7728324881097
 21
677.1393234736944
 31
0.0
  0
LINE
  5
141
330
22
100
AcDbEntity
  8
_2-B_DIM
  6
Continuous
 62
     7
100
AcDbLine
 10
1340.852579153121
 20
307.1393234736943
 30
0.0
 11
1340.852579153121
 21
427.1393234736942
 31
0.0
  0
POINT
  5
142
330
22
100
AcDbEntity
  8
_2-B_DIM
 62
     1
100
AcDbPoint
 10
1340.852579153121
 20
427.1393234736942
 30
0.0
  0
LINE
  5
143
330
22
100
AcDbEntity
  8
_2-A_MOJI
  6
Continuous
 62
     7
100
AcDbLine
 10
949.5919203674954
 20
425.3434649597223
 30
0.0
 11
959.1162148582418
 21
408.8469029954999
 31
0.0
  0
LINE
  5
144
330
22
100
AcDbEntity
  8
_2-B_DIM
  6
Continuous
 62
     7
100
AcDbLine
 10
1340.852579153121
 20
427.1393234736942
 30
0.0
 11
968.9256792377136
 21
427.1393234736942
 31
0.0
  0
LINE
  5
145
330
22
100
AcDbEntity
  8
_2-E_CON他
  6
Continuous
 62
     4
100
AcDbLine
 10
702.1979888417706
 20
304.7651139760123
 30
0.0
 11
855.5609486536196
 21
458.12807378786
 31
0.0
  0
LINE
  5
146
330
22
100
AcDbEntity
  8
_2-E_CON他
  6
Continuous
 62
     4
100
AcDbLine
 10
702.1979888417706
 20
311.836181787879
 30
0.0
 11
849.7029362971273
 21
459.3411292432356
 31
0.0
  0
LINE
  5
147
330
22
100
AcDbEntity
  8
_2-E_CON他
  6
Continuous
 62
     4
100
AcDbLine
 10
702.1979888417706
 20
318.9072495997433
 30
0.0
 11
843.8449239406395
 21
460.5541846986112
 31
0.0
  0
TEXT
  5
148
330
22
100
AcDbEntity
  8
_2-B_DIM
 62
     7
100
AcDbText
 10
1338.352579153121
 20
353.3893234736942
 30
0.0
 40
15.0
  1
120以上
 50
90.0
100
AcDbText
  0
ARC
  5
149
330
22
100
AcDbEntity
  8
_2-2_IN_LINE
  6
Continuous
 62
     7
100
AcDbCircle
 10
940.7728324881089
 20
315.1393234736961
 30
0.0
 40
8.0
100
AcDbArc
 50
180.0
 51
270.0
  0
LINE
  5
14A
330
22
100
AcDbEntity
  8
_2-2_IN_LINE
  6
Continuous
 62
     7
100
AcDbLine
 10
984.7757004211768
 20
312.1393234736943
 30
0.0
 11
984.7939192086993
 21
312.270228420376
 31
0.0
  0
LINE
  5
14B
330
22
100
AcDbEntity
  8
_2-2_IN_LINE
  6
Continuous
 62
     7
100
AcDbLine
 10
984.7939192086993
 20
312.270228420376
 30
0.0
 11
984.82698598836
 21
312.4953023553948
 31
0.0
  0
LINE
  5
14C
330
22
100
AcDbEntity
  8
_2-2_IN_LINE
  6
Continuous
 62
     7
100
AcDbLine
 10
984.82698598836
 20
312.4953023553948
 30
0.0
 11
984.8646502042264
 21
312.7186422656527
 31
0.0
  0
LINE
  5
14D
330
22
100
AcDbEntity
  8
_2-2_IN_LINE
  6
Continuous
 62
     7
100
AcDbLine
 10
984.8646502042264
 20
312.7186422656527
 30
0.0
 11
984.9098216260506
 21
312.939150667124
 31
0.0
  0
LINE
  5
14E
330
22
100
AcDbEntity
  8
_2-2_IN_LINE
  6
Continuous
 62
     7
100
AcDbLine
 10
984.9098216260506
 20
312.939150667124
 30
0.0
 11
984.9654100235808
 21
313.1557300757831
 31
0.0
  0
LINE
  5
14F
330
22
100
AcDbEntity
  8
_2-2_IN_LINE
  6
Continuous
 62
     7
100
AcDbLine
 10
984.9654100235808
 20
313.1557300757831
 30
0.0
 11
985.0343251665696
 21
313.367283007602
 31
0.0
  0
LINE
  5
150
330
22
100
AcDbEntity
  8
_2-2_IN_LINE
  6
Continuous
 62
     7
100
AcDbLine
 10
985.0343251665696
 20
313.367283007602
 30
0.0
 11
985.0815488648628
 21
313.4872481105944
 31
0.0
  0
LINE
  5
151
330
22
100
AcDbEntity
  8
_2-2_IN_LINE
  6
Continuous
 62
     7
100
AcDbLine
 10
985.0815488648628
 20
313.4872481105944
 30
0.0
 11
985.1224899261262
 21
313.5793649501837
 31
0.0
  0
LINE
  5
152
330
22
100
AcDbEntity
  8
_2-2_IN_LINE
  6
Continuous
 62
     7
100
AcDbLine
 10
985.1224899261262
 20
313.5793649501837
 30
0.0
 11
985.200905098808
 21
313.7350792531978
 31
0.0
  0
LINE
  5
153
330
22
100
AcDbEntity
  8
_2-2_IN_LINE
  6
Continuous
 62
     7
100
AcDbLine
 10
985.200905098808
 20
313.7350792531978
 30
0.0
 11
985.2880121131342
 21
313.8870828560775
 31
0.0
  0
LINE
  5
154
330
22
100
AcDbEntity
  8
_2-2_IN_LINE
  6
Continuous
 62
     7
100
AcDbLine
 10
985.2880121131342
 20
313.8870828560775
 30
0.0
 11
985.3823971022825
 21
314.0356353718775
 31
0.0
  0
LINE
  5
155
330
22
100
AcDbEntity
  8
_2-2_IN_LINE
  6
Continuous
 62
     7
100
AcDbLine
 10
985.3823971022825
 20
314.0356353718775
 30
0.0
 11
985.4826461994264
 21
314.1809964136505
 31
0.0
  0
LINE
  5
156
330
22
100
AcDbEntity
  8
_2-2_IN_LINE
  6
Continuous
 62
     7
100
AcDbLine
 10
985.4826461994264
 20
314.1809964136505
 30
0.0
 11
985.5873455377434
 21
314.3234255944467
 31
0.0
  0
LINE
  5
157
330
22
100
AcDbEntity
  8
_2-2_IN_LINE
  6
Continuous
 62
     7
100
AcDbLine
 10
985.5873455377434
 20
314.3234255944467
 30
0.0
 11
985.6495531174219
 21
314.4047934416502
 31
0.0
  0
LINE
  5
158
330
22
100
AcDbEntity
  8
_2-2_IN_LINE
  6
Continuous
 62
     7
100
AcDbLine
 10
985.6495531174219
 20
314.4047934416502
 30
0.0
 11
985.7237693913576
 21
314.4994770344542
 31
0.0
  0
LINE
  5
159
330
22
100
AcDbEntity
  8
_2-2_IN_LINE
  6
Continuous
 62
     7
100
AcDbLine
 10
985.7237693913576
 20
314.4994770344542
 30
0.0
 11
985.8539943314623
 21
314.6601958283153
 31
0.0
  0
LINE
  5
15A
330
22
100
AcDbEntity
  8
_2-2_IN_LINE
  6
Continuous
 62
     7
100
AcDbLine
 10
985.8539943314623
 20
314.6601958283153
 30
0.0
 11
985.9868461506824
 21
314.8180625907057
 31
0.0
  0
LINE
  5
15B
330
22
100
AcDbEntity
  8
_2-2_IN_LINE
  6
Continuous
 62
     7
100
AcDbLine
 10
985.9868461506824
 20
314.8180625907057
 30
0.0
 11
986.1220442888111
 21
314.9734830841712
 31
0.0
  0
LINE
  5
15C
330
22
100
AcDbEntity
  8
_2-2_IN_LINE
  6
Continuous
 62
     7
100
AcDbLine
 10
986.1220442888111
 20
314.9734830841712
 30
0.0
 11
986.2593081856344
 21
315.1268630712602
 31
0.0
  0
LINE
  5
15D
330
22
100
AcDbEntity
  8
_2-2_IN_LINE
  6
Continuous
 62
     7
100
AcDbLine
 10
986.2593081856344
 20
315.1268630712602
 30
0.0
 11
986.3983572809422
 21
315.2786083145142
 31
0.0
  0
LINE
  5
15E
330
22
100
AcDbEntity
  8
_2-2_IN_LINE
  6
Continuous
 62
     7
100
AcDbLine
 10
986.3983572809422
 20
315.2786083145142
 30
0.0
 11
986.4797131788554
 21
315.3660314075214
 31
0.0
  0
LINE
  5
15F
330
22
100
AcDbEntity
  8
_2-2_IN_LINE
  6
Continuous
 62
     7
100
AcDbLine
 10
986.4797131788554
 20
315.3660314075214
 30
0.0
 11
986.5653482522692
 21
315.45710158192
 31
0.0
  0
LINE
  5
160
330
22
100
AcDbEntity
  8
_2-2_IN_LINE
  6
Continuous
 62
     7
100
AcDbLine
 10
986.5653482522692
 20
315.45710158192
 30
0.0
 11
986.7145456105763
 21
315.6128033307536
 31
0.0
  0
LINE
  5
161
330
22
100
AcDbEntity
  8
_2-2_IN_LINE
  6
Continuous
 62
     7
100
AcDbLine
 10
986.7145456105763
 20
315.6128033307536
 30
0.0
 11
986.8662958241475
 21
315.7661493091527
 31
0.0
  0
LINE
  5
162
330
22
100
AcDbEntity
  8
_2-2_IN_LINE
  6
Continuous
 62
     7
100
AcDbLine
 10
986.8662958241475
 20
315.7661493091527
 30
0.0
 11
987.0212849036498
 21
315.916336948072
 31
0.0
  0
LINE
  5
163
330
22
100
AcDbEntity
  8
_2-2_IN_LINE
  6
Continuous
 62
     7
100
AcDbLine
 10
987.0212849036498
 20
315.916336948072
 30
0.0
 11
987.1801988597562
 21
316.0625636784707
 31
0.0
  0
LINE
  5
164
330
22
100
AcDbEntity
  8
_2-2_IN_LINE
  6
Continuous
 62
     7
100
AcDbLine
 10
987.1801988597562
 20
316.0625636784707
 30
0.0
 11
987.3437237031383
 21
316.2040269312988
 31
0.0
  0
LINE
  5
165
330
22
100
AcDbEntity
  8
_2-2_IN_LINE
  6
Continuous
 62
     7
100
AcDbLine
 10
987.3437237031383
 20
316.2040269312988
 30
0.0
 11
987.4409511447256
 21
316.2835767385795
 31
0.0
  0
LINE
  5
166
330
22
100
AcDbEntity
  8
_2-2_IN_LINE
  6
Continuous
 62
     7
100
AcDbLine
 10
987.4409511447256
 20
316.2835767385795
 30
0.0
 11
987.5286048442674
 21
316.3523020910756
 31
0.0
  0
LINE
  5
167
330
22
100
AcDbEntity
  8
_2-2_IN_LINE
  6
Continuous
 62
     7
100
AcDbLine
 10
987.5286048442674
 20
316.3523020910756
 30
0.0
 11
987.6832179441873
 21
316.4665148588742
 31
0.0
  0
LINE
  5
168
330
22
100
AcDbEntity
  8
_2-2_IN_LINE
  6
Continuous
 62
     7
100
AcDbLine
 10
987.6832179441873
 20
316.4665148588742
 30
0.0
 11
987.8421830873776
 21
316.5744875478058
 31
0.0
  0
LINE
  5
169
330
22
100
AcDbEntity
  8
_2-2_IN_LINE
  6
Continuous
 62
     7
100
AcDbLine
 10
987.8421830873776
 20
316.5744875478058
 30
0.0
 11
988.0054297446042
 21
316.675262779232
 31
0.0
  0
LINE
  5
16A
330
22
100
AcDbEntity
  8
_2-2_IN_LINE
  6
Continuous
 62
     7
100
AcDbLine
 10
988.0054297446042
 20
316.675262779232
 30
0.0
 11
988.1728873866348
 21
316.7678831745192
 31
0.0
  0
LINE
  5
16B
330
22
100
AcDbEntity
  8
_2-2_IN_LINE
  6
Continuous
 62
     7
100
AcDbLine
 10
988.1728873866348
 20
316.7678831745192
 30
0.0
 11
988.3444854842387
 21
316.8513913550291
 31
0.0
  0
LINE
  5
16C
330
22
100
AcDbEntity
  8
_2-2_IN_LINE
  6
Continuous
 62
     7
100
AcDbLine
 10
988.3444854842387
 20
316.8513913550291
 30
0.0
 11
988.4458817454074
 21
316.8952736259516
 31
0.0
  0
LINE
  5
16D
330
22
100
AcDbEntity
  8
_2-2_IN_LINE
  6
Continuous
 62
     7
100
AcDbLine
 10
988.4458817454074
 20
316.8952736259516
 30
0.0
 11
988.559787238147
 21
316.9398023392145
 31
0.0
  0
LINE
  5
16E
330
22
100
AcDbEntity
  8
_2-2_IN_LINE
  6
Continuous
 62
     7
100
AcDbLine
 10
988.559787238147
 20
316.9398023392145
 30
0.0
 11
988.7596756960009
 21
317.0071129676271
 31
0.0
  0
LINE
  5
16F
330
22
100
AcDbEntity
  8
_2-2_IN_LINE
  6
Continuous
 62
     7
100
AcDbLine
 10
988.7596756960009
 20
317.0071129676271
 30
0.0
 11
988.9633777948594
 21
317.0637165191269
 31
0.0
  0
LINE
  5
170
330
22
100
AcDbEntity
  8
_2-2_IN_LINE
  6
Continuous
 62
     7
100
AcDbLine
 10
988.9633777948594
 20
317.0637165191269
 30
0.0
 11
989.1701768716675
 21
317.1110913928564
 31
0.0
  0
LINE
  5
171
330
22
100
AcDbEntity
  8
_2-2_IN_LINE
  6
Continuous
 62
     7
100
AcDbLine
 10
989.1701768716675
 20
317.1110913928564
 30
0.0
 11
989.3793562633765
 21
317.1507159879669
 31
0.0
  0
LINE
  5
172
330
22
100
AcDbEntity
  8
_2-2_IN_LINE
  6
Continuous
 62
     7
100
AcDbLine
 10
989.3793562633765
 20
317.1507159879669
 30
0.0
 11
989.5901993069333
 21
317.1840687036009
 31
0.0
  0
LINE
  5
173
330
22
100
AcDbEntity
  8
_2-2_IN_LINE
  6
Continuous
 62
     7
100
AcDbLine
 10
989.5901993069333
 20
317.1840687036009
 30
0.0
 11
989.7129681549632
 21
317.2011220696353
 31
0.0
  0
LINE
  5
174
330
22
100
AcDbEntity
  8
_2-2_IN_LINE
  6
Continuous
 62
     7
100
AcDbLine
 10
989.7129681549632
 20
317.2011220696353
 30
0.0
 11
989.8614251250455
 21
317.2198390689036
 31
0.0
  0
LINE
  5
175
330
22
100
AcDbEntity
  8
_2-2_IN_LINE
  6
Continuous
 62
     7
100
AcDbLine
 10
989.8614251250455
 20
317.2198390689036
 30
0.0
 11
990.1177453903313
 21
317.246745829992
 31
0.0
  0
LINE
  5
176
330
22
100
AcDbEntity
  8
_2-2_IN_LINE
  6
Continuous
 62
     7
100
AcDbLine
 10
990.1177453903313
 20
317.246745829992
 30
0.0
 11
990.3741407189125
 21
317.2656040772912
 31
0.0
  0
LINE
  5
177
330
22
100
AcDbEntity
  8
_2-2_IN_LINE
  6
Continuous
 62
     7
100
AcDbLine
 10
990.3741407189125
 20
317.2656040772912
 30
0.0
 11
990.6301685555433
 21
317.2749501684788
 31
0.0
  0
LINE
  5
178
330
22
100
AcDbEntity
  8
_2-2_IN_LINE
  6
Continuous
 62
     7
100
AcDbLine
 10
990.6301685555433
 20
317.2749501684788
 30
0.0
 11
990.8853863449769
 21
317.2733204612323
 31
0.0
  0
LINE
  5
179
330
22
100
AcDbEntity
  8
_2-2_IN_LINE
  6
Continuous
 62
     7
100
AcDbLine
 10
990.8853863449769
 20
317.2733204612323
 30
0.0
 11
991.1393515319685
 21
317.259251313229
 31
0.0
  0
LINE
  5
17A
330
22
100
AcDbEntity
  8
_2-2_IN_LINE
  6
Continuous
 62
     7
100
AcDbLine
 10
991.1393515319685
 20
317.259251313229
 30
0.0
 11
991.285903008204
 21
317.2448147044482
 31
0.0
  0
LINE
  5
17B
330
22
100
AcDbEntity
  8
_2-2_IN_LINE
  6
Continuous
 62
     7
100
AcDbLine
 10
991.285903008204
 20
317.2448147044482
 30
0.0
 11
991.3932471997714
 21
317.2311249183631
 31
0.0
  0
LINE
  5
17C
330
22
100
AcDbEntity
  8
_2-2_IN_LINE
  6
Continuous
 62
     7
100
AcDbLine
 10
991.3932471997714
 20
317.2311249183631
 30
0.0
 11
991.5776972605407
 21
317.2021652871226
 31
0.0
  0
LINE
  5
17D
330
22
100
AcDbEntity
  8
_2-2_IN_LINE
  6
Continuous
 62
     7
100
AcDbLine
 10
991.5776972605407
 20
317.2021652871226
 30
0.0
 11
991.7616681179811
 21
317.1678498055834
 31
0.0
  0
LINE
  5
17E
330
22
100
AcDbEntity
  8
_2-2_IN_LINE
  6
Continuous
 62
     7
100
AcDbLine
 10
991.7616681179811
 20
317.1678498055834
 30
0.0
 11
991.9455241538388
 21
317.1298349795561
 31
0.0
  0
LINE
  5
17F
330
22
100
AcDbEntity
  8
_2-2_IN_LINE
  6
Continuous
 62
     7
100
AcDbLine
 10
991.9455241538388
 20
317.1298349795561
 30
0.0
 11
992.1296297498601
 21
317.0897773148508
 31
0.0
  0
LINE
  5
180
330
22
100
AcDbEntity
  8
_2-2_IN_LINE
  6
Continuous
 62
     7
100
AcDbLine
 10
992.1296297498601
 20
317.0897773148508
 30
0.0
 11
992.3143492877875
 21
317.0493333172735
 31
0.0
  0
LINE
  5
181
330
22
100
AcDbEntity
  8
_2-2_IN_LINE
  6
Continuous
 62
     7
100
AcDbLine
 10
992.3143492877875
 20
317.0493333172735
 30
0.0
 11
992.4219115133235
 21
317.0263515303881
 31
0.0
  0
LINE
  5
182
330
22
100
AcDbEntity
  8
_2-2_IN_LINE
  6
Continuous
 62
     7
100
AcDbLine
 10
992.4219115133235
 20
317.0263515303881
 30
0.0
 11
992.5440227446514
 21
317.0010778088894
 31
0.0
  0
LINE
  5
183
330
22
100
AcDbEntity
  8
_2-2_IN_LINE
  6
Continuous
 62
     7
100
AcDbLine
 10
992.5440227446514
 20
317.0010778088894
 30
0.0
 11
992.754820768215
 21
316.9577282926534
 31
0.0
  0
LINE
  5
184
330
22
100
AcDbEntity
  8
_2-2_IN_LINE
  6
Continuous
 62
     7
100
AcDbLine
 10
992.754820768215
 20
316.9577282926534
 30
0.0
 11
992.9645259920528
 21
316.9115951345052
 31
0.0
  0
LINE
  5
185
330
22
100
AcDbEntity
  8
_2-2_IN_LINE
  6
Continuous
 62
     7
100
AcDbLine
 10
992.9645259920528
 20
316.9115951345052
 30
0.0
 11
993.1714829413206
 21
316.859109092803
 31
0.0
  0
LINE
  5
186
330
22
100
AcDbEntity
  8
_2-2_IN_LINE
  6
Continuous
 62
     7
100
AcDbLine
 10
993.1714829413206
 20
316.859109092803
 30
0.0
 11
993.3740361411752
 21
316.7967009259028
 31
0.0
  0
LINE
  5
187
330
22
100
AcDbEntity
  8
_2-2_IN_LINE
  6
Continuous
 62
     7
100
AcDbLine
 10
993.3740361411752
 20
316.7967009259028
 30
0.0
 11
993.5705301167752
 21
316.7208013921694
 31
0.0
  0
LINE
  5
188
330
22
100
AcDbEntity
  8
_2-2_IN_LINE
  6
Continuous
 62
     7
100
AcDbLine
 10
993.5705301167752
 20
316.7208013921694
 30
0.0
 11
993.681067942896
 21
316.6691914515135
 31
0.0
  0
LINE
  5
189
330
22
100
AcDbEntity
  8
_2-2_IN_LINE
  6
Continuous
 62
     7
100
AcDbLine
 10
993.681067942896
 20
316.6691914515135
 30
0.0
 11
993.7803901740744
 21
316.6161059795885
 31
0.0
  0
LINE
  5
18A
330
22
100
AcDbEntity
  8
_2-2_IN_LINE
  6
Continuous
 62
     7
100
AcDbLine
 10
993.7803901740744
 20
316.6161059795885
 30
0.0
 11
993.9458140892655
 21
316.5128196984901
 31
0.0
  0
LINE
  5
18B
330
22
100
AcDbEntity
  8
_2-2_IN_LINE
  6
Continuous
 62
     7
100
AcDbLine
 10
993.9458140892655
 20
316.5128196984901
 30
0.0
 11
994.1038656606247
 21
316.396270066758
 31
0.0
  0
LINE
  5
18C
330
22
100
AcDbEntity
  8
_2-2_IN_LINE
  6
Continuous
 62
     7
100
AcDbLine
 10
994.1038656606247
 20
316.396270066758
 30
0.0
 11
994.2545407070417
 21
316.2683433934429
 31
0.0
  0
LINE
  5
18D
330
22
100
AcDbEntity
  8
_2-2_IN_LINE
  6
Continuous
 62
     7
100
AcDbLine
 10
994.2545407070417
 20
316.2683433934429
 30
0.0
 11
994.3978350474072
 21
316.1309259875961
 31
0.0
  0
LINE
  5
18E
330
22
100
AcDbEntity
  8
_2-2_IN_LINE
  6
Continuous
 62
     7
100
AcDbLine
 10
994.3978350474072
 20
316.1309259875961
 30
0.0
 11
994.5337445006124
 21
315.9859041582681
 31
0.0
  0
LINE
  5
18F
330
22
100
AcDbEntity
  8
_2-2_IN_LINE
  6
Continuous
 62
     7
100
AcDbLine
 10
994.5337445006124
 20
315.9859041582681
 30
0.0
 11
994.6091865805977
 21
315.8990504542689
 31
0.0
  0
LINE
  5
190
330
22
100
AcDbEntity
  8
_2-2_IN_LINE
  6
Continuous
 62
     7
100
AcDbLine
 10
994.6091865805977
 20
315.8990504542689
 30
0.0
 11
994.693481604969
 21
315.7964830662795
 31
0.0
  0
LINE
  5
191
330
22
100
AcDbEntity
  8
_2-2_IN_LINE
  6
Continuous
 62
     7
100
AcDbLine
 10
994.693481604969
 20
315.7964830662795
 30
0.0
 11
994.8316534642378
 21
315.6151980565422
 31
0.0
  0
LINE
  5
192
330
22
100
AcDbEntity
  8
_2-2_IN_LINE
  6
Continuous
 62
     7
100
AcDbLine
 10
994.8316534642378
 20
315.6151980565422
 30
0.0
 11
994.9617637312563
 21
315.4289733819232
 31
0.0
  0
LINE
  5
193
330
22
100
AcDbEntity
  8
_2-2_IN_LINE
  6
Continuous
 62
     7
100
AcDbLine
 10
994.9617637312563
 20
315.4289733819232
 30
0.0
 11
995.0849836332428
 21
315.2386073208331
 31
0.0
  0
LINE
  5
194
330
22
100
AcDbEntity
  8
_2-2_IN_LINE
  6
Continuous
 62
     7
100
AcDbLine
 10
995.0849836332428
 20
315.2386073208331
 30
0.0
 11
995.2024843974127
 21
315.0448981516897
 31
0.0
  0
LINE
  5
195
330
22
100
AcDbEntity
  8
_2-2_IN_LINE
  6
Continuous
 62
     7
100
AcDbLine
 10
995.2024843974127
 20
315.0448981516897
 30
0.0
 11
995.3154372509812
 21
314.8486441529062
 31
0.0
  0
LINE
  5
196
330
22
100
AcDbEntity
  8
_2-2_IN_LINE
  6
Continuous
 62
     7
100
AcDbLine
 10
995.3154372509812
 20
314.8486441529062
 30
0.0
 11
995.3793275778412
 21
314.7339653558774
 31
0.0
  0
LINE
  5
197
330
22
100
AcDbEntity
  8
_2-2_IN_LINE
  6
Continuous
 62
     7
100
AcDbLine
 10
995.3793275778412
 20
314.7339653558774
 30
0.0
 11
995.4465949453469
 21
314.6108987637408
 31
0.0
  0
LINE
  5
198
330
22
100
AcDbEntity
  8
_2-2_IN_LINE
  6
Continuous
 62
     7
100
AcDbLine
 10
995.4465949453469
 20
314.6108987637408
 30
0.0
 11
995.5605761865548
 21
314.3976920073723
 31
0.0
  0
LINE
  5
199
330
22
100
AcDbEntity
  8
_2-2_IN_LINE
  6
Continuous
 62
     7
100
AcDbLine
 10
995.5605761865548
 20
314.3976920073723
 30
0.0
 11
995.6726907349196
 21
314.1833950078362
 31
0.0
  0
LINE
  5
19A
330
22
100
AcDbEntity
  8
_2-2_IN_LINE
  6
Continuous
 62
     7
100
AcDbLine
 10
995.6726907349196
 20
314.1833950078362
 30
0.0
 11
995.7837073441666
 21
313.9682457467629
 31
0.0
  0
LINE
  5
19B
330
22
100
AcDbEntity
  8
_2-2_IN_LINE
  6
Continuous
 62
     7
100
AcDbLine
 10
995.7837073441666
 20
313.9682457467629
 30
0.0
 11
995.8943947680245
 21
313.7524822057808
 31
0.0
  0
LINE
  5
19C
330
22
100
AcDbEntity
  8
_2-2_IN_LINE
  6
Continuous
 62
     7
100
AcDbLine
 10
995.8943947680245
 20
313.7524822057808
 30
0.0
 11
996.0055217602223
 21
313.5363423665248
 31
0.0
  0
LINE
  5
19D
330
22
100
AcDbEntity
  8
_2-2_IN_LINE
  6
Continuous
 62
     7
100
AcDbLine
 10
996.0055217602223
 20
313.5363423665248
 30
0.0
 11
996.0704797548531
 21
313.4109026170253
 31
0.0
  0
LINE
  5
19E
330
22
100
AcDbEntity
  8
_2-2_IN_LINE
  6
Continuous
 62
     7
100
AcDbLine
 10
996.0704797548531
 20
313.4109026170253
 30
0.0
 11
996.1588932090284
 21
313.2420744340183
 31
0.0
  0
LINE
  5
19F
330
22
100
AcDbEntity
  8
_2-2_IN_LINE
  6
Continuous
 62
     7
100
AcDbLine
 10
996.1588932090284
 20
313.2420744340183
 30
0.0
 11
996.3153980249591
 21
312.9526786681308
 31
0.0
  0
LINE
  5
1A0
330
22
100
AcDbEntity
  8
_2-2_IN_LINE
  6
Continuous
 62
     7
100
AcDbLine
 10
996.3153980249591
 20
312.9526786681308
 30
0.0
 11
996.4796196181863
 21
312.6679704918806
 31
0.0
  0
LINE
  5
1A1
330
22
100
AcDbEntity
  8
_2-2_IN_LINE
  6
Continuous
 62
     7
100
AcDbLine
 10
996.4796196181863
 20
312.6679704918806
 30
0.0
 11
996.6545436055721
 21
312.3909170638612
 31
0.0
  0
LINE
  5
1A2
330
22
100
AcDbEntity
  8
_2-2_IN_LINE
  6
Continuous
 62
     7
100
AcDbLine
 10
996.6545436055721
 20
312.3909170638612
 30
0.0
 11
996.8431556039718
 21
312.1244855426752
 31
0.0
  0
LINE
  5
1A3
330
22
100
AcDbEntity
  8
_2-2_IN_LINE
  6
Continuous
 62
     7
100
AcDbLine
 10
996.8431556039718
 20
312.1244855426752
 30
0.0
 11
997.0484412302472
 21
311.8716430869185
 31
0.0
  0
LINE
  5
1A4
330
22
100
AcDbEntity
  8
_2-2_IN_LINE
  6
Continuous
 62
     7
100
AcDbLine
 10
997.0484412302472
 20
311.8716430869185
 30
0.0
 11
997.1763232380736
 21
311.7323901871381
 31
0.0
  0
LINE
  5
1A5
330
22
100
AcDbEntity
  8
_2-2_IN_LINE
  6
Continuous
 62
     7
100
AcDbLine
 10
997.1763232380736
 20
311.7323901871381
 30
0.0
 11
997.2225384103785
 21
311.6852851812277
 31
0.0
  0
LINE
  5
1A6
330
22
100
AcDbEntity
  8
_2-2_IN_LINE
  6
Continuous
 62
     7
100
AcDbLine
 10
997.2225384103785
 20
311.6852851812277
 30
0.0
 11
997.3042376719183
 21
311.6059400861908
 31
0.0
  0
LINE
  5
1A7
330
22
100
AcDbEntity
  8
_2-2_IN_LINE
  6
Continuous
 62
     7
100
AcDbLine
 10
997.3042376719183
 20
311.6059400861908
 30
0.0
 11
997.3884400642488
 21
311.5291399767496
 31
0.0
  0
LINE
  5
1A8
330
22
100
AcDbEntity
  8
_2-2_IN_LINE
  6
Continuous
 62
     7
100
AcDbLine
 10
997.3884400642488
 20
311.5291399767496
 30
0.0
 11
997.4750860397444
 21
311.4550910734246
 31
0.0
  0
LINE
  5
1A9
330
22
100
AcDbEntity
  8
_2-2_IN_LINE
  6
Continuous
 62
     7
100
AcDbLine
 10
997.4750860397444
 20
311.4550910734246
 30
0.0
 11
997.5641160507803
 21
311.3839995967337
 31
0.0
  0
LINE
  5
1AA
330
22
100
AcDbEntity
  8
_2-2_IN_LINE
  6
Continuous
 62
     7
100
AcDbLine
 10
997.5641160507803
 20
311.3839995967337
 30
0.0
 11
997.6554705497312
 21
311.3160717672039
 31
0.0
  0
LINE
  5
1AB
330
22
100
AcDbEntity
  8
_2-2_IN_LINE
  6
Continuous
 62
     7
100
AcDbLine
 10
997.6554705497312
 20
311.3160717672039
 30
0.0
 11
997.7094977746263
 21
311.2782044708146
 31
0.0
  0
LINE
  5
1AC
330
22
100
AcDbEntity
  8
_2-2_IN_LINE
  6
Continuous
 62
     7
100
AcDbLine
 10
997.7094977746263
 20
311.2782044708146
 30
0.0
 11
997.7990991857144
 21
311.2189117804368
 31
0.0
  0
LINE
  5
1AD
330
22
100
AcDbEntity
  8
_2-2_IN_LINE
  6
Continuous
 62
     7
100
AcDbLine
 10
997.7990991857144
 20
311.2189117804368
 30
0.0
 11
997.9572906298848
 21
311.1224985162412
 31
0.0
  0
LINE
  5
1AE
330
22
100
AcDbEntity
  8
_2-2_IN_LINE
  6
Continuous
 62
     7
100
AcDbLine
 10
997.9572906298848
 20
311.1224985162412
 30
0.0
 11
998.1187019169167
 21
311.03117010717
 31
0.0
  0
LINE
  5
1AF
330
22
100
AcDbEntity
  8
_2-2_IN_LINE
  6
Continuous
 62
     7
100
AcDbLine
 10
998.1187019169167
 20
311.03117010717
 30
0.0
 11
998.2816218652098
 21
310.9422793987196
 31
0.0
  0
LINE
  5
1B0
330
22
100
AcDbEntity
  8
_2-2_IN_LINE
  6
Continuous
 62
     7
100
AcDbLine
 10
998.2816218652098
 20
310.9422793987196
 30
0.0
 11
998.4443392931634
 21
310.8531792363837
 31
0.0
  0
LINE
  5
1B1
330
22
100
AcDbEntity
  8
_2-2_IN_LINE
  6
Continuous
 62
     7
100
AcDbLine
 10
998.4443392931634
 20
310.8531792363837
 30
0.0
 11
998.6051430191752
 21
310.7612224656586
 31
0.0
  0
LINE
  5
1B2
330
22
100
AcDbEntity
  8
_2-2_IN_LINE
  6
Continuous
 62
     7
100
AcDbLine
 10
998.6051430191752
 20
310.7612224656586
 30
0.0
 11
998.6968580275016
 21
310.7055355241468
 31
0.0
  0
LINE
  5
1B3
330
22
100
AcDbEntity
  8
_2-2_IN_LINE
  6
Continuous
 62
     7
100
AcDbLine
 10
998.6968580275016
 20
310.7055355241468
 30
0.0
 11
998.7892690198998
 21
310.6461707542743
 31
0.0
  0
LINE
  5
1B4
330
22
100
AcDbEntity
  8
_2-2_IN_LINE
  6
Continuous
 62
     7
100
AcDbLine
 10
998.7892690198998
 20
310.6461707542743
 30
0.0
 11
998.9452120220542
 21
310.5386689925067
 31
0.0
  0
LINE
  5
1B5
330
22
100
AcDbEntity
  8
_2-2_IN_LINE
  6
Continuous
 62
     7
100
AcDbLine
 10
998.9452120220542
 20
310.5386689925067
 30
0.0
 11
999.0975345642755
 21
310.4256858025392
 31
0.0
  0
LINE
  5
1B6
330
22
100
AcDbEntity
  8
_2-2_IN_LINE
  6
Continuous
 62
     7
100
AcDbLine
 10
999.0975345642755
 20
310.4256858025392
 30
0.0
 11
999.2470110530108
 21
310.3084257501436
 31
0.0
  0
LINE
  5
1B7
330
22
100
AcDbEntity
  8
_2-2_IN_LINE
  6
Continuous
 62
     7
100
AcDbLine
 10
999.2470110530108
 20
310.3084257501436
 30
0.0
 11
999.3944158947044
 21
310.1880934010941
 31
0.0
  0
LINE
  5
1B8
330
22
100
AcDbEntity
  8
_2-2_IN_LINE
  6
Continuous
 62
     7
100
AcDbLine
 10
999.3944158947044
 20
310.1880934010941
 30
0.0
 11
999.5405234958001
 21
310.0658933211692
 31
0.0
  0
LINE
  5
1B9
330
22
100
AcDbEntity
  8
_2-2_IN_LINE
  6
Continuous
 62
     7
100
AcDbLine
 10
999.5405234958001
 20
310.0658933211692
 30
0.0
 11
999.6249766652033
 21
309.9946361420766
 31
0.0
  0
LINE
  5
1BA
330
22
100
AcDbEntity
  8
_2-2_IN_LINE
  6
Continuous
 62
     7
100
AcDbLine
 10
999.6249766652033
 20
309.9946361420766
 30
0.0
 11
999.7308185288217
 21
309.9051555581773
 31
0.0
  0
LINE
  5
1BB
330
22
100
AcDbEntity
  8
_2-2_IN_LINE
  6
Continuous
 62
     7
100
AcDbLine
 10
999.7308185288217
 20
309.9051555581773
 30
0.0
 11
999.912391307132
 21
309.750072504381
 31
0.0
  0
LINE
  5
1BC
330
22
100
AcDbEntity
  8
_2-2_IN_LINE
  6
Continuous
 62
     7
100
AcDbLine
 10
999.912391307132
 20
309.750072504381
 30
0.0
 11
1000.091565959757
 21
309.5926833361395
 31
0.0
  0
LINE
  5
1BD
330
22
100
AcDbEntity
  8
_2-2_IN_LINE
  6
Continuous
 62
     7
100
AcDbLine
 10
1000.091565959757
 20
309.5926833361395
 30
0.0
 11
1000.266898085981
 21
309.4314931382141
 31
0.0
  0
LINE
  5
1BE
330
22
100
AcDbEntity
  8
_2-2_IN_LINE
  6
Continuous
 62
     7
100
AcDbLine
 10
1000.266898085981
 20
309.4314931382141
 30
0.0
 11
1000.436943285091
 21
309.2650069953637
 31
0.0
  0
LINE
  5
1BF
330
22
100
AcDbEntity
  8
_2-2_IN_LINE
  6
Continuous
 62
     7
100
AcDbLine
 10
1000.436943285091
 20
309.2650069953637
 30
0.0
 11
1000.600257156369
 21
309.0917299923544
 31
0.0
  0
LINE
  5
1C0
330
22
100
AcDbEntity
  8
_2-2_IN_LINE
  6
Continuous
 62
     7
100
AcDbLine
 10
1000.600257156369
 20
309.0917299923544
 30
0.0
 11
1000.691325738308
 21
308.9875286841433
 31
0.0
  0
LINE
  5
1C1
330
22
100
AcDbEntity
  8
_2-2_IN_LINE
  6
Continuous
 62
     7
100
AcDbLine
 10
1000.691325738308
 20
308.9875286841433
 30
0.0
 11
1000.742985010945
 21
308.9254414086221
 31
0.0
  0
LINE
  5
1C2
330
22
100
AcDbEntity
  8
_2-2_IN_LINE
  6
Continuous
 62
     7
100
AcDbLine
 10
1000.742985010945
 20
308.9254414086221
 30
0.0
 11
1000.82931012125
 21
308.8159686687831
 31
0.0
  0
LINE
  5
1C3
330
22
100
AcDbEntity
  8
_2-2_IN_LINE
  6
Continuous
 62
     7
100
AcDbLine
 10
1000.82931012125
 20
308.8159686687831
 30
0.0
 11
1000.911669993384
 21
308.7034674110245
 31
0.0
  0
LINE
  5
1C4
330
22
100
AcDbEntity
  8
_2-2_IN_LINE
  6
Continuous
 62
     7
100
AcDbLine
 10
1000.911669993384
 20
308.7034674110245
 30
0.0
 11
1000.989490684128
 21
308.5879864783132
 31
0.0
  0
LINE
  5
1C5
330
22
100
AcDbEntity
  8
_2-2_IN_LINE
  6
Continuous
 62
     7
100
AcDbLine
 10
1000.989490684128
 20
308.5879864783132
 30
0.0
 11
1001.062198250273
 21
308.4695747136207
 31
0.0
  0
LINE
  5
1C6
330
22
100
AcDbEntity
  8
_2-2_IN_LINE
  6
Continuous
 62
     7
100
AcDbLine
 10
1001.062198250273
 20
308.4695747136207
 30
0.0
 11
1001.129218748602
 21
308.3482809599158
 31
0.0
  0
LINE
  5
1C7
330
22
100
AcDbEntity
  8
_2-2_IN_LINE
  6
Continuous
 62
     7
100
AcDbLine
 10
1001.129218748602
 20
308.3482809599158
 30
0.0
 11
1001.165258659689
 21
308.2766293020754
 31
0.0
  0
LINE
  5
1C8
330
22
100
AcDbEntity
  8
_2-2_IN_LINE
  6
Continuous
 62
     7
100
AcDbLine
 10
1001.165258659689
 20
308.2766293020754
 30
0.0
 11
1001.211910513046
 21
308.1751534110239
 31
0.0
  0
LINE
  5
1C9
330
22
100
AcDbEntity
  8
_2-2_IN_LINE
  6
Continuous
 62
     7
100
AcDbLine
 10
1001.211910513046
 20
308.1751534110239
 30
0.0
 11
1001.283397271397
 21
307.996389031974
 31
0.0
  0
LINE
  5
1CA
330
22
100
AcDbEntity
  8
_2-2_IN_LINE
  6
Continuous
 62
     7
100
AcDbLine
 10
1001.283397271397
 20
307.996389031974
 30
0.0
 11
1001.345348610021
 21
307.8135686138248
 31
0.0
  0
LINE
  5
1CB
330
22
100
AcDbEntity
  8
_2-2_IN_LINE
  6
Continuous
 62
     7
100
AcDbLine
 10
1001.345348610021
 20
307.8135686138248
 30
0.0
 11
1001.39984649829
 21
307.6275777546343
 31
0.0
  0
LINE
  5
1CC
330
22
100
AcDbEntity
  8
_2-2_IN_LINE
  6
Continuous
 62
     7
100
AcDbLine
 10
1001.39984649829
 20
307.6275777546343
 30
0.0
 11
1001.448972905576
 21
307.4393020524607
 31
0.0
  0
LINE
  5
1CD
330
22
100
AcDbEntity
  8
_2-2_IN_LINE
  6
Continuous
 62
     7
100
AcDbLine
 10
1001.448972905576
 20
307.4393020524607
 30
0.0
 11
1001.494809801254
 21
307.2496271053555
 31
0.0
  0
LINE
  5
1CE
330
22
100
AcDbEntity
  8
_2-2_IN_LINE
  6
Continuous
 62
     7
100
AcDbLine
 10
1001.494809801254
 20
307.2496271053555
 30
0.0
 11
1001.520708350724
 21
307.1393234736943
 31
0.0
  0
LINE
  5
1CF
330
22
100
AcDbEntity
  8
_2-2_IN_LINE
  6
Continuous
 62
     7
100
AcDbLine
 10
932.7728324881091
 20
307.1393234736943
 30
0.0
 11
990.7728324881089
 21
307.1393234736943
 31
0.0
  0
LINE
  5
1D0
330
22
100
AcDbEntity
  8
_2-2_IN_LINE
  6
Continuous
 62
     7
100
AcDbLine
 10
932.7728324881091
 20
302.1393234736943
 30
0.0
 11
1352.197988841771
 21
302.1393234736943
 31
0.0
  0
ARC
  5
1D1
330
22
100
AcDbEntity
  8
_2-2_IN_LINE
  6
Continuous
 62
     7
100
AcDbCircle
 10
946.1228118887436
 20
695.0309608106236
 30
0.0
 40
263.1585738551681
100
AcDbArc
 50
267.4191094852076
 51
272.5808905147927
  0
ARC
  5
1D2
330
22
100
AcDbEntity
  8
_2-2_IN_LINE
  6
Continuous
 62
     7
100
AcDbCircle
 10
941.2729408859295
 20
383.8806552462856
 30
0.0
 40
58.87549801408354
100
AcDbArc
 50
81.69915814303839
 51
98.30104756609115
  0
LINE
  5
1D3
330
22
100
AcDbEntity
  8
_2-2_IN_LINE
  6
Continuous
 62
     7
100
AcDbLine
 10
932.7728324881091
 20
442.1393234736942
 30
0.0
 11
932.7728324881091
 21
302.1393234736943
 31
0.0
  0
LINE
  5
1D4
330
22
100
AcDbEntity
  8
_2-2_IN_LINE
  6
Continuous
 62
     7
100
AcDbLine
 10
937.772832488109
 20
421.4281769943826
 30
0.0
 11
932.7728324881091
 21
421.4281769943826
 31
0.0
  0
LINE
  5
1D5
330
22
100
AcDbEntity
  8
_2-2_IN_LINE
  6
Continuous
 62
     7
100
AcDbLine
 10
937.772832488109
 20
402.6084735460252
 30
0.0
 11
937.772832488109
 21
410.7961379837896
 31
0.0
  0
LINE
  5
1D6
330
22
100
AcDbEntity
  8
_2-2_IN_LINE
  6
Continuous
 62
     7
100
AcDbLine
 10
937.772832488109
 20
414.7961379837928
 30
0.0
 11
937.772832488109
 21
421.4281769943826
 31
0.0
  0
ARC
  5
1D7
330
22
100
AcDbEntity
  8
_2-2_IN_LINE
  6
Continuous
 62
     7
100
AcDbCircle
 10
846.1728416433823
 20
511.2393295772116
 30
0.0
 40
0.6000000238418579
100
AcDbArc
 50
270.0000025044769
 51
359.999991348576
  0
LINE
  5
1D8
330
22
100
AcDbEntity
  8
_2-2_IN_LINE
  6
Continuous
 62
     7
100
AcDbLine
 10
846.1728416433823
 20
510.6393234736955
 30
0.0
 11
811.3728385916271
 21
510.6393234736955
 31
0.0
  0
ARC
  5
1D9
330
22
100
AcDbEntity
  8
_2-2_IN_LINE
  6
Continuous
 62
     7
100
AcDbCircle
 10
811.3728385916271
 20
511.2393295772116
 30
0.0
 40
0.6000000238418579
100
AcDbArc
 50
180.0
 51
270.0000025044782
  0
LINE
  5
1DA
330
22
100
AcDbEntity
  8
_2-2_IN_LINE
  6
Continuous
 62
     7
100
AcDbLine
 10
782.7728324881116
 20
473.2007667129992
 30
0.0
 11
932.7728324881091
 21
442.1393234736942
 31
0.0
  0
LINE
  5
1DB
330
22
100
AcDbEntity
  8
_2-2_IN_LINE
  6
Continuous
 62
     7
100
AcDbLine
 10
846.7728401175042
 20
677.1393234736944
 30
0.0
 11
846.7728401175042
 21
511.2393295772116
 31
0.0
  0
LINE
  5
1DC
330
22
100
AcDbEntity
  8
_2-2_IN_LINE
  6
Continuous
 62
     7
100
AcDbLine
 10
810.7728324881088
 20
511.2393295772116
 30
0.0
 11
810.7728324881088
 21
677.1393234736944
 31
0.0
  0
ARC
  5
1DD
330
22
100
AcDbEntity
  8
_2-4_OUT_LINE
  6
Continuous
 62
     2
100
AcDbCircle
 10
962.3152435873462
 20
386.4203112406526
 30
0.0
 40
40.94990658347301
100
AcDbArc
 50
96.08726347554025
 51
120.7181456872268
  0
LINE
  5
1DE
330
22
100
AcDbEntity
  8
_4-2_
  6
Continuous
 62
     7
100
AcDbLine
 10
849.4322661207318
 20
896.8268234736942
 30
0.0
 11
849.4322661207318
 21
1048.389323473694
 31
0.0
  0
LINE
  5
1DF
330
22
100
AcDbEntity
  8
_4-2_
  6
Continuous
 62
     7
100
AcDbLine
 10
852.5572661207318
 20
898.3893234736942
 30
0.0
 11
852.5572661207318
 21
1048.389323473694
 31
0.0
  0
LINE
  5
1E0
330
22
100
AcDbEntity
  8
_4-4_
  6
Continuous
 62
     2
100
AcDbLine
 10
849.4322661207318
 20
1048.389323473694
 30
0.0
 11
1096.307266120732
 21
1048.389323473694
 31
0.0
  0
LINE
  5
1E1
330
22
100
AcDbEntity
  8
_4-2_
  6
Continuous
 62
     7
100
AcDbLine
 10
882.5572661207319
 20
896.8268234736942
 30
0.0
 11
882.5572661207319
 21
895.2643234736942
 31
0.0
  0
LINE
  5
1E2
330
22
100
AcDbEntity
  8
_4-2_
  6
Continuous
 62
     7
100
AcDbLine
 10
882.5572661207319
 20
896.8268234736942
 30
0.0
 11
885.2635955075584
 21
895.2643234736942
 31
0.0
  0
LINE
  5
1E3
330
22
100
AcDbEntity
  8
_4-2_
  6
Continuous
 62
     7
100
AcDbLine
 10
849.4322661207318
 20
896.8268234736942
 30
0.0
 11
882.5572661207319
 21
896.8268234736942
 31
0.0
  0
LINE
  5
1E4
330
22
100
AcDbEntity
  8
_4-2_
  6
Continuous
 62
     7
100
AcDbLine
 10
852.5572661207318
 20
898.3893234736942
 30
0.0
 11
1096.307266120732
 21
898.3893234736942
 31
0.0
  0
LINE
  5
1E5
330
22
100
AcDbEntity
  8
_4-D_
  6
Continuous
 62
     4
100
AcDbLine
 10
1089.771510560149
 20
895.2643234736964
 30
0.0
 11
1092.896510560148
 21
898.3893234736942
 31
0.0
  0
LINE
  5
1E6
330
22
100
AcDbEntity
  8
_4-D_
  6
Continuous
 62
     4
100
AcDbLine
 10
1085.352093177731
 20
895.2643234736942
 30
0.0
 11
1088.477093177732
 21
898.3893234736964
 31
0.0
  0
LINE
  5
1E7
330
22
100
AcDbEntity
  8
_4-D_
  6
Continuous
 62
     4
100
AcDbLine
 10
1080.932675795321
 20
895.2643234736964
 30
0.0
 11
1084.057675795321
 21
898.3893234736964
 31
0.0
  0
LINE
  5
1E8
330
22
100
AcDbEntity
  8
_4-D_
  6
Continuous
 62
     4
100
AcDbLine
 10
1076.513258412905
 20
895.2643234736964
 30
0.0
 11
1079.638258412907
 21
898.3893234736964
 31
0.0
  0
LINE
  5
1E9
330
22
100
AcDbEntity
  8
_4-D_
  6
Continuous
 62
     4
100
AcDbLine
 10
1072.093841030488
 20
895.2643234736964
 30
0.0
 11
1075.21884103049
 21
898.3893234736964
 31
0.0
  0
LINE
  5
1EA
330
22
100
AcDbEntity
  8
_4-D_
  6
Continuous
 62
     4
100
AcDbLine
 10
1067.674423648071
 20
895.2643234736964
 30
0.0
 11
1070.799423648071
 21
898.3893234736964
 31
0.0
  0
LINE
  5
1EB
330
22
100
AcDbEntity
  8
_4-D_
  6
Continuous
 62
     4
100
AcDbLine
 10
1063.255006265655
 20
895.2643234736942
 30
0.0
 11
1066.380006265654
 21
898.3893234736942
 31
0.0
  0
LINE
  5
1EC
330
22
100
AcDbEntity
  8
_4-D_
  6
Continuous
 62
     4
100
AcDbLine
 10
1058.835588883238
 20
895.2643234736964
 30
0.0
 11
1061.960588883237
 21
898.3893234736942
 31
0.0
  0
LINE
  5
1ED
330
22
100
AcDbEntity
  8
_4-D_
  6
Continuous
 62
     4
100
AcDbLine
 10
1054.416171500822
 20
895.2643234736964
 30
0.0
 11
1057.541171500822
 21
898.3893234736942
 31
0.0
  0
LINE
  5
1EE
330
22
100
AcDbEntity
  8
_4-D_
  6
Continuous
 62
     4
100
AcDbLine
 10
1049.99675411841
 20
895.2643234736942
 30
0.0
 11
1053.12175411841
 21
898.3893234736964
 31
0.0
  0
LINE
  5
1EF
330
22
100
AcDbEntity
  8
_4-D_
  6
Continuous
 62
     4
100
AcDbLine
 10
1045.577336735994
 20
895.2643234736964
 30
0.0
 11
1048.702336735994
 21
898.3893234736964
 31
0.0
  0
LINE
  5
1F0
330
22
100
AcDbEntity
  8
_4-D_
  6
Continuous
 62
     4
100
AcDbLine
 10
1041.157919353577
 20
895.2643234736964
 30
0.0
 11
1044.282919353579
 21
898.3893234736964
 31
0.0
  0
LINE
  5
1F1
330
22
100
AcDbEntity
  8
_4-D_
  6
Continuous
 62
     4
100
AcDbLine
 10
1036.73850197116
 20
895.2643234736964
 30
0.0
 11
1039.86350197116
 21
898.3893234736964
 31
0.0
  0
LINE
  5
1F2
330
22
100
AcDbEntity
  8
_4-D_
  6
Continuous
 62
     4
100
AcDbLine
 10
1032.319084588744
 20
895.2643234736964
 30
0.0
 11
1035.444084588744
 21
898.3893234736964
 31
0.0
  0
LINE
  5
1F3
330
22
100
AcDbEntity
  8
_4-D_
  6
Continuous
 62
     4
100
AcDbLine
 10
1027.899667206327
 20
895.2643234736964
 30
0.0
 11
1031.024667206326
 21
898.3893234736942
 31
0.0
  0
LINE
  5
1F4
330
22
100
AcDbEntity
  8
_4-D_
  6
Continuous
 62
     4
100
AcDbLine
 10
1023.48024982391
 20
895.2643234736964
 30
0.0
 11
1026.60524982391
 21
898.3893234736942
 31
0.0
  0
LINE
  5
1F5
330
22
100
AcDbEntity
  8
_4-D_
  6
Continuous
 62
     4
100
AcDbLine
 10
1019.060832441494
 20
895.2643234736964
 30
0.0
 11
1022.185832441494
 21
898.3893234736942
 31
0.0
  0
LINE
  5
1F6
330
22
100
AcDbEntity
  8
_4-D_
  6
Continuous
 62
     4
100
AcDbLine
 10
1014.641415059083
 20
895.2643234736964
 30
0.0
 11
1017.766415059083
 21
898.3893234736964
 31
0.0
  0
LINE
  5
1F7
330
22
100
AcDbEntity
  8
_4-D_
  6
Continuous
 62
     4
100
AcDbLine
 10
1010.221997676666
 20
895.2643234736964
 30
0.0
 11
1013.346997676666
 21
898.3893234736964
 31
0.0
  0
LINE
  5
1F8
330
22
100
AcDbEntity
  8
_4-D_
  6
Continuous
 62
     4
100
AcDbLine
 10
1005.802580294249
 20
895.2643234736964
 30
0.0
 11
1008.927580294251
 21
898.3893234736964
 31
0.0
  0
LINE
  5
1F9
330
22
100
AcDbEntity
  8
_4-D_
  6
Continuous
 62
     4
100
AcDbLine
 10
1001.383162911833
 20
895.2643234736964
 30
0.0
 11
1004.508162911832
 21
898.3893234736964
 31
0.0
  0
LINE
  5
1FA
330
22
100
AcDbEntity
  8
_4-D_
  6
Continuous
 62
     4
100
AcDbLine
 10
996.9637455294162
 20
895.2643234736942
 30
0.0
 11
1000.088745529415
 21
898.3893234736942
 31
0.0
  0
LINE
  5
1FB
330
22
100
AcDbEntity
  8
_4-D_
  6
Continuous
 62
     4
100
AcDbLine
 10
992.5443281469997
 20
895.2643234736964
 30
0.0
 11
995.6693281469997
 21
898.3893234736942
 31
0.0
  0
LINE
  5
1FC
330
22
100
AcDbEntity
  8
_4-D_
  6
Continuous
 62
     4
100
AcDbLine
 10
988.1249107645828
 20
895.2643234736964
 30
0.0
 11
991.2499107645816
 21
898.3893234736942
 31
0.0
  0
LINE
  5
1FD
330
22
100
AcDbEntity
  8
_4-D_
  6
Continuous
 62
     4
100
AcDbLine
 10
983.7054933821708
 20
895.2643234736942
 30
0.0
 11
986.8304933821718
 21
898.3893234736964
 31
0.0
  0
LINE
  5
1FE
330
22
100
AcDbEntity
  8
_4-D_
  6
Continuous
 62
     4
100
AcDbLine
 10
979.2860759997552
 20
895.2643234736964
 30
0.0
 11
982.4110759997552
 21
898.3893234736964
 31
0.0
  0
LINE
  5
1FF
330
22
100
AcDbEntity
  8
_4-D_
  6
Continuous
 62
     4
100
AcDbLine
 10
974.8666586173383
 20
895.2643234736964
 30
0.0
 11
977.9916586173406
 21
898.3893234736964
 31
0.0
  0
LINE
  5
200
330
22
100
AcDbEntity
  8
_4-D_
  6
Continuous
 62
     4
100
AcDbLine
 10
966.0278238525052
 20
895.2643234736964
 30
0.0
 11
969.1528238525052
 21
898.3893234736964
 31
0.0
  0
LINE
  5
201
330
22
100
AcDbEntity
  8
_4-D_
  6
Continuous
 62
     4
100
AcDbLine
 10
961.6084064700883
 20
895.2643234736942
 30
0.0
 11
964.7334064700883
 21
898.3893234736942
 31
0.0
  0
LINE
  5
202
330
22
100
AcDbEntity
  8
_4-D_
  6
Continuous
 62
     4
100
AcDbLine
 10
957.1889890876716
 20
895.2643234736964
 30
0.0
 11
960.3139890876716
 21
898.3893234736964
 31
0.0
  0
LINE
  5
203
330
22
100
AcDbEntity
  8
_4-D_
  6
Continuous
 62
     4
100
AcDbLine
 10
952.7695717052553
 20
895.2643234736964
 30
0.0
 11
955.8945717052541
 21
898.3893234736942
 31
0.0
  0
LINE
  5
204
330
22
100
AcDbEntity
  8
_4-D_
  6
Continuous
 62
     4
100
AcDbLine
 10
948.350154322844
 20
895.2643234736942
 30
0.0
 11
951.475154322844
 21
898.3893234736964
 31
0.0
  0
LINE
  5
205
330
22
100
AcDbEntity
  8
_4-D_
  6
Continuous
 62
     4
100
AcDbLine
 10
943.9307369404275
 20
895.2643234736964
 30
0.0
 11
947.0557369404275
 21
898.3893234736964
 31
0.0
  0
LINE
  5
206
330
22
100
AcDbEntity
  8
_4-D_
  6
Continuous
 62
     4
100
AcDbLine
 10
939.5113195580108
 20
895.2643234736964
 30
0.0
 11
942.6363195580131
 21
898.3893234736964
 31
0.0
  0
LINE
  5
207
330
22
100
AcDbEntity
  8
_4-D_
  6
Continuous
 62
     4
100
AcDbLine
 10
935.0919021755967
 20
895.2643234736964
 30
0.0
 11
938.2169021755942
 21
898.3893234736942
 31
0.0
  0
LINE
  5
208
330
22
100
AcDbEntity
  8
_4-D_
  6
Continuous
 62
     4
100
AcDbLine
 10
930.6724847931777
 20
895.2643234736964
 30
0.0
 11
933.7974847931777
 21
898.3893234736964
 31
0.0
  0
LINE
  5
209
330
22
100
AcDbEntity
  8
_4-D_
  6
Continuous
 62
     4
100
AcDbLine
 10
926.253067410761
 20
895.2643234736964
 30
0.0
 11
929.378067410761
 21
898.3893234736964
 31
0.0
  0
LINE
  5
20A
330
22
100
AcDbEntity
  8
_4-D_
  6
Continuous
 62
     4
100
AcDbLine
 10
921.833650028344
 20
895.2643234736964
 30
0.0
 11
924.9586500283431
 21
898.3893234736942
 31
0.0
  0
LINE
  5
20B
330
22
100
AcDbEntity
  8
_4-D_
  6
Continuous
 62
     4
100
AcDbLine
 10
917.414232645933
 20
895.2643234736942
 30
0.0
 11
920.539232645933
 21
898.3893234736964
 31
0.0
  0
LINE
  5
20C
330
22
100
AcDbEntity
  8
_4-D_
  6
Continuous
 62
     4
100
AcDbLine
 10
912.9948152635165
 20
895.2643234736964
 30
0.0
 11
916.1198152635165
 21
898.3893234736964
 31
0.0
  0
LINE
  5
20D
330
22
100
AcDbEntity
  8
_4-D_
  6
Continuous
 62
     4
100
AcDbLine
 10
908.5753978811
 20
895.2643234736964
 30
0.0
 11
911.7003978811
 21
898.3893234736964
 31
0.0
  0
LINE
  5
20E
330
22
100
AcDbEntity
  8
_4-D_
  6
Continuous
 62
     4
100
AcDbLine
 10
904.1559804986833
 20
895.2643234736964
 30
0.0
 11
907.2809804986857
 21
898.3893234736964
 31
0.0
  0
LINE
  5
20F
330
22
100
AcDbEntity
  8
_4-D_
  6
Continuous
 62
     4
100
AcDbLine
 10
899.7365631162663
 20
895.2643234736942
 30
0.0
 11
902.8615631162663
 21
898.3893234736964
 31
0.0
  0
LINE
  5
210
330
22
100
AcDbEntity
  8
_4-D_
  6
Continuous
 62
     4
100
AcDbLine
 10
895.31714573385
 20
895.2643234736964
 30
0.0
 11
898.44214573385
 21
898.3893234736964
 31
0.0
  0
LINE
  5
211
330
22
100
AcDbEntity
  8
_4-D_
  6
Continuous
 62
     4
100
AcDbLine
 10
890.8977283514332
 20
895.2643234736964
 30
0.0
 11
894.0227283514332
 21
898.3893234736964
 31
0.0
  0
LINE
  5
212
330
22
100
AcDbEntity
  8
_4-D_
  6
Continuous
 62
     4
100
AcDbLine
 10
886.4783109690165
 20
895.2643234736964
 30
0.0
 11
889.6033109690153
 21
898.3893234736942
 31
0.0
  0
LINE
  5
213
330
22
100
AcDbEntity
  8
_4-D_
  6
Continuous
 62
     4
100
AcDbLine
 10
883.2318959012274
 20
896.4373257883231
 30
0.0
 11
885.1838935866
 21
898.3893234736942
 31
0.0
  0
LINE
  5
214
330
22
100
AcDbEntity
  8
_4-D_
  6
Continuous
 62
     4
100
AcDbLine
 10
879.2019762041876
 20
896.8268234736942
 30
0.0
 11
880.7644762041888
 21
898.3893234736964
 31
0.0
  0
LINE
  5
215
330
22
100
AcDbEntity
  8
_4-D_
  6
Continuous
 62
     4
100
AcDbLine
 10
874.7825588217711
 20
896.8268234736942
 30
0.0
 11
876.345058821772
 21
898.3893234736964
 31
0.0
  0
LINE
  5
216
330
22
100
AcDbEntity
  8
_4-D_
  6
Continuous
 62
     4
100
AcDbLine
 10
870.3631414393544
 20
896.8268234736942
 30
0.0
 11
871.9256414393553
 21
898.3893234736942
 31
0.0
  0
LINE
  5
217
330
22
100
AcDbEntity
  8
_4-D_
  6
Continuous
 62
     4
100
AcDbLine
 10
865.9437240569378
 20
896.8268234736942
 30
0.0
 11
867.5062240569388
 21
898.3893234736964
 31
0.0
  0
LINE
  5
218
330
22
100
AcDbEntity
  8
_4-D_
  6
Continuous
 62
     4
100
AcDbLine
 10
861.5243066745222
 20
896.8268234736942
 30
0.0
 11
863.0868066745222
 21
898.3893234736964
 31
0.0
  0
LINE
  5
219
330
22
100
AcDbEntity
  8
_4-D_
  6
Continuous
 62
     4
100
AcDbLine
 10
857.1048892921055
 20
896.8268234736964
 30
0.0
 11
858.6673892921055
 21
898.3893234736964
 31
0.0
  0
LINE
  5
21A
330
22
100
AcDbEntity
  8
_4-D_
  6
Continuous
 62
     4
100
AcDbLine
 10
852.685471909689
 20
896.8268234736964
 30
0.0
 11
854.2479719096876
 21
898.3893234736942
 31
0.0
  0
LINE
  5
21B
330
22
100
AcDbEntity
  8
_4-D_
  6
Continuous
 62
     4
100
AcDbLine
 10
849.4322661207309
 20
897.9930350671484
 30
0.0
 11
852.5572661207318
 21
901.1180350671507
 31
0.0
  0
LINE
  5
21C
330
22
100
AcDbEntity
  8
_4-D_
  6
Continuous
 62
     4
100
AcDbLine
 10
849.4322661207318
 20
902.4124524495672
 30
0.0
 11
852.5572661207318
 21
905.537452449565
 31
0.0
  0
LINE
  5
21D
330
22
100
AcDbEntity
  8
_4-D_
  6
Continuous
 62
     4
100
AcDbLine
 10
849.4322661207341
 20
906.8318698319838
 30
0.0
 11
852.5572661207309
 21
909.9568698319815
 31
0.0
  0
LINE
  5
21E
330
22
100
AcDbEntity
  8
_4-D_
  6
Continuous
 62
     4
100
AcDbLine
 10
849.4322661207341
 20
911.2512872144007
 30
0.0
 11
852.5572661207318
 21
914.3762872144007
 31
0.0
  0
LINE
  5
21F
330
22
100
AcDbEntity
  8
_4-D_
  6
Continuous
 62
     4
100
AcDbLine
 10
849.4322661207318
 20
915.6707045968174
 30
0.0
 11
852.5572661207318
 21
918.7957045968174
 31
0.0
  0
LINE
  5
220
330
22
100
AcDbEntity
  8
_4-D_
  6
Continuous
 62
     4
100
AcDbLine
 10
849.4322661207318
 20
920.0901219792338
 30
0.0
 11
852.5572661207318
 21
923.2151219792315
 31
0.0
  0
LINE
  5
221
330
22
100
AcDbEntity
  8
_4-D_
  6
Continuous
 62
     4
100
AcDbLine
 10
849.4322661207318
 20
924.5095393616484
 30
0.0
 11
852.5572661207341
 21
927.6345393616507
 31
0.0
  0
LINE
  5
222
330
22
100
AcDbEntity
  8
_4-D_
  6
Continuous
 62
     4
100
AcDbLine
 10
849.4322661207309
 20
928.9289567440651
 30
0.0
 11
852.5572661207318
 21
932.0539567440672
 31
0.0
  0
LINE
  5
223
330
22
100
AcDbEntity
  8
_4-D_
  6
Continuous
 62
     4
100
AcDbLine
 10
849.4322661207318
 20
933.3483741264794
 30
0.0
 11
852.5572661207318
 21
936.4733741264794
 31
0.0
  0
LINE
  5
224
330
22
100
AcDbEntity
  8
_4-D_
  6
Continuous
 62
     4
100
AcDbLine
 10
849.4322661207318
 20
937.7677915088961
 30
0.0
 11
852.5572661207318
 21
940.8927915088938
 31
0.0
  0
LINE
  5
225
330
22
100
AcDbEntity
  8
_4-D_
  6
Continuous
 62
     4
100
AcDbLine
 10
849.4322661207341
 20
942.1872088913127
 30
0.0
 11
852.5572661207318
 21
945.3122088913104
 31
0.0
  0
LINE
  5
226
330
22
100
AcDbEntity
  8
_4-D_
  6
Continuous
 62
     4
100
AcDbLine
 10
849.4322661207318
 20
946.6066262737296
 30
0.0
 11
852.5572661207318
 21
949.7316262737296
 31
0.0
  0
LINE
  5
227
330
22
100
AcDbEntity
  8
_4-D_
  6
Continuous
 62
     4
100
AcDbLine
 10
849.4322661207318
 20
951.0260436561459
 30
0.0
 11
852.5572661207318
 21
954.151043656144
 31
0.0
  0
LINE
  5
228
330
22
100
AcDbEntity
  8
_4-D_
  6
Continuous
 62
     4
100
AcDbLine
 10
849.4322661207318
 20
955.4454610385629
 30
0.0
 11
852.5572661207309
 21
958.5704610385603
 31
0.0
  0
LINE
  5
229
330
22
100
AcDbEntity
  8
_4-D_
  6
Continuous
 62
     4
100
AcDbLine
 10
849.4322661207318
 20
959.8648784209773
 30
0.0
 11
852.5572661207318
 21
962.9898784209794
 31
0.0
  0
LINE
  5
22A
330
22
100
AcDbEntity
  8
_4-D_
  6
Continuous
 62
     4
100
AcDbLine
 10
849.4322661207309
 20
964.2842958033869
 30
0.0
 11
852.5572661207318
 21
967.4092958033892
 31
0.0
  0
LINE
  5
22B
330
22
100
AcDbEntity
  8
_4-D_
  6
Continuous
 62
     4
100
AcDbLine
 10
849.4322661207318
 20
968.703713185806
 30
0.0
 11
852.5572661207318
 21
971.828713185806
 31
0.0
  0
LINE
  5
22C
330
22
100
AcDbEntity
  8
_4-D_
  6
Continuous
 62
     4
100
AcDbLine
 10
849.4322661207341
 20
973.1231305682227
 30
0.0
 11
852.5572661207318
 21
976.2481305682227
 31
0.0
  0
LINE
  5
22D
330
22
100
AcDbEntity
  8
_4-D_
  6
Continuous
 62
     4
100
AcDbLine
 10
849.4322661207318
 20
977.5425479506392
 30
0.0
 11
852.5572661207318
 21
980.6675479506392
 31
0.0
  0
LINE
  5
22E
330
22
100
AcDbEntity
  8
_4-D_
  6
Continuous
 62
     4
100
AcDbLine
 10
849.4322661207318
 20
981.961965333056
 30
0.0
 11
852.5572661207318
 21
985.086965333056
 31
0.0
  0
LINE
  5
22F
330
22
100
AcDbEntity
  8
_4-D_
  6
Continuous
 62
     4
100
AcDbLine
 10
849.4322661207318
 20
986.3813827154725
 30
0.0
 11
852.5572661207318
 21
989.5063827154704
 31
0.0
  0
LINE
  5
230
330
22
100
AcDbEntity
  8
_4-D_
  6
Continuous
 62
     4
100
AcDbLine
 10
849.4322661207318
 20
990.8008000978892
 30
0.0
 11
852.5572661207309
 21
993.9258000978869
 31
0.0
  0
LINE
  5
231
330
22
100
AcDbEntity
  8
_4-D_
  6
Continuous
 62
     4
100
AcDbLine
 10
849.4322661207318
 20
995.2202174803035
 30
0.0
 11
852.5572661207318
 21
998.3452174803058
 31
0.0
  0
LINE
  5
232
330
22
100
AcDbEntity
  8
_4-D_
  6
Continuous
 62
     4
100
AcDbLine
 10
849.4322661207309
 20
999.6396348627158
 30
0.0
 11
852.5572661207318
 21
1002.764634862716
 31
0.0
  0
LINE
  5
233
330
22
100
AcDbEntity
  8
_4-D_
  6
Continuous
 62
     4
100
AcDbLine
 10
849.4322661207318
 20
1004.059052245135
 30
0.0
 11
852.5572661207318
 21
1007.184052245134
 31
0.0
  0
LINE
  5
234
330
22
100
AcDbEntity
  8
_4-D_
  6
Continuous
 62
     4
100
AcDbLine
 10
849.4322661207341
 20
1008.478469627551
 30
0.0
 11
852.5572661207318
 21
1011.603469627551
 31
0.0
  0
LINE
  5
235
330
22
100
AcDbEntity
  8
_4-D_
  6
Continuous
 62
     4
100
AcDbLine
 10
849.4322661207318
 20
1012.897887009968
 30
0.0
 11
852.5572661207318
 21
1016.022887009968
 31
0.0
  0
LINE
  5
236
330
22
100
AcDbEntity
  8
_4-D_
  6
Continuous
 62
     4
100
AcDbLine
 10
849.4322661207318
 20
1017.317304392385
 30
0.0
 11
852.5572661207318
 21
1020.442304392382
 31
0.0
  0
LINE
  5
237
330
22
100
AcDbEntity
  8
_4-D_
  6
Continuous
 62
     4
100
AcDbLine
 10
849.4322661207318
 20
1021.736721774801
 30
0.0
 11
852.5572661207309
 21
1024.861721774799
 31
0.0
  0
LINE
  5
238
330
22
100
AcDbEntity
  8
_4-D_
  6
Continuous
 62
     4
100
AcDbLine
 10
849.4322661207318
 20
1026.156139157216
 30
0.0
 11
852.5572661207318
 21
1029.281139157218
 31
0.0
  0
LINE
  5
239
330
22
100
AcDbEntity
  8
_4-D_
  6
Continuous
 62
     4
100
AcDbLine
 10
849.4322661207309
 20
1030.575556539625
 30
0.0
 11
852.5572661207318
 21
1033.700556539625
 31
0.0
  0
LINE
  5
23A
330
22
100
AcDbEntity
  8
_4-D_
  6
Continuous
 62
     4
100
AcDbLine
 10
849.4322661207318
 20
1034.994973922044
 30
0.0
 11
852.5572661207341
 21
1038.119973922045
 31
0.0
  0
LINE
  5
23B
330
22
100
AcDbEntity
  8
_4-D_
  6
Continuous
 62
     4
100
AcDbLine
 10
849.4322661207341
 20
1039.414391304461
 30
0.0
 11
852.5572661207318
 21
1042.539391304461
 31
0.0
  0
LINE
  5
23C
330
22
100
AcDbEntity
  8
_4-D_
  6
Continuous
 62
     4
100
AcDbLine
 10
849.4322661207341
 20
1043.833808686878
 30
0.0
 11
852.5572661207318
 21
1046.958808686878
 31
0.0
  0
LINE
  5
23D
330
22
100
AcDbEntity
  8
_4-D_
  6
Continuous
 62
     4
100
AcDbLine
 10
849.4322661207318
 20
1048.253226069294
 30
0.0
 11
849.5683635251328
 21
1048.389323473694
 31
0.0
  0
LINE
  5
23E
330
22
100
AcDbEntity
  8
_4-2_
  6
Continuous
 62
     7
100
AcDbLine
 10
846.3072661207318
 20
892.1393234736942
 30
0.0
 11
1352.197988841771
 21
892.1393234736942
 31
0.0
  0
LINE
  5
23F
330
22
100
AcDbEntity
  8
_4-A_
  6
Continuous
 62
     7
100
AcDbLine
 10
849.4322661207318
 20
1059.348666311604
 30
0.0
 11
857.8028269729541
 21
1073.8469029955
 31
0.0
  0
LINE
  5
240
330
22
100
AcDbEntity
  8
_4-A_
  6
Continuous
 62
     7
100
AcDbLine
 10
850.2082906528382
 20
1126.148130530942
 30
0.0
 11
865.9706617196333
 21
1098.8469029955
 31
0.0
  0
LINE
  5
241
330
22
100
AcDbEntity
  8
_4-A_
  6
Continuous
 62
     7
100
AcDbLine
 10
894.4670429093594
 20
1073.8469029955
 30
0.0
 11
857.8028269729541
 21
1073.8469029955
 31
0.0
  0
LINE
  5
242
330
22
100
AcDbEntity
  8
_4-A_
  6
Continuous
 62
     7
100
AcDbLine
 10
894.4670429093594
 20
1098.8469029955
 30
0.0
 11
865.9706617196333
 21
1098.8469029955
 31
0.0
  0
LINE
  5
243
330
22
100
AcDbEntity
  8
_4-A_
  6
Continuous
 62
     7
100
AcDbLine
 10
894.4670429093594
 20
1123.8469029955
 30
0.0
 11
863.6294724119592
 21
1123.8469029955
 31
0.0
  0
TEXT
  5
244
330
22
100
AcDbEntity
  8
_4-A_
 62
     7
100
AcDbText
 10
904.4670429093594
 20
1066.3469029955
 30
0.0
 40
15.0
  1
塩ビシート 接着工法
100
AcDbText
  0
TEXT
  5
245
330
22
100
AcDbEntity
  8
_4-A_
 62
     7
100
AcDbText
 10
904.4670429093594
 20
1091.3469029955
 30
0.0
 40
15.0
  1
Ｋ－８（ホルダー内、ロンシーラントＬ充填）
100
AcDbText
  0
TEXT
  5
246
330
22
100
AcDbEntity
  8
_4-A_
 62
     7
100
AcDbText
 10
904.4670429093594
 20
1116.3469029955
 30
0.0
 40
15.0
  1
ロンシーラントＳ
100
AcDbText
  0
LINE
  5
247
330
22
100
AcDbEntity
  8
_4-D_
  6
Continuous
 62
     4
100
AcDbLine
 10
972.3072661207321
 20
897.1243483595058
 30
0.0
 11
973.5722412349218
 21
898.3893234736942
 31
0.0
  0
LINE
  5
248
330
22
100
AcDbEntity
  8
_4-E_
  6
Continuous
 62
     4
100
AcDbLine
 10
1016.149736288285
 20
898.3893234736964
 30
0.0
 11
1096.307266120732
 21
978.5468533061417
 31
0.0
  0
LINE
  5
249
330
22
100
AcDbEntity
  8
_4-E_
  6
Continuous
 62
     4
100
AcDbLine
 10
852.5572661207318
 20
934.1189019779411
 30
0.0
 11
966.827687616486
 21
1048.389323473694
 31
0.0
  0
LINE
  5
24A
330
22
100
AcDbEntity
  8
_4-E_
  6
Continuous
 62
     4
100
AcDbLine
 10
852.5572661207318
 20
927.0478341660744
 30
0.0
 11
973.8987554283516
 21
1048.389323473694
 31
0.0
  0
LINE
  5
24B
330
22
100
AcDbEntity
  8
_4-E_
  6
Continuous
 62
     4
100
AcDbLine
 10
852.5572661207318
 20
919.9767663542102
 30
0.0
 11
980.9698232402183
 21
1048.389323473694
 31
0.0
  0
POINT
  5
24C
330
22
100
AcDbEntity
  8
_4-3_
 62
     3
100
AcDbPoint
 10
836.9306889642952
 20
1167.209153261261
 30
0.0
  0
POINT
  5
24D
330
22
100
AcDbEntity
  8
_4-3_
 62
     3
100
AcDbPoint
 10
831.7295786639327
 20
1160.220161295147
 30
0.0
  0
POINT
  5
24E
330
22
100
AcDbEntity
  8
_4-3_
 62
     3
100
AcDbPoint
 10
824.2529826071596
 20
1166.233945079942
 30
0.0
  0
POINT
  5
24F
330
22
100
AcDbEntity
  8
_4-3_
 62
     3
100
AcDbPoint
 10
805.7240271621161
 20
1164.93366750485
 30
0.0
  0
POINT
  5
250
330
22
100
AcDbEntity
  8
_4-3_
 62
     3
100
AcDbPoint
 10
813.2006232188869
 20
1168.346896139463
 30
0.0
  0
POINT
  5
251
330
22
100
AcDbEntity
  8
_4-3_
 62
     3
100
AcDbPoint
 10
796.1344800458198
 20
1171.435055380303
 30
0.0
  0
LINE
  5
252
330
22
100
AcDbEntity
  8
_4-9_
  6
Continuous
 62
     4
100
AcDbLine
 10
837.0735541918794
 20
1169.963287521478
 30
0.0
 11
839.2493208359985
 21
1169.737022720111
 31
0.0
  0
LINE
  5
253
330
22
100
AcDbEntity
  8
_4-9_
  6
Continuous
 62
     4
100
AcDbLine
 10
836.9765835627219
 20
1169.030816102569
 30
0.0
 11
839.1523502068412
 21
1168.804551301205
 31
0.0
  0
LINE
  5
254
330
22
100
AcDbEntity
  8
_4-9_
  6
Continuous
 62
     4
100
AcDbLine
 10
824.5237193917795
 20
1173.153495624438
 30
0.0
 11
839.443262094311
 21
1171.60196555793
 31
0.0
  0
LINE
  5
255
330
22
100
AcDbEntity
  8
_4-9_
  6
Continuous
 62
     4
100
AcDbLine
 10
840.3757335132207
 20
1171.504994928771
 30
0.0
 11
862.066659344639
 21
1169.249287480568
 31
0.0
  0
LINE
  5
256
330
22
100
AcDbEntity
  8
_4-9_
  6
Continuous
 62
     4
100
AcDbLine
 10
836.9765845491576
 20
1169.030825588159
 30
0.0
 11
837.0735561647494
 21
1169.963306492655
 31
0.0
  0
LINE
  5
257
330
22
100
AcDbEntity
  8
_4-9_
  6
Continuous
 62
     4
100
AcDbLine
 10
840.1817942277794
 20
1169.640071062134
 30
0.0
 11
840.3757335132207
 21
1171.504994928771
 31
0.0
  0
LINE
  5
258
330
22
100
AcDbEntity
  8
_4-9_
  6
Continuous
 62
     4
100
AcDbLine
 10
826.4085751348648
 20
1170.129826051937
 30
0.0
 11
826.5055467504554
 21
1171.062306956436
 31
0.0
  0
LINE
  5
259
330
22
100
AcDbEntity
  8
_4-9_
  6
Continuous
 62
     4
100
AcDbLine
 10
824.3297801063386
 20
1171.288571757803
 30
0.0
 11
824.5237193917795
 21
1173.153495624438
 31
0.0
  0
LINE
  5
25A
330
22
100
AcDbEntity
  8
_4-9_
  6
Continuous
 62
     4
100
AcDbLine
 10
824.2328075043074
 20
1170.356081367712
 30
0.0
 11
826.4085741484269
 21
1170.129816566348
 31
0.0
  0
LINE
  5
25B
330
22
100
AcDbEntity
  8
_4-9_
  6
Continuous
 62
     4
100
AcDbLine
 10
824.329778133465
 20
1171.288552786621
 30
0.0
 11
826.5055447775853
 21
1171.062287985254
 31
0.0
  0
LINE
  5
25C
330
22
100
AcDbEntity
  8
_4-9_
  6
Continuous
 62
     4
100
AcDbLine
 10
823.3973086874289
 20
1171.385542386957
 30
0.0
 11
823.5912479728698
 21
1173.250466253595
 31
0.0
  0
LINE
  5
25D
330
22
100
AcDbEntity
  8
_4-9_
  6
Continuous
 62
     4
100
AcDbLine
 10
839.2493228088699
 20
1169.737041691292
 30
0.0
 11
839.443262094311
 21
1171.60196555793
 31
0.0
  0
LINE
  5
25E
330
22
100
AcDbEntity
  8
_4-9_
  6
Continuous
 62
     4
100
AcDbLine
 10
862.0572403715264
 20
1154.639342547183
 30
0.0
 11
856.9322708891037
 21
1154.639342547183
 31
0.0
  0
LINE
  5
25F
330
22
100
AcDbEntity
  8
_4-9_
  6
Continuous
 62
     4
100
AcDbLine
 10
863.1822708891037
 20
1170.264342547183
 30
0.0
 11
863.1822708891037
 21
1145.264323473694
 31
0.0
  0
LINE
  5
260
330
22
100
AcDbEntity
  8
_4-9_
  6
Continuous
 62
     4
100
AcDbLine
 10
856.9322708891037
 20
1155.764334917788
 30
0.0
 11
856.9322708891037
 21
1154.639342547183
 31
0.0
  0
LINE
  5
261
330
22
100
AcDbEntity
  8
_4-9_
  6
Continuous
 62
     4
100
AcDbLine
 10
862.0572403715264
 20
1169.25974202228
 30
0.0
 11
862.0572403715264
 21
1155.764334917788
 31
0.0
  0
LINE
  5
262
330
22
100
AcDbEntity
  8
_4-9_
  6
Continuous
 62
     4
100
AcDbLine
 10
862.0572403715264
 20
1155.764334917788
 30
0.0
 11
856.9322708891037
 21
1155.764334917788
 31
0.0
  0
LINE
  5
263
330
22
100
AcDbEntity
  8
_4-9_
  6
Continuous
 62
     4
100
AcDbLine
 10
862.0572403715264
 20
1154.639342547183
 30
0.0
 11
862.0572403715264
 21
1145.264323473694
 31
0.0
  0
ARC
  5
264
330
22
100
AcDbEntity
  8
_4-9_
  6
Continuous
 62
     4
100
AcDbCircle
 10
824.3298081205491
 20
1171.28855061603
 30
0.0
 40
0.9375
100
AcDbArc
 50
174.0625118587527
 51
264.0634206439569
  0
ARC
  5
265
330
22
100
AcDbEntity
  8
_4-9_
  6
Continuous
 62
     4
100
AcDbCircle
 10
839.2493561552178
 20
1169.737017870669
 30
0.0
 40
0.9375
100
AcDbArc
 50
264.0633660024417
 51
354.0630543182195
  0
LINE
  5
266
330
22
100
AcDbEntity
  8
_4-9_
  6
Continuous
 62
     4
100
AcDbLine
 10
786.9322708891037
 20
1177.062748324634
 30
0.0
 11
823.5912479728698
 21
1173.250466253595
 31
0.0
  0
POINT
  5
267
330
22
100
AcDbEntity
  8
_4-3_
 62
     3
100
AcDbPoint
 10
844.7541583726136
 20
1162.67184688737
 30
0.0
  0
POINT
  5
268
330
22
100
AcDbEntity
  8
_4-3_
 62
     3
100
AcDbPoint
 10
853.7947489939336
 20
1158.994318499036
 30
0.0
  0
POINT
  5
269
330
22
100
AcDbEntity
  8
_4-3_
 62
     3
100
AcDbPoint
 10
858.6981201783792
 20
1165.889684227162
 30
0.0
  0
ARC
  5
26A
330
22
100
AcDbEntity
  8
_4-2_
  6
Continuous
 62
     7
100
AcDbCircle
 10
854.6510032461286
 20
1312.696596809274
 30
0.0
 40
164.4741086594801
100
AcDbArc
 50
267.4191094852076
 51
272.5808905147927
  0
ARC
  5
26B
330
22
100
AcDbEntity
  8
_4-2_
  6
Continuous
 62
     7
100
AcDbCircle
 10
864.7712730577552
 20
1119.814940828042
 30
0.0
 40
25.59369161467063
100
AcDbArc
 50
96.08726347554025
 51
120.7181456872268
  0
ARC
  5
26C
330
22
100
AcDbEntity
  8
_4-2_
  6
Continuous
 62
     7
100
AcDbCircle
 10
851.6198338693698
 20
1118.227655831564
 30
0.0
 40
36.79718625880221
100
AcDbArc
 50
81.69915814303839
 51
98.30104756609115
  0
LINE
  5
26D
330
22
100
AcDbEntity
  8
_4-D_
  6
Continuous
 62
     4
100
AcDbLine
 10
847.2447661207318
 20
1147.72958750747
 30
0.0
 11
847.8785895945099
 21
1148.363410981249
 31
0.0
  0
LINE
  5
26E
330
22
100
AcDbEntity
  8
_4-D_
  6
Continuous
 62
     4
100
AcDbLine
 10
850.4028771365517
 20
1142.048863758456
 30
0.0
 11
856.5879067431728
 21
1148.23389336508
 31
0.0
  0
LINE
  5
26F
330
22
100
AcDbEntity
  8
_4-D_
  6
Continuous
 62
     4
100
AcDbLine
 10
856.9613522838132
 20
1144.187921523304
 30
0.0
 11
861.1233160533833
 21
1148.349885292874
 31
0.0
  0
LINE
  5
270
330
22
100
AcDbEntity
  8
_4-D_
  6
Continuous
 62
     4
100
AcDbLine
 10
848.2220366263698
 20
1144.287440630693
 30
0.0
 11
852.1757114435137
 21
1148.241115447837
 31
0.0
  0
LINE
  5
271
330
22
100
AcDbEntity
  8
_4-D_
  6
Continuous
 62
     4
100
AcDbLine
 10
846.3072661207318
 20
1148.389323473694
 30
0.0
 11
862.0572403715325
 21
1154.639323473694
 31
0.0
  0
LINE
  5
272
330
22
100
AcDbEntity
  8
_4-D_
  6
Continuous
 62
     4
100
AcDbLine
 10
862.0572403715325
 20
1148.389323473694
 30
0.0
 11
846.3072661207318
 21
1154.639323473694
 31
0.0
  0
LINE
  5
273
330
22
100
AcDbEntity
  8
_4-9_
  6
Continuous
 62
     4
100
AcDbLine
 10
863.1822708891037
 20
1145.264323473694
 30
0.0
 11
862.0572403715264
 21
1145.264323473694
 31
0.0
  0
LINE
  5
274
330
22
100
AcDbEntity
  8
_4-9_
  6
Continuous
 62
     4
100
AcDbLine
 10
788.0572368611398
 20
1178.076818751006
 30
0.0
 11
863.1822353391612
 21
1170.264334400172
 31
0.0
  0
LINE
  5
275
330
22
100
AcDbEntity
  8
_4-9_
  6
Continuous
 62
     4
100
AcDbLine
 10
786.9322708891037
 20
1184.326823473694
 30
0.0
 11
786.9322708891037
 21
1177.062748324634
 31
0.0
  0
LINE
  5
276
330
22
100
AcDbEntity
  8
_4-9_
  6
Continuous
 62
     4
100
AcDbLine
 10
788.0572251127363
 20
1178.076823473694
 30
0.0
 11
788.0572251127363
 21
1184.326823473694
 31
0.0
  0
LINE
  5
277
330
22
100
AcDbEntity
  8
_4-2_
  6
Continuous
 62
     7
100
AcDbLine
 10
846.3072661207318
 20
1154.639323473694
 30
0.0
 11
846.3072661207318
 21
892.1393234736942
 31
0.0
  0
ARC
  5
278
330
22
100
AcDbEntity
  8
_4-6_
  6
Continuous
 62
     2
100
AcDbCircle
 10
851.5807192457339
 20
1141.825132230006
 30
0.0
 40
0.1173425
100
AcDbArc
 50
355.0659180000001
 51
125.411952
  0
LINE
  5
279
330
22
100
AcDbEntity
  8
_4-6_
  6
Continuous
 62
     2
100
AcDbLine
 10
850.8883369680063
 20
1131.514159997174
 30
0.0
 11
850.8851988235097
 21
1140.207124267887
 31
0.0
  0
LINE
  5
27A
330
22
100
AcDbEntity
  8
_4-6_
  6
Continuous
 62
     2
100
AcDbLine
 10
850.8883369680063
 20
1131.514159997174
 30
0.0
 11
848.8853911207332
 21
1129.338514034103
 31
0.0
  0
LINE
  5
27B
330
22
100
AcDbEntity
  8
_4-6_
  6
Continuous
 62
     2
100
AcDbLine
 10
848.8853911207332
 20
1125.779387855005
 30
0.0
 11
848.8853911207332
 21
1129.338514034103
 31
0.0
  0
LINE
  5
27C
330
22
100
AcDbEntity
  8
_4-6_
  6
Continuous
 62
     2
100
AcDbLine
 10
848.8853911207332
 20
1125.779387855005
 30
0.0
 11
849.9791411207331
 21
1125.779387855005
 31
0.0
  0
LINE
  5
27D
330
22
100
AcDbEntity
  8
_4-6_
  6
Continuous
 62
     2
100
AcDbLine
 10
849.9791411207331
 20
1128.905305904005
 30
0.0
 11
849.9791411207331
 21
1125.779387855005
 31
0.0
  0
LINE
  5
27E
330
22
100
AcDbEntity
  8
_4-6_
  6
Continuous
 62
     2
100
AcDbLine
 10
851.6978911851312
 20
1130.779387925223
 30
0.0
 11
849.9791411207331
 21
1128.905305904005
 31
0.0
  0
LINE
  5
27F
330
22
100
AcDbEntity
  8
_4-6_
  6
Continuous
 62
     2
100
AcDbLine
 10
851.697626120733
 20
1141.817595355006
 30
0.0
 11
851.6978911851312
 21
1130.779387925223
 31
0.0
  0
LINE
  5
280
330
22
100
AcDbEntity
  8
_4-6_
  6
Continuous
 62
     2
100
AcDbLine
 10
851.5161817457327
 20
1141.923495980005
 30
0.0
 11
850.8852908595203
 21
1141.553678439748
 31
0.0
  0
ARC
  5
281
330
22
100
AcDbEntity
  8
_4-7_
  6
Continuous
 62
     7
100
AcDbCircle
 10
851.6977586207339
 20
1136.299832542503
 30
0.0
 40
2.069499895611049
100
AcDbArc
 50
270.0
 51
90.0
  0
LINE
  5
282
330
22
100
AcDbEntity
  8
_4-7_
  6
Continuous
 62
     7
100
AcDbLine
 10
851.6977586207339
 20
1134.230332646892
 30
0.0
 11
851.6977586207339
 21
1138.369332438115
 31
0.0
  0
LINE
  5
283
330
22
100
AcDbEntity
  8
_4-6_
  6
Continuous
 62
     2
100
AcDbLine
 10
846.3072661207318
 20
1144.894705438694
 30
0.0
 11
850.8851988235097
 21
1140.207124267887
 31
0.0
  0
LINE
  5
284
330
22
100
AcDbEntity
  8
_4-6_
  6
Continuous
 62
     2
100
AcDbLine
 10
847.2447661207331
 20
1148.389323473694
 30
0.0
 11
846.3072661207318
 21
1148.389323473694
 31
0.0
  0
LINE
  5
285
330
22
100
AcDbEntity
  8
_4-6_
  6
Continuous
 62
     2
100
AcDbLine
 10
846.3072661207318
 20
1148.389323473694
 30
0.0
 11
846.3072661207318
 21
1144.894705438694
 31
0.0
  0
LINE
  5
286
330
22
100
AcDbEntity
  8
_4-6_
  6
Continuous
 62
     2
100
AcDbLine
 10
847.2447661207331
 20
1148.389323473694
 30
0.0
 11
847.2447661207331
 21
1145.290583749878
 31
0.0
  0
LINE
  5
287
330
22
100
AcDbEntity
  8
_4-6_
  6
Continuous
 62
     2
100
AcDbLine
 10
847.2447661207331
 20
1145.290583749878
 30
0.0
 11
850.8852908595203
 21
1141.553678439748
 31
0.0
  0
LINE
  5
288
330
22
100
AcDbEntity
  8
_4-2_
  6
Continuous
 62
     7
100
AcDbLine
 10
849.4322661207318
 20
1141.694856924124
 30
0.0
 11
846.3072661207318
 21
1141.694856924124
 31
0.0
  0
LINE
  5
289
330
22
100
AcDbEntity
  8
_4-7_
  6
Continuous
 62
     7
100
AcDbLine
 10
851.6977586207339
 20
1135.049832542505
 30
0.0
 11
846.3072661207318
 21
1135.049832542505
 31
0.0
  0
LINE
  5
28A
330
22
100
AcDbEntity
  8
_4-7_
  6
Continuous
 62
     7
100
AcDbLine
 10
851.6977586207339
 20
1137.549832542505
 30
0.0
 11
846.3072661207318
 21
1137.549832542505
 31
0.0
  0
LINE
  5
28B
330
22
100
AcDbEntity
  8
_4-2_
  6
Continuous
 62
     7
100
AcDbLine
 10
849.4322661207318
 20
1129.932542268901
 30
0.0
 11
849.4322661207318
 21
1135.049832542505
 31
0.0
  0
LINE
  5
28C
330
22
100
AcDbEntity
  8
_4-2_
  6
Continuous
 62
     7
100
AcDbLine
 10
849.4322661207318
 20
1137.549832542505
 30
0.0
 11
849.4322661207318
 21
1141.694856924124
 31
0.0
  0
LINE
  5
28D
330
22
100
AcDbEntity
  8
_4-4_
  6
Continuous
 62
     2
100
AcDbLine
 10
849.4322661207318
 20
1048.389323473694
 30
0.0
 11
849.4322661207318
 21
1125.779387855005
 31
0.0
  0
POINT
  5
28E
330
22
100
AcDbEntity
  8
_4-3_
 62
     3
100
AcDbPoint
 10
783.7818430824563
 20
1169.159569623894
 30
0.0
  0
POINT
  5
28F
330
22
100
AcDbEntity
  8
_4-3_
 62
     3
100
AcDbPoint
 10
780.8562185385016
 20
1177.773908558871
 30
0.0
  0
POINT
  5
290
330
22
100
AcDbEntity
  8
_4-3_
 62
     3
100
AcDbPoint
 10
761.1895202152527
 20
1176.798700377554
 30
0.0
  0
POINT
  5
291
330
22
100
AcDbEntity
  8
_4-3_
 62
     3
100
AcDbPoint
 10
762.6523324872313
 20
1189.96401082535
 30
0.0
  0
POINT
  5
292
330
22
100
AcDbEntity
  8
_4-3_
 62
     3
100
AcDbPoint
 10
756.8010833993219
 20
1196.790468094576
 30
0.0
  0
POINT
  5
293
330
22
100
AcDbEntity
  8
_4-3_
 62
     3
100
AcDbPoint
 10
750.2996955238676
 20
1191.914427187986
 30
0.0
  0
POINT
  5
294
330
22
100
AcDbEntity
  8
_4-3_
 62
     3
100
AcDbPoint
 10
750.2996955238676
 20
1199.228488547872
 30
0.0
  0
POINT
  5
295
330
22
100
AcDbEntity
  8
_4-3_
 62
     3
100
AcDbPoint
 10
775.3300388443664
 20
1189.96401082535
 30
0.0
  0
POINT
  5
296
330
22
100
AcDbEntity
  8
_4-3_
 62
     3
100
AcDbPoint
 10
788.4953492921612
 20
1189.638941431577
 30
0.0
  0
POINT
  5
297
330
22
100
AcDbEntity
  8
_4-3_
 62
     3
100
AcDbPoint
 10
765.7404917280723
 20
1184.112761737438
 30
0.0
  0
POINT
  5
298
330
22
100
AcDbEntity
  8
_4-3_
 62
     3
100
AcDbPoint
 10
773.5421571786149
 20
1174.523214621145
 30
0.0
  0
POINT
  5
299
330
22
100
AcDbEntity
  8
_4-3_
 62
     3
100
AcDbPoint
 10
778.0931286914348
 20
1184.275296434326
 30
0.0
  0
ARC
  5
29A
330
22
100
AcDbEntity
  8
_4-2_
  6
Continuous
 62
     7
100
AcDbCircle
 10
792.1822718427778
 20
1197.826827288394
 30
0.0
 40
0.3750000149011611
100
AcDbArc
 50
270.0000025044769
 51
359.999991348576
  0
LINE
  5
29B
330
22
100
AcDbEntity
  8
_4-2_
  6
Continuous
 62
     7
100
AcDbLine
 10
792.1822718427778
 20
1197.451823473694
 30
0.0
 11
770.4322699354317
 21
1197.451823473694
 31
0.0
  0
ARC
  5
29C
330
22
100
AcDbEntity
  8
_4-2_
  6
Continuous
 62
     7
100
AcDbCircle
 10
770.4322699354317
 20
1197.826827288394
 30
0.0
 40
0.3750000149011611
100
AcDbArc
 50
180.0
 51
270.0000025044782
  0
LINE
  5
29D
330
22
100
AcDbEntity
  8
_4-2_
  6
Continuous
 62
     7
100
AcDbLine
 10
752.5572661207341
 20
1174.05272549826
 30
0.0
 11
846.3072661207318
 21
1154.639323473694
 31
0.0
  0
LINE
  5
29E
330
22
100
AcDbEntity
  8
_4-4_
  6
Continuous
 62
     2
100
AcDbLine
 10
752.5572661207341
 20
1184.326823473694
 30
0.0
 11
752.5572661207341
 21
1140.576823473694
 31
0.0
  0
LINE
  5
29F
330
22
100
AcDbEntity
  8
_4-4_
  6
Continuous
 62
     2
100
AcDbLine
 10
752.5572661207341
 20
1140.576823473694
 30
0.0
 11
702.1979888417706
 21
1140.576823473694
 31
0.0
  0
LINE
  5
2A0
330
22
100
AcDbEntity
  8
_4-2_
  6
Continuous
 62
     7
100
AcDbLine
 10
792.5572708891047
 20
1317.139323473694
 30
0.0
 11
792.5572708891047
 21
1197.826827288394
 31
0.0
  0
LINE
  5
2A1
330
22
100
AcDbEntity
  8
_4-2_
  6
Continuous
 62
     7
100
AcDbLine
 10
770.0572661207319
 20
1197.826827288394
 30
0.0
 11
770.0572661207319
 21
1317.139323473694
 31
0.0
  0
LINE
  5
2A2
330
22
100
AcDbEntity
  8
_4-D_
  6
Continuous
 62
     4
100
AcDbLine
 10
849.4322661207309
 20
1131.075046401875
 30
0.0
 11
850.887969980747
 21
1132.530750261893
 31
0.0
  0
LINE
  5
2A3
330
22
100
AcDbEntity
  8
_4-D_
  6
Continuous
 62
     4
100
AcDbLine
 10
849.4322661207341
 20
1133.284755093096
 30
0.0
 11
850.8871725677385
 21
1134.739661540098
 31
0.0
  0
LINE
  5
2A4
330
22
100
AcDbEntity
  8
_4-D_
  6
Continuous
 62
     4
100
AcDbLine
 10
849.4322661207354
 20
1137.704172475513
 30
0.0
 11
850.8855777417272
 21
1139.157484096505
 31
0.0
  0
LINE
  5
2A5
330
22
100
AcDbEntity
  8
_4-D_
  6
Continuous
 62
     4
100
AcDbLine
 10
849.4322661207309
 20
1139.913881166709
 30
0.0
 11
850.3122159296641
 21
1140.793830975643
 31
0.0
  0
LINE
  5
2A6
330
22
100
AcDbEntity
  8
_4-D_
  6
Continuous
 62
     4
100
AcDbLine
 10
849.0035331869309
 20
1141.694856924124
 30
0.0
 11
849.2204364753206
 21
1141.911760212514
 31
0.0
  0
LINE
  5
2A7
330
22
100
AcDbEntity
  8
_4-D_
  6
Continuous
 62
     4
100
AcDbLine
 10
846.7938244957315
 20
1141.694856924128
 30
0.0
 11
848.1286570209819
 21
1143.029689449377
 31
0.0
  0
LINE
  5
2A8
330
22
100
AcDbEntity
  8
_4-D_
  6
Continuous
 62
     4
100
AcDbLine
 10
846.3072661207309
 20
1143.418007240339
 30
0.0
 11
847.036877566637
 21
1144.147618686248
 31
0.0
  0
LINE
  5
2A9
330
22
100
AcDbEntity
  8
_4-A_
  6
Continuous
 62
     7
100
AcDbLine
 10
852.874277442196
 20
1142.475447128437
 30
0.0
 11
863.6294724119592
 21
1123.8469029955
 31
0.0
  0
LINE
  5
2AA
330
22
100
AcDbEntity
  8
_4-E_
  6
Continuous
 62
     4
100
AcDbLine
 10
1030.291871912014
 20
898.3893234736942
 30
0.0
 11
1096.307266120732
 21
964.4047176824104
 31
0.0
  0
LINE
  5
2AB
330
22
100
AcDbEntity
  8
_4-E_
  6
Continuous
 62
     4
100
AcDbLine
 10
1023.22080410015
 20
898.3893234736942
 30
0.0
 11
1096.307266120732
 21
971.4757854942771
 31
0.0
  0
LINE
  5
2AC
330
22
100
AcDbEntity
  8
_4-A_
  6
Continuous
 62
     7
100
AcDbLine
 10
1223.669119224956
 20
948.8469029955
 30
0.0
 11
1206.129552241859
 21
948.8469029955
 31
0.0
  0
LINE
  5
2AD
330
22
100
AcDbEntity
  8
_4-A_
  6
Continuous
 62
     7
100
AcDbLine
 10
1223.669119224956
 20
973.8469029955
 30
0.0
 11
1170.532104907379
 21
973.8469029955
 31
0.0
  0
TEXT
  5
2AE
330
22
100
AcDbEntity
  8
_4-A_
 62
     7
100
AcDbText
 10
1233.669119224956
 20
966.3469029955001
 30
0.0
 40
15.0
  1
塩ビシート 増貼り
100
AcDbText
  0
TEXT
  5
2AF
330
22
100
AcDbEntity
  8
_4-A_
 62
     7
100
AcDbText
 10
1233.669119224956
 20
941.3469029955001
 30
0.0
 40
15.0
  1
塩ビシート 接着工法
100
AcDbText
  0
LINE
  5
2B0
330
22
100
AcDbEntity
  8
_4-A_
  6
Continuous
 62
     7
100
AcDbLine
 10
1175.193635531071
 20
895.2643234736942
 30
0.0
 11
1206.129552241859
 21
948.8469029955
 31
0.0
  0
LINE
  5
2B1
330
22
100
AcDbEntity
  8
_4-A_
  6
Continuous
 62
     7
100
AcDbLine
 10
1126.16805820202
 20
897.006120072459
 30
0.0
 11
1170.532104907379
 21
973.8469029955
 31
0.0
  0
LINE
  5
2B2
330
22
100
AcDbEntity
  8
_4-4_
  6
Continuous
 62
     2
100
AcDbLine
 10
1096.307266120732
 20
1048.389323473694
 30
0.0
 11
1096.307266120732
 21
898.3893234736942
 31
0.0
  0
LINE
  5
2B3
330
22
100
AcDbEntity
  8
_4-4_
  6
Continuous
 62
     2
100
AcDbLine
 10
1146.307266120732
 20
898.3893234736942
 30
0.0
 11
1096.307266120732
 21
898.3893234736942
 31
0.0
  0
LINE
  5
2B4
330
22
100
AcDbEntity
  8
_4-4_
  6
Continuous
 62
     2
100
AcDbLine
 10
1146.307266120732
 20
895.2643234736942
 30
0.0
 11
1352.197988841771
 21
895.2643234736942
 31
0.0
  0
LINE
  5
2B5
330
22
100
AcDbEntity
  8
_4-4_
  6
Continuous
 62
     2
100
AcDbLine
 10
1146.307266120732
 20
898.3893234736942
 30
0.0
 11
1146.307266120732
 21
895.2643234736942
 31
0.0
  0
LINE
  5
2B6
330
22
100
AcDbEntity
  8
_4-2_
  6
Continuous
 62
     7
100
AcDbLine
 10
846.3072661207318
 20
895.2643234736942
 30
0.0
 11
1146.307266120732
 21
895.2643234736942
 31
0.0
  0
LINE
  5
2B7
330
22
100
AcDbEntity
  8
_4-D_
  6
Continuous
 62
     4
100
AcDbLine
 10
1094.190927942566
 20
895.2643234736964
 30
0.0
 11
1097.315927942563
 21
898.3893234736942
 31
0.0
  0
LINE
  5
2B8
330
22
100
AcDbEntity
  8
_4-D_
  6
Continuous
 62
     4
100
AcDbLine
 10
1125.126849619477
 20
895.2643234736964
 30
0.0
 11
1128.251849619475
 21
898.3893234736942
 31
0.0
  0
LINE
  5
2B9
330
22
100
AcDbEntity
  8
_4-D_
  6
Continuous
 62
     4
100
AcDbLine
 10
1120.707432237059
 20
895.2643234736942
 30
0.0
 11
1123.83243223706
 21
898.3893234736964
 31
0.0
  0
LINE
  5
2BA
330
22
100
AcDbEntity
  8
_4-D_
  6
Continuous
 62
     4
100
AcDbLine
 10
1116.288014854649
 20
895.2643234736964
 30
0.0
 11
1119.413014854649
 21
898.3893234736964
 31
0.0
  0
LINE
  5
2BB
330
22
100
AcDbEntity
  8
_4-D_
  6
Continuous
 62
     4
100
AcDbLine
 10
1111.868597472232
 20
895.2643234736964
 30
0.0
 11
1114.993597472235
 21
898.3893234736964
 31
0.0
  0
LINE
  5
2BC
330
22
100
AcDbEntity
  8
_4-D_
  6
Continuous
 62
     4
100
AcDbLine
 10
1107.449180089816
 20
895.2643234736964
 30
0.0
 11
1110.574180089818
 21
898.3893234736964
 31
0.0
  0
LINE
  5
2BD
330
22
100
AcDbEntity
  8
_4-D_
  6
Continuous
 62
     4
100
AcDbLine
 10
1103.029762707399
 20
895.2643234736964
 30
0.0
 11
1106.154762707399
 21
898.3893234736964
 31
0.0
  0
LINE
  5
2BE
330
22
100
AcDbEntity
  8
_4-D_
  6
Continuous
 62
     4
100
AcDbLine
 10
1098.610345324982
 20
895.2643234736942
 30
0.0
 11
1101.735345324981
 21
898.3893234736942
 31
0.0
  0
LINE
  5
2BF
330
22
100
AcDbEntity
  8
_4-D_
  6
Continuous
 62
     4
100
AcDbLine
 10
1129.546267001893
 20
895.2643234736964
 30
0.0
 11
1132.671267001891
 21
898.3893234736942
 31
0.0
  0
LINE
  5
2C0
330
22
100
AcDbEntity
  8
_4-D_
  6
Continuous
 62
     4
100
AcDbLine
 10
1133.965684384311
 20
895.2643234736964
 30
0.0
 11
1137.09068438431
 21
898.3893234736964
 31
0.0
  0
LINE
  5
2C1
330
22
100
AcDbEntity
  8
_4-D_
  6
Continuous
 62
     4
100
AcDbLine
 10
1138.385101766728
 20
895.2643234736964
 30
0.0
 11
1141.510101766725
 21
898.3893234736964
 31
0.0
  0
LINE
  5
2C2
330
22
100
AcDbEntity
  8
_4-D_
  6
Continuous
 62
     4
100
AcDbLine
 10
1142.804519149144
 20
895.2643234736964
 30
0.0
 11
1145.929519149142
 21
898.3893234736964
 31
0.0
  0
POINT
  5
2C3
330
22
100
AcDbEntity
  8
_4-4_
 62
     1
100
AcDbPoint
 10
1399.274770846183
 20
895.2643234736942
 30
0.0
  0
LINE
  5
2C4
330
22
100
AcDbEntity
  8
_4-4_
  6
Continuous
 62
     7
100
AcDbLine
 10
1399.274770846183
 20
895.2643234736942
 30
0.0
 11
1329.125849118466
 21
895.2643234736942
 31
0.0
  0
LINE
  5
2C5
330
22
100
AcDbEntity
  8
_4-4_
  6
Continuous
 62
     7
100
AcDbLine
 10
1399.274770846183
 20
895.2643234736942
 30
0.0
 11
1399.274770846183
 21
1145.264323473694
 31
0.0
  0
POINT
  5
2C6
330
22
100
AcDbEntity
  8
_4-4_
 62
     1
100
AcDbPoint
 10
1399.274770846183
 20
1145.264323473694
 30
0.0
  0
LINE
  5
2C7
330
22
100
AcDbEntity
  8
_4-4_
  6
Continuous
 62
     7
100
AcDbLine
 10
1399.274770846183
 20
1145.264323473694
 30
0.0
 11
880.2563860539351
 21
1145.264323473694
 31
0.0
  0
TEXT
  5
2C8
330
22
100
AcDbEntity
  8
_4-4_
 62
     7
100
AcDbText
 10
1396.774770846183
 20
1005.889323473694
 30
0.0
 40
15.0
  1
400以上
 50
90.0
100
AcDbText
  0
LINE
  5
2C9
330
22
100
AcDbEntity
  8
_4-B_
  6
Continuous
 62
     7
100
AcDbLine
 10
1096.307266120732
 20
848.6774208970663
 30
0.0
 11
1146.307266120732
 21
848.6774208970663
 31
0.0
  0
POINT
  5
2CA
330
22
100
AcDbEntity
  8
_4-B_
 62
     1
100
AcDbPoint
 10
1096.307266120732
 20
848.6774208970663
 30
0.0
  0
POINT
  5
2CB
330
22
100
AcDbEntity
  8
_4-B_
 62
     1
100
AcDbPoint
 10
1146.307266120732
 20
848.6774208970663
 30
0.0
  0
LINE
  5
2CC
330
22
100
AcDbEntity
  8
_4-B_
  6
Continuous
 62
     7
100
AcDbLine
 10
1096.307266120732
 20
848.6774208970663
 30
0.0
 11
1096.307266120732
 21
879.8747858825672
 31
0.0
  0
LINE
  5
2CD
330
22
100
AcDbEntity
  8
_4-B_
  6
Continuous
 62
     7
100
AcDbLine
 10
1146.307266120732
 20
848.6774208970663
 30
0.0
 11
1146.307266120732
 21
879.8747858825672
 31
0.0
  0
TEXT
  5
2CE
330
22
100
AcDbEntity
  8
_4-B_
 62
     7
100
AcDbText
 10
1110.057266120732
 20
851.1774208970663
 30
0.0
 40
15.0
  1
100
100
AcDbText
  0
LINE
  5
2CF
330
22
100
AcDbEntity
  8
_4-E_
  6
Continuous
 62
     4
100
AcDbLine
 10
855.7448665255277
 20
841.4613721454939
 30
0.0
 11
906.422817853728
 21
892.1393234736942
 31
0.0
  0
LINE
  5
2D0
330
22
100
AcDbEntity
  8
_4-E_
  6
Continuous
 62
     4
100
AcDbLine
 10
1269.887002149257
 20
842.1393234736942
 30
0.0
 11
1319.887002149257
 21
892.1393234736942
 31
0.0
  0
LINE
  5
2D1
330
22
100
AcDbEntity
  8
_4-E_
  6
Continuous
 62
     4
100
AcDbLine
 10
1056.422817853729
 20
842.1393234736942
 30
0.0
 11
1106.422817853729
 21
892.1393234736942
 31
0.0
  0
LINE
  5
2D2
330
22
100
AcDbEntity
  8
_4-E_
  6
Continuous
 62
     4
100
AcDbLine
 10
1070.564953477459
 20
842.1393234736942
 30
0.0
 11
1120.564953477459
 21
892.1393234736942
 31
0.0
  0
LINE
  5
2D3
330
22
100
AcDbEntity
  8
_4-E_
  6
Continuous
 62
     4
100
AcDbLine
 10
1063.493885665595
 20
842.1393234736942
 30
0.0
 11
1113.493885665595
 21
892.1393234736942
 31
0.0
  0
LINE
  5
2D4
330
22
100
AcDbEntity
  8
_4-E_
  6
Continuous
 62
     4
100
AcDbLine
 10
1255.744866525527
 20
842.1393234736942
 30
0.0
 11
1305.744866525527
 21
892.1393234736942
 31
0.0
  0
LINE
  5
2D5
330
22
100
AcDbEntity
  8
_4-E_
  6
Continuous
 62
     4
100
AcDbLine
 10
1262.815934337393
 20
842.1393234736942
 30
0.0
 11
1312.815934337393
 21
892.1393234736942
 31
0.0
  0
LINE
  5
2D6
330
22
100
AcDbEntity
  8
_4-E_
  6
Continuous
 62
     4
100
AcDbLine
 10
863.4938856655947
 20
842.1393234736942
 30
0.0
 11
913.4938856655947
 21
892.1393234736942
 31
0.0
  0
LINE
  5
2D7
330
22
100
AcDbEntity
  8
_4-E_
  6
Continuous
 62
     4
100
AcDbLine
 10
871.2429048056606
 20
842.8172748018969
 30
0.0
 11
920.5649534774593
 21
892.1393234736942
 31
0.0
  0
LINE
  5
2D8
330
22
100
AcDbEntity
  8
_4-E_
  6
Continuous
 62
     4
100
AcDbLine
 10
702.1979888417706
 20
1086.558591805331
 30
0.0
 11
783.3215655896867
 21
1167.682168553247
 31
0.0
  0
LINE
  5
2D9
330
22
100
AcDbEntity
  8
_4-E_
  6
Continuous
 62
     4
100
AcDbLine
 10
702.1979888417706
 20
1072.416456181603
 30
0.0
 11
795.0375903026668
 21
1165.256057642497
 31
0.0
  0
LINE
  5
2DA
330
22
100
AcDbEntity
  8
_4-E_
  6
Continuous
 62
     4
100
AcDbLine
 10
702.1979888417706
 20
1079.48752399347
 30
0.0
 11
789.1795779461732
 21
1166.469113097874
 31
0.0
  0
LINE
  5
2DB
330
22
100
AcDbEntity
  8
_4-E_
  6
Continuous
 62
     4
100
AcDbLine
 10
771.3072661207319
 20
956.3458204124968
 30
0.0
 11
846.3072661207318
 21
1031.345820412497
 31
0.0
  0
LINE
  5
2DC
330
22
100
AcDbEntity
  8
_4-E_
  6
Continuous
 62
     4
100
AcDbLine
 10
771.3072661207319
 20
942.2036847887655
 30
0.0
 11
846.3072661207318
 21
1017.203684788765
 31
0.0
  0
LINE
  5
2DD
330
22
100
AcDbEntity
  8
_4-E_
  6
Continuous
 62
     4
100
AcDbLine
 10
771.3072661207319
 20
949.2747526006322
 30
0.0
 11
846.3072661207318
 21
1024.274752600632
 31
0.0
  0
LINE
  5
2DE
330
22
100
AcDbEntity
  8
_4-8_
  6
Continuous
 62
     4
100
AcDbLine
 10
788.1822708891037
 20
1184.326823473694
 30
0.0
 11
795.6822708891057
 21
1184.326823473694
 31
0.0
  0
LINE
  5
2DF
330
22
100
AcDbEntity
  8
_4-8_
  6
Continuous
 62
     4
100
AcDbLine
 10
787.2447708891046
 20
1185.264323473694
 30
0.0
 11
787.2447708891046
 21
1178.076823473694
 31
0.0
  0
LINE
  5
2E0
330
22
100
AcDbEntity
  8
_4-8_
  6
Continuous
 62
     4
100
AcDbLine
 10
788.1822708891037
 20
1178.076823473694
 30
0.0
 11
787.2447708891046
 21
1178.076823473694
 31
0.0
  0
LINE
  5
2E1
330
22
100
AcDbEntity
  8
_4-8_
  6
Continuous
 62
     4
100
AcDbLine
 10
755.0572661207332
 20
1185.264323473694
 30
0.0
 11
755.0572661207332
 21
1184.326823473694
 31
0.0
  0
LINE
  5
2E2
330
22
100
AcDbEntity
  8
_4-8_
  6
Continuous
 62
     4
100
AcDbLine
 10
762.5572661207331
 20
1193.701823473694
 30
0.0
 11
762.5572661207331
 21
1201.201823473696
 31
0.0
  0
LINE
  5
2E3
330
22
100
AcDbEntity
  8
_4-8_
  6
Continuous
 62
     4
100
AcDbLine
 10
792.8697708891037
 20
1192.764323473694
 30
0.0
 11
763.4947661207319
 21
1192.764323473694
 31
0.0
  0
LINE
  5
2E4
330
22
100
AcDbEntity
  8
_4-8_
  6
Continuous
 62
     4
100
AcDbLine
 10
792.8697708891037
 20
1185.264323473694
 30
0.0
 11
792.8697708891037
 21
1192.764323473694
 31
0.0
  0
LINE
  5
2E5
330
22
100
AcDbEntity
  8
_4-8_
  6
Continuous
 62
     4
100
AcDbLine
 10
748.4947661207331
 20
1202.139323473695
 30
0.0
 11
768.8072661207331
 21
1202.139323473695
 31
0.0
  0
LINE
  5
2E6
330
22
100
AcDbEntity
  8
_4-8_
  6
Continuous
 62
     4
100
AcDbLine
 10
748.4947661207331
 20
1185.264323473694
 30
0.0
 11
748.4947661207331
 21
1202.139323473695
 31
0.0
  0
LINE
  5
2E7
330
22
100
AcDbEntity
  8
_4-8_
  6
Continuous
 62
     4
100
AcDbLine
 10
768.8072661207331
 20
1203.076823473694
 30
0.0
 11
748.4947661207331
 21
1203.076823473694
 31
0.0
  0
LINE
  5
2E8
330
22
100
AcDbEntity
  8
_4-8_
  6
Continuous
 62
     4
100
AcDbLine
 10
763.4947661207319
 20
1201.201823473696
 30
0.0
 11
768.8072661207331
 21
1201.201823473696
 31
0.0
  0
LINE
  5
2E9
330
22
100
AcDbEntity
  8
_4-8_
  6
Continuous
 62
     4
100
AcDbLine
 10
763.4947661207319
 20
1193.701823473694
 30
0.0
 11
763.4947661207319
 21
1201.201823473696
 31
0.0
  0
LINE
  5
2EA
330
22
100
AcDbEntity
  8
_4-8_
  6
Continuous
 62
     4
100
AcDbLine
 10
792.8697708891037
 20
1193.701823473694
 30
0.0
 11
763.4947661207319
 21
1193.701823473694
 31
0.0
  0
LINE
  5
2EB
330
22
100
AcDbEntity
  8
_4-8_
  6
Continuous
 62
     4
100
AcDbLine
 10
793.8072708891046
 20
1185.264323473694
 30
0.0
 11
793.8072708891046
 21
1192.764323473694
 31
0.0
  0
LINE
  5
2EC
330
22
100
AcDbEntity
  8
_4-8_
  6
Continuous
 62
     4
100
AcDbLine
 10
747.5572661207341
 20
1185.264323473694
 30
0.0
 11
747.5572661207341
 21
1202.139323473695
 31
0.0
  0
LINE
  5
2ED
330
22
100
AcDbEntity
  8
_4-8_
  6
Continuous
 62
     4
100
AcDbLine
 10
755.0572661207332
 20
1185.264323473694
 30
0.0
 11
748.4947661207331
 21
1185.264323473694
 31
0.0
  0
LINE
  5
2EE
330
22
100
AcDbEntity
  8
_4-8_
  6
Continuous
 62
     4
100
AcDbLine
 10
787.7333290224385
 20
1192.764324785267
 30
0.0
 11
786.7958280111541
 21
1193.701825796553
 31
0.0
  0
LINE
  5
2EF
330
22
100
AcDbEntity
  8
_4-8_
  6
Continuous
 62
     4
100
AcDbLine
 10
748.4947658147803
 20
1196.647544244761
 30
0.0
 11
747.5572648034959
 21
1197.585045256047
 31
0.0
  0
LINE
  5
2F0
330
22
100
AcDbEntity
  8
_4-8_
  6
Continuous
 62
     4
100
AcDbLine
 10
763.4947651365995
 20
1199.325221196105
 30
0.0
 11
762.4947654065953
 21
1200.325220926109
 31
0.0
  0
LINE
  5
2F1
330
22
100
AcDbEntity
  8
_4-8_
  6
Continuous
 62
     4
100
AcDbLine
 10
793.8072630900001
 20
1186.690390717709
 30
0.0
 11
792.8697081307497
 21
1187.627945676959
 31
0.0
  0
LINE
  5
2F2
330
22
100
AcDbEntity
  8
_4-8_
  6
Continuous
 62
     4
100
AcDbLine
 10
770.0556605201062
 20
1192.764325812598
 30
0.0
 11
769.118159508821
 21
1193.701826823884
 31
0.0
  0
LINE
  5
2F3
330
22
100
AcDbEntity
  8
_4-8_
  6
Continuous
 62
     4
100
AcDbLine
 10
760.6806638942487
 20
1202.139322438453
 30
0.0
 11
759.7431628829645
 21
1203.076823449738
 31
0.0
  0
LINE
  5
2F4
330
22
100
AcDbEntity
  8
_4-8_
  6
Continuous
 62
     4
100
AcDbLine
 10
763.4947661207319
 20
1195.546601534607
 30
0.0
 11
763.4947661207319
 21
1199.159377337219
 31
0.0
  0
LINE
  5
2F5
330
22
100
AcDbEntity
  8
_4-8_
  6
Continuous
 62
     4
100
AcDbLine
 10
763.6253279097002
 20
1195.314213874415
 30
0.0
 11
764.7969898718803
 21
1193.798900182688
 31
0.0
  0
LINE
  5
2F6
330
22
100
AcDbEntity
  8
_4-8_
  6
Continuous
 62
     4
100
AcDbLine
 10
765.2050363625426
 20
1194.087041898802
 30
0.0
 11
764.3072636851857
 21
1195.483067757735
 31
0.0
  0
LINE
  5
2F7
330
22
100
AcDbEntity
  8
_4-8_
  6
Continuous
 62
     4
100
AcDbLine
 10
764.3072680280828
 20
1195.483077288393
 30
0.0
 11
765.3697661207331
 21
1195.483077288393
 31
0.0
  0
LINE
  5
2F8
330
22
100
AcDbEntity
  8
_4-8_
  6
Continuous
 62
     4
100
AcDbLine
 10
765.3697674085868
 20
1195.483066825002
 30
0.0
 11
766.5398397056357
 21
1193.808622516165
 31
0.0
  0
LINE
  5
2F9
330
22
100
AcDbEntity
  8
_4-8_
  6
Continuous
 62
     4
100
AcDbLine
 10
766.1197737501287
 20
1195.483077288393
 30
0.0
 11
767.2447661207331
 21
1195.483077288393
 31
0.0
  0
LINE
  5
2FA
330
22
100
AcDbEntity
  8
_4-8_
  6
Continuous
 62
     4
100
AcDbLine
 10
766.1197737501287
 20
1195.483077288393
 30
0.0
 11
767.2447661207331
 21
1195.483077288393
 31
0.0
  0
LINE
  5
2FB
330
22
100
AcDbEntity
  8
_4-8_
  6
Continuous
 62
     4
100
AcDbLine
 10
767.0739867256645
 20
1199.331837062367
 30
0.0
 11
767.0600662172069
 21
1199.295573993996
 31
0.0
  0
LINE
  5
2FC
330
22
100
AcDbEntity
  8
_4-8_
  6
Continuous
 62
     4
100
AcDbLine
 10
764.7969946951412
 20
1200.979740916149
 30
0.0
 11
763.6253320037724
 21
1199.464426281359
 31
0.0
  0
LINE
  5
2FD
330
22
100
AcDbEntity
  8
_4-8_
  6
Continuous
 62
     4
100
AcDbLine
 10
764.3072662044608
 20
1199.295571186281
 30
0.0
 11
765.2050392266403
 21
1200.691598240781
 31
0.0
  0
LINE
  5
2FE
330
22
100
AcDbEntity
  8
_4-8_
  6
Continuous
 62
     4
100
AcDbLine
 10
764.3072680280828
 20
1199.295571566348
 30
0.0
 11
765.3697661207331
 21
1199.295571566348
 31
0.0
  0
LINE
  5
2FF
330
22
100
AcDbEntity
  8
_4-8_
  6
Continuous
 62
     4
100
AcDbLine
 10
765.3697673740885
 20
1199.295569076804
 30
0.0
 11
766.5452963383279
 21
1200.977823151684
 31
0.0
  0
LINE
  5
300
330
22
100
AcDbEntity
  8
_4-8_
  6
Continuous
 62
     4
100
AcDbLine
 10
766.1197737501287
 20
1199.295571566348
 30
0.0
 11
767.0600680158749
 21
1199.295571566348
 31
0.0
  0
LINE
  5
301
330
22
100
AcDbEntity
  8
_4-8_
  6
Continuous
 62
     4
100
AcDbLine
 10
765.2117077759032
 20
1200.710416951277
 30
0.0
 11
765.2083828936895
 21
1200.701006872387
 31
0.0
  0
LINE
  5
302
330
22
100
AcDbEntity
  8
_4-8_
  6
Continuous
 62
     4
100
AcDbLine
 10
765.2083894254531
 20
1200.701004968128
 30
0.0
 11
765.2050419525096
 21
1200.691592779252
 31
0.0
  0
LINE
  5
303
330
22
100
AcDbEntity
  8
_4-8_
  6
Continuous
 62
     4
100
AcDbLine
 10
766.9336885292535
 20
1194.122980164655
 30
0.0
 11
766.1197650868179
 21
1195.48307781133
 31
0.0
  0
LINE
  5
304
330
22
100
AcDbEntity
  8
_4-8_
  6
Continuous
 62
     4
100
AcDbLine
 10
766.9655397329996
 20
1200.708899237319
 30
0.0
 11
766.1197640957595
 21
1199.295574911221
 31
0.0
  0
ARC
  5
305
330
22
100
AcDbEntity
  8
_4-8_
  6
Continuous
 62
     4
100
AcDbCircle
 10
748.4947661207331
 20
1185.264323473694
 30
0.0
 40
0.9375
100
AcDbArc
 50
180.0
 51
270.0000025044778
  0
ARC
  5
306
330
22
100
AcDbEntity
  8
_4-8_
  6
Continuous
 62
     4
100
AcDbCircle
 10
748.4947661207331
 20
1202.139323473695
 30
0.0
 40
0.9375
100
AcDbArc
 50
89.9999974955215
 51
180.0
  0
ARC
  5
307
330
22
100
AcDbEntity
  8
_4-8_
  6
Continuous
 62
     4
100
AcDbCircle
 10
768.8072661207331
 20
1202.139323473695
 30
0.0
 40
0.9375
100
AcDbArc
 50
269.9999993167541
 51
89.99999749552154
  0
ARC
  5
308
330
22
100
AcDbEntity
  8
_4-8_
  6
Continuous
 62
     4
100
AcDbCircle
 10
763.4947661207319
 20
1201.201823473696
 30
0.0
 40
0.9375
100
AcDbArc
 50
89.9999974955215
 51
180.0
  0
ARC
  5
309
330
22
100
AcDbEntity
  8
_4-8_
  6
Continuous
 62
     4
100
AcDbCircle
 10
763.4947661207319
 20
1193.701823473694
 30
0.0
 40
0.9375
100
AcDbArc
 50
180.0
 51
270.0000025044778
  0
ARC
  5
30A
330
22
100
AcDbEntity
  8
_4-8_
  6
Continuous
 62
     4
100
AcDbCircle
 10
792.8697708891037
 20
1192.764323473694
 30
0.0
 40
0.9375
100
AcDbArc
 50
359.9999949910434
 51
89.99999749552207
  0
ARC
  5
30B
330
22
100
AcDbEntity
  8
_4-8_
  6
Continuous
 62
     4
100
AcDbCircle
 10
792.8697708891037
 20
1185.264323473694
 30
0.0
 40
0.9375
100
AcDbArc
 50
270.0000025044772
 51
359.9999913485774
  0
ARC
  5
30C
330
22
100
AcDbEntity
  8
_4-8_
  6
Continuous
 62
     4
100
AcDbCircle
 10
769.5015410230769
 20
1195.142558336978
 30
0.0
 40
1.767725050449371
100
AcDbArc
 50
319.869505390578
 51
22.2133274550559
  0
ARC
  5
30D
330
22
100
AcDbEntity
  8
_4-8_
  6
Continuous
 62
     4
100
AcDbCircle
 10
772.7733401106012
 20
1197.27135014606
 30
0.0
 40
2.192523777484893
100
AcDbArc
 50
151.141159850943
 51
221.7686694917566
  0
ARC
  5
30E
330
22
100
AcDbEntity
  8
_4-8_
  6
Continuous
 62
     4
100
AcDbCircle
 10
768.6696318433894
 20
1198.985303164248
 30
0.0
 40
2.279801219701767
100
AcDbArc
 50
343.2844866956492
 51
52.2560101420056
  0
ARC
  5
30F
330
22
100
AcDbEntity
  8
_4-8_
  6
Continuous
 62
     4
100
AcDbCircle
 10
769.0884951398982
 20
1198.996880770449
 30
0.0
 40
2.040156275033951
100
AcDbArc
 50
61.39763094979868
 51
172.1371263548427
  0
ARC
  5
310
330
22
100
AcDbEntity
  8
_4-8_
  6
Continuous
 62
     4
100
AcDbCircle
 10
771.3353709028386
 20
1197.88153004718
 30
0.0
 40
4.741906821727753
100
AcDbArc
 50
210.3845063341513
 51
235.8775965998606
  0
ARC
  5
311
330
22
100
AcDbEntity
  8
_4-8_
  6
Continuous
 62
     4
100
AcDbCircle
 10
769.7419718549871
 20
1195.616162539248
 30
0.0
 40
1.9586281478405
100
AcDbArc
 50
237.2801110591255
 51
304.5622008746565
  0
ARC
  5
312
330
22
100
AcDbEntity
  8
_4-8_
  6
Continuous
 62
     4
100
AcDbCircle
 10
764.9935225294245
 20
1200.825055361511
 30
0.0
 40
0.2501031197607517
100
AcDbArc
 50
327.7506830889367
 51
141.7929019150963
  0
ARC
  5
313
330
22
100
AcDbEntity
  8
_4-8_
  6
Continuous
 62
     4
100
AcDbCircle
 10
766.7432478712214
 20
1200.824340105774
 30
0.0
 40
0.250484999269247
100
AcDbArc
 50
325.6479956925707
 51
142.2101513413034
  0
ARC
  5
314
330
22
100
AcDbEntity
  8
_4-8_
  6
Continuous
 62
     4
100
AcDbCircle
 10
766.745241050544
 20
1193.955252886536
 30
0.0
 40
0.2523656189441682
100
AcDbArc
 50
215.5238311760804
 51
41.77321338878676
  0
ARC
  5
315
330
22
100
AcDbEntity
  8
_4-8_
  6
Continuous
 62
     4
100
AcDbCircle
 10
764.9942187116756
 20
1193.951934099915
 30
0.0
 40
0.2496343664824962
100
AcDbArc
 50
217.8101960196038
 51
32.65413220525807
  0
ARC
  5
316
330
22
100
AcDbEntity
  8
_4-8_
  6
Continuous
 62
     4
100
AcDbCircle
 10
767.986419563116
 20
1197.417357683901
 30
0.0
 40
4.817631244659423
100
AcDbArc
 50
154.8547934668341
 51
158.8017685428877
  0
ARC
  5
317
330
22
100
AcDbEntity
  8
_4-8_
  6
Continuous
 62
     4
100
AcDbCircle
 10
766.0090235517633
 20
1196.806262255432
 30
0.0
 40
2.812155485153198
100
AcDbArc
 50
206.6110009875429
 51
212.0440920383025
  0
LINE
  5
318
330
22
100
AcDbEntity
  8
_4-8_
  6
Continuous
 62
     4
100
AcDbLine
 10
792.8697708891037
 20
1185.264323473694
 30
0.0
 11
787.2447708891046
 21
1185.264323473694
 31
0.0
  0
LINE
  5
319
330
22
100
AcDbEntity
  8
_4-8_
  6
Continuous
 62
     4
100
AcDbLine
 10
755.0572661207332
 20
1184.326823473694
 30
0.0
 11
745.6822661207332
 21
1184.326823473694
 31
0.0
  0
LINE
  5
31A
330
22
100
AcDbEntity
  8
_4-8_
  6
Continuous
 62
     4
100
AcDbLine
 10
795.6822708891057
 20
1184.326823473694
 30
0.0
 11
795.6822708891057
 21
1317.139323473694
 31
0.0
  0
LINE
  5
31B
330
22
100
AcDbEntity
  8
_4-8_
  6
Continuous
 62
     4
100
AcDbLine
 10
745.6822661207332
 20
1184.326823473694
 30
0.0
 11
745.6822661207332
 21
1317.139323473694
 31
0.0
  0
TEXT
  5
31C
330
22
100
AcDbEntity
  8
_2-B_DIM
 62
     7
100
AcDbText
 10
951.4170596602887
 20
335.4392937091765
 30
0.0
 40
15.0
  1
40以上
100
AcDbText
  0
LINE
  5
31D
330
22
100
AcDbEntity
  8
_4-7_
  6
Continuous
 62
     7
100
AcDbLine
 10
843.7475878876627
 20
1134.424832542503
 30
0.0
 11
846.3072661207318
 21
1134.424832542503
 31
0.0
  0
LINE
  5
31E
330
22
100
AcDbEntity
  8
_4-7_
  6
Continuous
 62
     7
100
AcDbLine
 10
846.3072661207318
 20
1134.424832542503
 30
0.0
 11
846.3072661207318
 21
1136.299832542503
 31
0.0
  0
LINE
  5
31F
330
22
100
AcDbEntity
  8
_4-7_
  6
Continuous
 62
     7
100
AcDbLine
 10
843.7475878876627
 20
1134.424832542503
 30
0.0
 11
843.232237312535
 21
1133.956082542503
 31
0.0
  0
LINE
  5
320
330
22
100
AcDbEntity
  8
_4-7_
  6
Continuous
 62
     7
100
AcDbLine
 10
843.232237312535
 20
1133.956082542503
 30
0.0
 11
841.9206087330882
 21
1133.956082542503
 31
0.0
  0
LINE
  5
321
330
22
100
AcDbEntity
  8
_4-7_
  6
Continuous
 62
     7
100
AcDbLine
 10
841.9206087330882
 20
1133.956082542503
 30
0.0
 11
839.3471129123076
 21
1134.298719573753
 31
0.0
  0
LINE
  5
322
330
22
100
AcDbEntity
  8
_4-7_
  6
Continuous
 62
     7
100
AcDbLine
 10
839.3471129123076
 20
1134.298719573753
 30
0.0
 11
839.0923538444814
 21
1134.449921917503
 31
0.0
  0
LINE
  5
323
330
22
100
AcDbEntity
  8
_4-7_
  6
Continuous
 62
     7
100
AcDbLine
 10
839.0923538444814
 20
1134.449921917503
 30
0.0
 11
839.0923538444814
 21
1134.424832542503
 31
0.0
  0
LINE
  5
324
330
22
100
AcDbEntity
  8
_4-7_
  6
Continuous
 62
     7
100
AcDbLine
 10
839.0923538444814
 20
1134.424832542503
 30
0.0
 11
837.9585819153579
 21
1134.424832542503
 31
0.0
  0
LINE
  5
325
330
22
100
AcDbEntity
  8
_4-7_
  6
Continuous
 62
     7
100
AcDbLine
 10
837.9585819153579
 20
1134.424832542503
 30
0.0
 11
837.4432310384829
 21
1134.695465392858
 31
0.0
  0
LINE
  5
326
330
22
100
AcDbEntity
  8
_4-7_
  6
Continuous
 62
     7
100
AcDbLine
 10
837.2886257754192
 20
1134.614275511253
 30
0.0
 11
837.2886257754192
 21
1134.002957542503
 31
0.0
  0
LINE
  5
327
330
22
100
AcDbEntity
  8
_4-7_
  6
Continuous
 62
     7
100
AcDbLine
 10
837.2886257754192
 20
1134.002957542503
 30
0.0
 11
834.6427566542445
 21
1134.002957542503
 31
0.0
  0
LINE
  5
328
330
22
100
AcDbEntity
  8
_4-7_
  6
Continuous
 62
     7
100
AcDbLine
 10
834.6427566542445
 20
1134.002957542503
 30
0.0
 11
834.0419152511071
 21
1134.316375980003
 31
0.0
  0
LINE
  5
329
330
22
100
AcDbEntity
  8
_4-7_
  6
Continuous
 62
     7
100
AcDbLine
 10
834.0419152511071
 20
1134.316375980003
 30
0.0
 11
834.0419152511071
 21
1134.319363792503
 31
0.0
  0
LINE
  5
32A
330
22
100
AcDbEntity
  8
_4-7_
  6
Continuous
 62
     7
100
AcDbLine
 10
834.041915472221
 20
1134.319366400806
 30
0.0
 11
834.0419152511071
 21
1134.319363792503
 31
0.0
  0
LINE
  5
32B
330
22
100
AcDbEntity
  8
_4-7_
  6
Continuous
 62
     7
100
AcDbLine
 10
834.041915472221
 20
1134.319366400806
 30
0.0
 11
834.0419152511071
 21
1134.319363792503
 31
0.0
  0
LINE
  5
32C
330
22
100
AcDbEntity
  8
_4-7_
  6
Continuous
 62
     7
100
AcDbLine
 10
833.3719591111695
 20
1134.339733323753
 30
0.0
 11
833.3719591111695
 21
1134.002957542503
 31
0.0
  0
LINE
  5
32D
330
22
100
AcDbEntity
  8
_4-7_
  6
Continuous
 62
     7
100
AcDbLine
 10
833.3719591111695
 20
1134.002957542503
 30
0.0
 11
829.7486884006865
 21
1134.002957542503
 31
0.0
  0
LINE
  5
32E
330
22
100
AcDbEntity
  8
_4-7_
  6
Continuous
 62
     7
100
AcDbLine
 10
829.7486884006865
 20
1134.002957542503
 30
0.0
 11
829.1460937945828
 21
1134.319362034416
 31
0.0
  0
LINE
  5
32F
330
22
100
AcDbEntity
  8
_4-7_
  6
Continuous
 62
     7
100
AcDbLine
 10
829.1460819207939
 20
1134.319363792503
 30
0.0
 11
829.4444890440695
 21
1134.321608561476
 31
0.0
  0
LINE
  5
330
330
22
100
AcDbEntity
  8
_4-7_
  6
Continuous
 62
     7
100
AcDbLine
 10
829.4444890440695
 20
1134.321608561476
 30
0.0
 11
829.4552924469201
 21
1134.52203356624
 31
0.0
  0
LINE
  5
331
330
22
100
AcDbEntity
  8
_4-7_
  6
Continuous
 62
     7
100
AcDbLine
 10
829.6098977099823
 20
1134.621197341346
 30
0.0
 11
830.1252485868564
 21
1134.339733323753
 31
0.0
  0
LINE
  5
332
330
22
100
AcDbEntity
  8
_4-7_
  6
Continuous
 62
     7
100
AcDbLine
 10
830.1252485868564
 20
1134.339733323753
 30
0.0
 11
830.423655754979
 21
1134.339733228675
 31
0.0
  0
LINE
  5
333
330
22
100
AcDbEntity
  8
_4-7_
  6
Continuous
 62
     7
100
AcDbLine
 10
830.423655754979
 20
1134.339733228675
 30
0.0
 11
830.4344591129824
 21
1134.557253480003
 31
0.0
  0
LINE
  5
334
330
22
100
AcDbEntity
  8
_4-7_
  6
Continuous
 62
     7
100
AcDbLine
 10
830.589064376045
 20
1134.656997073578
 30
0.0
 11
831.10441525292
 21
1134.339733323753
 31
0.0
  0
LINE
  5
335
330
22
100
AcDbEntity
  8
_4-7_
  6
Continuous
 62
     7
100
AcDbLine
 10
831.10441525292
 20
1134.339733323753
 30
0.0
 11
831.4028224786124
 21
1134.339733323753
 31
0.0
  0
LINE
  5
336
330
22
100
AcDbEntity
  8
_4-7_
  6
Continuous
 62
     7
100
AcDbLine
 10
831.4028224786124
 20
1134.339733323753
 30
0.0
 11
831.4136257790448
 21
1134.557253480003
 31
0.0
  0
LINE
  5
337
330
22
100
AcDbEntity
  8
_4-7_
  6
Continuous
 62
     7
100
AcDbLine
 10
831.5682310421072
 20
1134.656997073578
 30
0.0
 11
832.0835819189824
 21
1134.339733323753
 31
0.0
  0
LINE
  5
338
330
22
100
AcDbEntity
  8
_4-7_
  6
Continuous
 62
     7
100
AcDbLine
 10
832.0835819189824
 20
1134.339733323753
 30
0.0
 11
832.3819891446749
 21
1134.339733323753
 31
0.0
  0
LINE
  5
339
330
22
100
AcDbEntity
  8
_4-7_
  6
Continuous
 62
     7
100
AcDbLine
 10
832.3819891446749
 20
1134.339733323753
 30
0.0
 11
832.3927924451073
 21
1134.557253480003
 31
0.0
  0
LINE
  5
33A
330
22
100
AcDbEntity
  8
_4-7_
  6
Continuous
 62
     7
100
AcDbLine
 10
832.5473977081696
 20
1134.656997073578
 30
0.0
 11
833.0627485850447
 21
1134.339733228675
 31
0.0
  0
LINE
  5
33B
330
22
100
AcDbEntity
  8
_4-7_
  6
Continuous
 62
     7
100
AcDbLine
 10
833.0627485850447
 20
1134.339733228675
 30
0.0
 11
833.3719591111695
 21
1134.339733323753
 31
0.0
  0
LINE
  5
33C
330
22
100
AcDbEntity
  8
_4-7_
  6
Continuous
 62
     7
100
AcDbLine
 10
834.041915472221
 20
1134.319366400806
 30
0.0
 11
834.3403226403427
 21
1134.321669651584
 31
0.0
  0
LINE
  5
33D
330
22
100
AcDbEntity
  8
_4-7_
  6
Continuous
 62
     7
100
AcDbLine
 10
834.3403226403427
 20
1134.321669651584
 30
0.0
 11
834.351125777232
 21
1134.520072698753
 31
0.0
  0
LINE
  5
33E
330
22
100
AcDbEntity
  8
_4-7_
  6
Continuous
 62
     7
100
AcDbLine
 10
834.5057310402943
 20
1134.621380286453
 30
0.0
 11
835.0210819171694
 21
1134.339733228675
 31
0.0
  0
LINE
  5
33F
330
22
100
AcDbEntity
  8
_4-7_
  6
Continuous
 62
     7
100
AcDbLine
 10
835.0210819171694
 20
1134.339733228675
 30
0.0
 11
835.3194890852909
 21
1134.339733228675
 31
0.0
  0
LINE
  5
340
330
22
100
AcDbEntity
  8
_4-7_
  6
Continuous
 62
     7
100
AcDbLine
 10
835.3194890852909
 20
1134.339733228675
 30
0.0
 11
835.3302924432943
 21
1134.557253480003
 31
0.0
  0
LINE
  5
341
330
22
100
AcDbEntity
  8
_4-7_
  6
Continuous
 62
     7
100
AcDbLine
 10
835.4848977063568
 20
1134.656997073578
 30
0.0
 11
836.0002485832318
 21
1134.339733323753
 31
0.0
  0
LINE
  5
342
330
22
100
AcDbEntity
  8
_4-7_
  6
Continuous
 62
     7
100
AcDbLine
 10
836.0002485832318
 20
1134.339733323753
 30
0.0
 11
836.2986557513533
 21
1134.339733228675
 31
0.0
  0
LINE
  5
343
330
22
100
AcDbEntity
  8
_4-7_
  6
Continuous
 62
     7
100
AcDbLine
 10
836.2986557513533
 20
1134.339733228675
 30
0.0
 11
836.3096038475818
 21
1134.557807287808
 31
0.0
  0
LINE
  5
344
330
22
100
AcDbEntity
  8
_4-7_
  6
Continuous
 62
     7
100
AcDbLine
 10
836.4640643724204
 20
1134.656997073578
 30
0.0
 11
836.9794152492943
 21
1134.339733228675
 31
0.0
  0
LINE
  5
345
330
22
100
AcDbEntity
  8
_4-7_
  6
Continuous
 62
     7
100
AcDbLine
 10
836.9794152492943
 20
1134.339733228675
 30
0.0
 11
837.2886257754192
 21
1134.339733327194
 31
0.0
  0
LINE
  5
346
330
22
100
AcDbEntity
  8
_4-7_
  6
Continuous
 62
     7
100
AcDbLine
 10
828.4761257808577
 20
1134.339733323753
 30
0.0
 11
828.4761257808577
 21
1134.002957542503
 31
0.0
  0
LINE
  5
347
330
22
100
AcDbEntity
  8
_4-7_
  6
Continuous
 62
     7
100
AcDbLine
 10
828.4761257808577
 20
1134.002957542503
 30
0.0
 11
826.4459746965838
 21
1134.002957542503
 31
0.0
  0
LINE
  5
348
330
22
100
AcDbEntity
  8
_4-7_
  6
Continuous
 62
     7
100
AcDbLine
 10
826.4459746965838
 20
1134.002957542503
 30
0.0
 11
824.2502485904822
 21
1134.319073636253
 31
0.0
  0
LINE
  5
349
330
22
100
AcDbEntity
  8
_4-7_
  6
Continuous
 62
     7
100
AcDbLine
 10
824.2502485904822
 20
1134.319073636253
 30
0.0
 11
824.5486555180706
 21
1134.319532709793
 31
0.0
  0
LINE
  5
34A
330
22
100
AcDbEntity
  8
_4-7_
  6
Continuous
 62
     7
100
AcDbLine
 10
824.5486555180706
 20
1134.319532709793
 30
0.0
 11
824.5594591166071
 21
1134.512463011253
 31
0.0
  0
LINE
  5
34B
330
22
100
AcDbEntity
  8
_4-7_
  6
Continuous
 62
     7
100
AcDbLine
 10
824.2502485904822
 20
1134.319073636253
 30
0.0
 11
823.7348977136072
 21
1134.589996642857
 31
0.0
  0
LINE
  5
34C
330
22
100
AcDbEntity
  8
_4-7_
  6
Continuous
 62
     7
100
AcDbLine
 10
824.7140643796694
 20
1134.602810864246
 30
0.0
 11
825.2294152565445
 21
1134.321184405832
 31
0.0
  0
LINE
  5
34D
330
22
100
AcDbEntity
  8
_4-7_
  6
Continuous
 62
     7
100
AcDbLine
 10
825.2294152565445
 20
1134.321184405832
 30
0.0
 11
825.5278221841319
 21
1134.322487470997
 31
0.0
  0
LINE
  5
34E
330
22
100
AcDbEntity
  8
_4-7_
  6
Continuous
 62
     7
100
AcDbLine
 10
825.5278221841319
 20
1134.322487470997
 30
0.0
 11
825.5386257826696
 21
1134.523941761253
 31
0.0
  0
LINE
  5
34F
330
22
100
AcDbEntity
  8
_4-7_
  6
Continuous
 62
     7
100
AcDbLine
 10
825.6932310457319
 20
1134.616757696139
 30
0.0
 11
826.208581682073
 21
1134.326840284062
 31
0.0
  0
LINE
  5
350
330
22
100
AcDbEntity
  8
_4-7_
  6
Continuous
 62
     7
100
AcDbLine
 10
826.208581682073
 20
1134.326840284062
 30
0.0
 11
826.5069888501955
 21
1134.329379559496
 31
0.0
  0
LINE
  5
351
330
22
100
AcDbEntity
  8
_4-7_
  6
Continuous
 62
     7
100
AcDbLine
 10
826.5069888501955
 20
1134.329379559496
 30
0.0
 11
826.5177924487318
 21
1134.538537906539
 31
0.0
  0
LINE
  5
352
330
22
100
AcDbEntity
  8
_4-7_
  6
Continuous
 62
     7
100
AcDbLine
 10
826.6723977117942
 20
1134.636822041644
 30
0.0
 11
827.1877483481365
 21
1134.336695401516
 31
0.0
  0
LINE
  5
353
330
22
100
AcDbEntity
  8
_4-7_
  6
Continuous
 62
     7
100
AcDbLine
 10
827.1877483481365
 20
1134.336695401516
 30
0.0
 11
827.4861558143618
 21
1134.339733323753
 31
0.0
  0
LINE
  5
354
330
22
100
AcDbEntity
  8
_4-7_
  6
Continuous
 62
     7
100
AcDbLine
 10
827.4861558143618
 20
1134.339733323753
 30
0.0
 11
827.4969591147954
 21
1134.557253480003
 31
0.0
  0
LINE
  5
355
330
22
100
AcDbEntity
  8
_4-7_
  6
Continuous
 62
     7
100
AcDbLine
 10
827.6515643778566
 20
1134.656997073578
 30
0.0
 11
828.1669152547316
 21
1134.339733228675
 31
0.0
  0
LINE
  5
356
330
22
100
AcDbEntity
  8
_4-7_
  6
Continuous
 62
     7
100
AcDbLine
 10
828.1669152547316
 20
1134.339733228675
 30
0.0
 11
828.4761257808577
 21
1134.339733323753
 31
0.0
  0
LINE
  5
357
330
22
100
AcDbEntity
  8
_4-7_
  6
Continuous
 62
     7
100
AcDbLine
 10
823.5802924505446
 20
1134.508806761252
 30
0.0
 11
823.5802924505446
 21
1134.424832542503
 31
0.0
  0
LINE
  5
358
330
22
100
AcDbEntity
  8
_4-7_
  6
Continuous
 62
     7
100
AcDbLine
 10
823.5802924505446
 20
1134.424832542503
 30
0.0
 11
823.0907091175129
 21
1134.424832542503
 31
0.0
  0
LINE
  5
359
330
22
100
AcDbEntity
  8
_4-7_
  6
Continuous
 62
     7
100
AcDbLine
 10
823.0907091175129
 20
1134.424832542503
 30
0.0
 11
823.0907091175129
 21
1134.518582542502
 31
0.0
  0
LINE
  5
35A
330
22
100
AcDbEntity
  8
_4-7_
  6
Continuous
 62
     7
100
AcDbLine
 10
823.0907091175129
 20
1134.518582542502
 30
0.0
 11
822.0857749076069
 21
1134.518582542502
 31
0.0
  0
LINE
  5
35B
330
22
100
AcDbEntity
  8
_4-7_
  6
Continuous
 62
     7
100
AcDbLine
 10
822.0857749076069
 20
1134.518582542502
 30
0.0
 11
822.0857749076069
 21
1134.522624299254
 31
0.0
  0
LINE
  5
35C
330
22
100
AcDbEntity
  8
_4-7_
  6
Continuous
 62
     7
100
AcDbLine
 10
821.8796345568568
 20
1134.554046292503
 30
0.0
 11
818.1606085613452
 21
1134.554046384089
 31
0.0
  0
LINE
  5
35D
330
22
100
AcDbEntity
  8
_4-7_
  6
Continuous
 62
     7
100
AcDbLine
 10
818.1606085613452
 20
1134.554046384089
 30
0.0
 11
817.7534705462447
 21
1134.829319730003
 31
0.0
  0
LINE
  5
35E
330
22
100
AcDbEntity
  8
_4-7_
  6
Continuous
 62
     7
100
AcDbLine
 10
817.7534705462447
 20
1134.829319730003
 30
0.0
 11
816.9322661388571
 21
1135.456082542502
 31
0.0
  0
LINE
  5
35F
330
22
100
AcDbEntity
  8
_4-7_
  6
Continuous
 62
     7
100
AcDbLine
 10
816.9322661388571
 20
1135.456082542502
 30
0.0
 11
816.9322661388571
 21
1135.549444092187
 31
0.0
  0
LINE
  5
360
330
22
100
AcDbEntity
  8
_4-7_
  6
Continuous
 62
     7
100
AcDbLine
 10
816.9322661388571
 20
1135.549444092187
 30
0.0
 11
818.1606085613452
 21
1134.871260273865
 31
0.0
  0
LINE
  5
361
330
22
100
AcDbEntity
  8
_4-7_
  6
Continuous
 62
     7
100
AcDbLine
 10
818.1606085613452
 20
1134.871260273865
 30
0.0
 11
820.6427924523575
 21
1134.871260198754
 31
0.0
  0
LINE
  5
362
330
22
100
AcDbEntity
  8
_4-7_
  6
Continuous
 62
     7
100
AcDbLine
 10
820.6427924523575
 20
1135.235862386252
 30
0.0
 11
818.1606086567819
 21
1135.235862215358
 31
0.0
  0
LINE
  5
363
330
22
100
AcDbEntity
  8
_4-7_
  6
Continuous
 62
     7
100
AcDbLine
 10
818.1606086567819
 20
1135.235862215358
 30
0.0
 11
816.9322661388571
 21
1135.914046193628
 31
0.0
  0
LINE
  5
364
330
22
100
AcDbEntity
  8
_4-7_
  6
Continuous
 62
     7
100
AcDbLine
 10
816.9322661388571
 20
1135.914046193628
 30
0.0
 11
816.9322661388571
 21
1136.299832542503
 31
0.0
  0
LINE
  5
365
330
22
100
AcDbEntity
  8
_4-7_
  6
Continuous
 62
     7
100
AcDbLine
 10
837.4559806713982
 20
1134.688769976826
 30
0.0
 11
837.4559806713982
 21
1134.688769976826
 31
0.0
  0
LINE
  5
366
330
22
100
AcDbEntity
  8
_4-7_
  6
Continuous
 62
     7
100
AcDbLine
 10
837.4559806713982
 20
1134.688769976826
 30
0.0
 11
837.4395685742879
 21
1134.697018805173
 31
0.0
  0
LINE
  5
367
330
22
100
AcDbEntity
  8
_4-7_
  6
Continuous
 62
     7
100
AcDbLine
 10
837.4395685742879
 20
1134.697018805173
 30
0.0
 11
837.4218310180571
 21
1134.70255009103
 31
0.0
  0
LINE
  5
368
330
22
100
AcDbEntity
  8
_4-7_
  6
Continuous
 62
     7
100
AcDbLine
 10
837.4218310180571
 20
1134.70255009103
 30
0.0
 11
837.4033069493769
 21
1134.705195769075
 31
0.0
  0
LINE
  5
369
330
22
100
AcDbEntity
  8
_4-7_
  6
Continuous
 62
     7
100
AcDbLine
 10
837.4033069493769
 20
1134.705195769075
 30
0.0
 11
837.3845592127002
 21
1134.704875451721
 31
0.0
  0
LINE
  5
36A
330
22
100
AcDbEntity
  8
_4-7_
  6
Continuous
 62
     7
100
AcDbLine
 10
837.3845592127002
 20
1134.704875451721
 30
0.0
 11
837.3661574485188
 21
1134.701598871647
 31
0.0
  0
LINE
  5
36B
330
22
100
AcDbEntity
  8
_4-7_
  6
Continuous
 62
     7
100
AcDbLine
 10
837.3661574485188
 20
1134.701598871647
 30
0.0
 11
837.3486607851262
 21
1134.695465586081
 31
0.0
  0
LINE
  5
36C
330
22
100
AcDbEntity
  8
_4-7_
  6
Continuous
 62
     7
100
AcDbLine
 10
837.3486607851262
 20
1134.695465586081
 30
0.0
 11
837.3326008497853
 21
1134.686661951802
 31
0.0
  0
LINE
  5
36D
330
22
100
AcDbEntity
  8
_4-7_
  6
Continuous
 62
     7
100
AcDbLine
 10
837.3326008497853
 20
1134.686661951802
 30
0.0
 11
837.318465615505
 21
1134.675455462782
 31
0.0
  0
LINE
  5
36E
330
22
100
AcDbEntity
  8
_4-7_
  6
Continuous
 62
     7
100
AcDbLine
 10
837.318465615505
 20
1134.675455462782
 30
0.0
 11
837.3066845742261
 21
1134.662186622519
 31
0.0
  0
LINE
  5
36F
330
22
100
AcDbEntity
  8
_4-7_
  6
Continuous
 62
     7
100
AcDbLine
 10
837.3066845742261
 20
1134.662186622519
 30
0.0
 11
837.2976156869267
 21
1134.64725859801
 31
0.0
  0
LINE
  5
370
330
22
100
AcDbEntity
  8
_4-7_
  6
Continuous
 62
     7
100
AcDbLine
 10
837.2976156869267
 20
1134.64725859801
 30
0.0
 11
837.2915345071577
 21
1134.631124969727
 31
0.0
  0
LINE
  5
371
330
22
100
AcDbEntity
  8
_4-7_
  6
Continuous
 62
     7
100
AcDbLine
 10
837.2915345071577
 20
1134.631124969727
 30
0.0
 11
837.2886258084895
 21
1134.6142759498
 31
0.0
  0
LINE
  5
372
330
22
100
AcDbEntity
  8
_4-7_
  6
Continuous
 62
     7
100
AcDbLine
 10
837.2886258084895
 20
1134.6142759498
 30
0.0
 11
837.2886257754192
 21
1134.614275511253
 31
0.0
  0
LINE
  5
373
330
22
100
AcDbEntity
  8
_4-7_
  6
Continuous
 62
     7
100
AcDbLine
 10
836.46406437242
 20
1134.656997073578
 30
0.0
 11
836.46406437242
 21
1134.656997073578
 31
0.0
  0
LINE
  5
374
330
22
100
AcDbEntity
  8
_4-7_
  6
Continuous
 62
     7
100
AcDbLine
 10
836.46406437242
 20
1134.656997073578
 30
0.0
 11
836.4390905261771
 21
1134.65741651457
 31
0.0
  0
LINE
  5
375
330
22
100
AcDbEntity
  8
_4-7_
  6
Continuous
 62
     7
100
AcDbLine
 10
836.4390905261771
 20
1134.65741651457
 30
0.0
 11
836.4144160126883
 21
1134.653885065468
 31
0.0
  0
LINE
  5
376
330
22
100
AcDbEntity
  8
_4-7_
  6
Continuous
 62
     7
100
AcDbLine
 10
836.4144160126883
 20
1134.653885065468
 30
0.0
 11
836.3907905545596
 21
1134.646510027565
 31
0.0
  0
LINE
  5
377
330
22
100
AcDbEntity
  8
_4-7_
  6
Continuous
 62
     7
100
AcDbLine
 10
836.3907905545596
 20
1134.646510027565
 30
0.0
 11
836.3689319993815
 21
1134.635515487656
 31
0.0
  0
LINE
  5
378
330
22
100
AcDbEntity
  8
_4-7_
  6
Continuous
 62
     7
100
AcDbLine
 10
836.3689319993815
 20
1134.635515487656
 30
0.0
 11
836.3495045082919
 21
1134.621235509273
 31
0.0
  0
LINE
  5
379
330
22
100
AcDbEntity
  8
_4-7_
  6
Continuous
 62
     7
100
AcDbLine
 10
836.3495045082919
 20
1134.621235509273
 30
0.0
 11
836.3330983757766
 21
1134.604103982333
 31
0.0
  0
LINE
  5
37A
330
22
100
AcDbEntity
  8
_4-7_
  6
Continuous
 62
     7
100
AcDbLine
 10
836.3330983757766
 20
1134.604103982333
 30
0.0
 11
836.3202120938705
 21
1134.584641439613
 31
0.0
  0
LINE
  5
37B
330
22
100
AcDbEntity
  8
_4-7_
  6
Continuous
 62
     7
100
AcDbLine
 10
836.3202120938705
 20
1134.584641439613
 30
0.0
 11
836.3112372057285
 21
1134.563439240626
 31
0.0
  0
LINE
  5
37C
330
22
100
AcDbEntity
  8
_4-7_
  6
Continuous
 62
     7
100
AcDbLine
 10
836.3112372057285
 20
1134.563439240626
 30
0.0
 11
836.3094591093574
 21
1134.557253480003
 31
0.0
  0
LINE
  5
37D
330
22
100
AcDbEntity
  8
_4-7_
  6
Continuous
 62
     7
100
AcDbLine
 10
835.4848977063566
 20
1134.656997073578
 30
0.0
 11
835.4848977063566
 21
1134.656997073578
 31
0.0
  0
LINE
  5
37E
330
22
100
AcDbEntity
  8
_4-7_
  6
Continuous
 62
     7
100
AcDbLine
 10
835.4848977063566
 20
1134.656997073578
 30
0.0
 11
835.4599238601137
 21
1134.65741651457
 31
0.0
  0
LINE
  5
37F
330
22
100
AcDbEntity
  8
_4-7_
  6
Continuous
 62
     7
100
AcDbLine
 10
835.4599238601137
 20
1134.65741651457
 30
0.0
 11
835.4352493466249
 21
1134.653885065468
 31
0.0
  0
LINE
  5
380
330
22
100
AcDbEntity
  8
_4-7_
  6
Continuous
 62
     7
100
AcDbLine
 10
835.4352493466249
 20
1134.653885065468
 30
0.0
 11
835.4116238884961
 21
1134.646510027565
 31
0.0
  0
LINE
  5
381
330
22
100
AcDbEntity
  8
_4-7_
  6
Continuous
 62
     7
100
AcDbLine
 10
835.4116238884961
 20
1134.646510027565
 30
0.0
 11
835.3897653333179
 21
1134.635515487656
 31
0.0
  0
LINE
  5
382
330
22
100
AcDbEntity
  8
_4-7_
  6
Continuous
 62
     7
100
AcDbLine
 10
835.3897653333179
 20
1134.635515487656
 30
0.0
 11
835.3703378422284
 21
1134.621235509273
 31
0.0
  0
LINE
  5
383
330
22
100
AcDbEntity
  8
_4-7_
  6
Continuous
 62
     7
100
AcDbLine
 10
835.3703378422284
 20
1134.621235509273
 30
0.0
 11
835.3539317097132
 21
1134.604103982333
 31
0.0
  0
LINE
  5
384
330
22
100
AcDbEntity
  8
_4-7_
  6
Continuous
 62
     7
100
AcDbLine
 10
835.3539317097132
 20
1134.604103982333
 30
0.0
 11
835.3410454278069
 21
1134.584641439613
 31
0.0
  0
LINE
  5
385
330
22
100
AcDbEntity
  8
_4-7_
  6
Continuous
 62
     7
100
AcDbLine
 10
835.3410454278069
 20
1134.584641439613
 30
0.0
 11
835.3320705396651
 21
1134.563439240626
 31
0.0
  0
LINE
  5
386
330
22
100
AcDbEntity
  8
_4-7_
  6
Continuous
 62
     7
100
AcDbLine
 10
835.3320705396651
 20
1134.563439240626
 30
0.0
 11
835.330292443294
 21
1134.557253480003
 31
0.0
  0
LINE
  5
387
330
22
100
AcDbEntity
  8
_4-7_
  6
Continuous
 62
     7
100
AcDbLine
 10
834.5057310402943
 20
1134.621380286453
 30
0.0
 11
834.5057310402943
 21
1134.621380286453
 31
0.0
  0
LINE
  5
388
330
22
100
AcDbEntity
  8
_4-7_
  6
Continuous
 62
     7
100
AcDbLine
 10
834.5057310402943
 20
1134.621380286453
 30
0.0
 11
834.4807571940513
 21
1134.621799727445
 31
0.0
  0
LINE
  5
389
330
22
100
AcDbEntity
  8
_4-7_
  6
Continuous
 62
     7
100
AcDbLine
 10
834.4807571940513
 20
1134.621799727445
 30
0.0
 11
834.4560826805624
 21
1134.618268278342
 31
0.0
  0
LINE
  5
38A
330
22
100
AcDbEntity
  8
_4-7_
  6
Continuous
 62
     7
100
AcDbLine
 10
834.4560826805624
 20
1134.618268278342
 30
0.0
 11
834.4324572224337
 21
1134.610893240439
 31
0.0
  0
LINE
  5
38B
330
22
100
AcDbEntity
  8
_4-7_
  6
Continuous
 62
     7
100
AcDbLine
 10
834.4324572224337
 20
1134.610893240439
 30
0.0
 11
834.4105986672555
 21
1134.59989870053
 31
0.0
  0
LINE
  5
38C
330
22
100
AcDbEntity
  8
_4-7_
  6
Continuous
 62
     7
100
AcDbLine
 10
834.4105986672555
 20
1134.59989870053
 30
0.0
 11
834.3911711761659
 21
1134.585618722147
 31
0.0
  0
LINE
  5
38D
330
22
100
AcDbEntity
  8
_4-7_
  6
Continuous
 62
     7
100
AcDbLine
 10
834.3911711761659
 20
1134.585618722147
 30
0.0
 11
834.3747650436508
 21
1134.568487195208
 31
0.0
  0
LINE
  5
38E
330
22
100
AcDbEntity
  8
_4-7_
  6
Continuous
 62
     7
100
AcDbLine
 10
834.3747650436508
 20
1134.568487195208
 30
0.0
 11
834.3618787617447
 21
1134.549024652488
 31
0.0
  0
LINE
  5
38F
330
22
100
AcDbEntity
  8
_4-7_
  6
Continuous
 62
     7
100
AcDbLine
 10
834.3618787617447
 20
1134.549024652488
 30
0.0
 11
834.3529038736026
 21
1134.5278224535
 31
0.0
  0
LINE
  5
390
330
22
100
AcDbEntity
  8
_4-7_
  6
Continuous
 62
     7
100
AcDbLine
 10
834.3529038736026
 20
1134.5278224535
 30
0.0
 11
834.3511257772314
 21
1134.521636692877
 31
0.0
  0
LINE
  5
391
330
22
100
AcDbEntity
  8
_4-7_
  6
Continuous
 62
     7
100
AcDbLine
 10
832.5473977081692
 20
1134.656997073578
 30
0.0
 11
832.5473977081692
 21
1134.656997073578
 31
0.0
  0
LINE
  5
392
330
22
100
AcDbEntity
  8
_4-7_
  6
Continuous
 62
     7
100
AcDbLine
 10
832.5473977081692
 20
1134.656997073578
 30
0.0
 11
832.5224238619265
 21
1134.65741651457
 31
0.0
  0
LINE
  5
393
330
22
100
AcDbEntity
  8
_4-7_
  6
Continuous
 62
     7
100
AcDbLine
 10
832.5224238619265
 20
1134.65741651457
 30
0.0
 11
832.4977493484377
 21
1134.653885065468
 31
0.0
  0
LINE
  5
394
330
22
100
AcDbEntity
  8
_4-7_
  6
Continuous
 62
     7
100
AcDbLine
 10
832.4977493484377
 20
1134.653885065468
 30
0.0
 11
832.474123890309
 21
1134.646510027565
 31
0.0
  0
LINE
  5
395
330
22
100
AcDbEntity
  8
_4-7_
  6
Continuous
 62
     7
100
AcDbLine
 10
832.474123890309
 20
1134.646510027565
 30
0.0
 11
832.4522653351309
 21
1134.635515487656
 31
0.0
  0
LINE
  5
396
330
22
100
AcDbEntity
  8
_4-7_
  6
Continuous
 62
     7
100
AcDbLine
 10
832.4522653351309
 20
1134.635515487656
 30
0.0
 11
832.432837844041
 21
1134.621235509273
 31
0.0
  0
LINE
  5
397
330
22
100
AcDbEntity
  8
_4-7_
  6
Continuous
 62
     7
100
AcDbLine
 10
832.432837844041
 20
1134.621235509273
 30
0.0
 11
832.4164317115259
 21
1134.604103982333
 31
0.0
  0
LINE
  5
398
330
22
100
AcDbEntity
  8
_4-7_
  6
Continuous
 62
     7
100
AcDbLine
 10
832.4164317115259
 20
1134.604103982333
 30
0.0
 11
832.4035454296199
 21
1134.584641439613
 31
0.0
  0
LINE
  5
399
330
22
100
AcDbEntity
  8
_4-7_
  6
Continuous
 62
     7
100
AcDbLine
 10
832.4035454296199
 20
1134.584641439613
 30
0.0
 11
832.3945705414779
 21
1134.563439240626
 31
0.0
  0
LINE
  5
39A
330
22
100
AcDbEntity
  8
_4-7_
  6
Continuous
 62
     7
100
AcDbLine
 10
832.3945705414779
 20
1134.563439240626
 30
0.0
 11
832.3927924451067
 21
1134.557253480003
 31
0.0
  0
LINE
  5
39B
330
22
100
AcDbEntity
  8
_4-7_
  6
Continuous
 62
     7
100
AcDbLine
 10
831.5682310421069
 20
1134.656997073578
 30
0.0
 11
831.5682310421069
 21
1134.656997073578
 31
0.0
  0
LINE
  5
39C
330
22
100
AcDbEntity
  8
_4-7_
  6
Continuous
 62
     7
100
AcDbLine
 10
831.5682310421069
 20
1134.656997073578
 30
0.0
 11
831.5432571958641
 21
1134.65741651457
 31
0.0
  0
LINE
  5
39D
330
22
100
AcDbEntity
  8
_4-7_
  6
Continuous
 62
     7
100
AcDbLine
 10
831.5432571958641
 20
1134.65741651457
 30
0.0
 11
831.5185826823753
 21
1134.653885065468
 31
0.0
  0
LINE
  5
39E
330
22
100
AcDbEntity
  8
_4-7_
  6
Continuous
 62
     7
100
AcDbLine
 10
831.5185826823753
 20
1134.653885065468
 30
0.0
 11
831.4949572242468
 21
1134.646510027565
 31
0.0
  0
LINE
  5
39F
330
22
100
AcDbEntity
  8
_4-7_
  6
Continuous
 62
     7
100
AcDbLine
 10
831.4949572242468
 20
1134.646510027565
 30
0.0
 11
831.4730986690685
 21
1134.635515487656
 31
0.0
  0
LINE
  5
3A0
330
22
100
AcDbEntity
  8
_4-7_
  6
Continuous
 62
     7
100
AcDbLine
 10
831.4730986690685
 20
1134.635515487656
 30
0.0
 11
831.4536711779787
 21
1134.621235509273
 31
0.0
  0
LINE
  5
3A1
330
22
100
AcDbEntity
  8
_4-7_
  6
Continuous
 62
     7
100
AcDbLine
 10
831.4536711779787
 20
1134.621235509273
 30
0.0
 11
831.4372650454636
 21
1134.604103982333
 31
0.0
  0
LINE
  5
3A2
330
22
100
AcDbEntity
  8
_4-7_
  6
Continuous
 62
     7
100
AcDbLine
 10
831.4372650454636
 20
1134.604103982333
 30
0.0
 11
831.4243787635573
 21
1134.584641439613
 31
0.0
  0
LINE
  5
3A3
330
22
100
AcDbEntity
  8
_4-7_
  6
Continuous
 62
     7
100
AcDbLine
 10
831.4243787635573
 20
1134.584641439613
 30
0.0
 11
831.4154038754153
 21
1134.563439240626
 31
0.0
  0
LINE
  5
3A4
330
22
100
AcDbEntity
  8
_4-7_
  6
Continuous
 62
     7
100
AcDbLine
 10
831.4154038754153
 20
1134.563439240626
 30
0.0
 11
831.4136257790446
 21
1134.557253480003
 31
0.0
  0
LINE
  5
3A5
330
22
100
AcDbEntity
  8
_4-7_
  6
Continuous
 62
     7
100
AcDbLine
 10
830.5890643760445
 20
1134.656997073578
 30
0.0
 11
830.5890643760445
 21
1134.656997073578
 31
0.0
  0
LINE
  5
3A6
330
22
100
AcDbEntity
  8
_4-7_
  6
Continuous
 62
     7
100
AcDbLine
 10
830.5890643760445
 20
1134.656997073578
 30
0.0
 11
830.5640905298018
 21
1134.65741651457
 31
0.0
  0
LINE
  5
3A7
330
22
100
AcDbEntity
  8
_4-7_
  6
Continuous
 62
     7
100
AcDbLine
 10
830.5640905298018
 20
1134.65741651457
 30
0.0
 11
830.539416016313
 21
1134.653885065468
 31
0.0
  0
LINE
  5
3A8
330
22
100
AcDbEntity
  8
_4-7_
  6
Continuous
 62
     7
100
AcDbLine
 10
830.539416016313
 20
1134.653885065468
 30
0.0
 11
830.5157905581843
 21
1134.646510027565
 31
0.0
  0
LINE
  5
3A9
330
22
100
AcDbEntity
  8
_4-7_
  6
Continuous
 62
     7
100
AcDbLine
 10
830.5157905581843
 20
1134.646510027565
 30
0.0
 11
830.493932003006
 21
1134.635515487656
 31
0.0
  0
LINE
  5
3AA
330
22
100
AcDbEntity
  8
_4-7_
  6
Continuous
 62
     7
100
AcDbLine
 10
830.493932003006
 20
1134.635515487656
 30
0.0
 11
830.4745045119165
 21
1134.621235509273
 31
0.0
  0
LINE
  5
3AB
330
22
100
AcDbEntity
  8
_4-7_
  6
Continuous
 62
     7
100
AcDbLine
 10
830.4745045119165
 20
1134.621235509273
 30
0.0
 11
830.4580983794012
 21
1134.604103982333
 31
0.0
  0
LINE
  5
3AC
330
22
100
AcDbEntity
  8
_4-7_
  6
Continuous
 62
     7
100
AcDbLine
 10
830.4580983794012
 20
1134.604103982333
 30
0.0
 11
830.445212097495
 21
1134.584641439613
 31
0.0
  0
LINE
  5
3AD
330
22
100
AcDbEntity
  8
_4-7_
  6
Continuous
 62
     7
100
AcDbLine
 10
830.445212097495
 20
1134.584641439613
 30
0.0
 11
830.436237209353
 21
1134.563439240626
 31
0.0
  0
LINE
  5
3AE
330
22
100
AcDbEntity
  8
_4-7_
  6
Continuous
 62
     7
100
AcDbLine
 10
830.436237209353
 20
1134.563439240626
 30
0.0
 11
830.4344591129821
 21
1134.557253480003
 31
0.0
  0
LINE
  5
3AF
330
22
100
AcDbEntity
  8
_4-7_
  6
Continuous
 62
     7
100
AcDbLine
 10
829.6098977099823
 20
1134.621197341346
 30
0.0
 11
829.6098977099823
 21
1134.621197341346
 31
0.0
  0
LINE
  5
3B0
330
22
100
AcDbEntity
  8
_4-7_
  6
Continuous
 62
     7
100
AcDbLine
 10
829.6098977099823
 20
1134.621197341346
 30
0.0
 11
829.5849238637394
 21
1134.621616782337
 31
0.0
  0
LINE
  5
3B1
330
22
100
AcDbEntity
  8
_4-7_
  6
Continuous
 62
     7
100
AcDbLine
 10
829.5849238637394
 20
1134.621616782337
 30
0.0
 11
829.5602493502505
 21
1134.618085333235
 31
0.0
  0
LINE
  5
3B2
330
22
100
AcDbEntity
  8
_4-7_
  6
Continuous
 62
     7
100
AcDbLine
 10
829.5602493502505
 20
1134.618085333235
 30
0.0
 11
829.5366238921218
 21
1134.610710295332
 31
0.0
  0
LINE
  5
3B3
330
22
100
AcDbEntity
  8
_4-7_
  6
Continuous
 62
     7
100
AcDbLine
 10
829.5366238921218
 20
1134.610710295332
 30
0.0
 11
829.5147653369438
 21
1134.599715755423
 31
0.0
  0
LINE
  5
3B4
330
22
100
AcDbEntity
  8
_4-7_
  6
Continuous
 62
     7
100
AcDbLine
 10
829.5147653369438
 20
1134.599715755423
 30
0.0
 11
829.4953378458542
 21
1134.58543577704
 31
0.0
  0
LINE
  5
3B5
330
22
100
AcDbEntity
  8
_4-7_
  6
Continuous
 62
     7
100
AcDbLine
 10
829.4953378458542
 20
1134.58543577704
 30
0.0
 11
829.4789317133389
 21
1134.5683042501
 31
0.0
  0
LINE
  5
3B6
330
22
100
AcDbEntity
  8
_4-7_
  6
Continuous
 62
     7
100
AcDbLine
 10
829.4789317133389
 20
1134.5683042501
 30
0.0
 11
829.4660454314328
 21
1134.548841707381
 31
0.0
  0
LINE
  5
3B7
330
22
100
AcDbEntity
  8
_4-7_
  6
Continuous
 62
     7
100
AcDbLine
 10
829.4660454314328
 20
1134.548841707381
 30
0.0
 11
829.4570705432905
 21
1134.527639508393
 31
0.0
  0
LINE
  5
3B8
330
22
100
AcDbEntity
  8
_4-7_
  6
Continuous
 62
     7
100
AcDbLine
 10
829.4570705432905
 20
1134.527639508393
 30
0.0
 11
829.4552924469195
 21
1134.52145374777
 31
0.0
  0
LINE
  5
3B9
330
22
100
AcDbEntity
  8
_4-7_
  6
Continuous
 62
     7
100
AcDbLine
 10
827.6515643778575
 20
1134.656997073578
 30
0.0
 11
827.6515643778575
 21
1134.656997073578
 31
0.0
  0
LINE
  5
3BA
330
22
100
AcDbEntity
  8
_4-7_
  6
Continuous
 62
     7
100
AcDbLine
 10
827.6515643778575
 20
1134.656997073578
 30
0.0
 11
827.6265905316147
 21
1134.65741651457
 31
0.0
  0
LINE
  5
3BB
330
22
100
AcDbEntity
  8
_4-7_
  6
Continuous
 62
     7
100
AcDbLine
 10
827.6265905316147
 20
1134.65741651457
 30
0.0
 11
827.6019160181258
 21
1134.653885065468
 31
0.0
  0
LINE
  5
3BC
330
22
100
AcDbEntity
  8
_4-7_
  6
Continuous
 62
     7
100
AcDbLine
 10
827.6019160181258
 20
1134.653885065468
 30
0.0
 11
827.5782905599973
 21
1134.646510027565
 31
0.0
  0
LINE
  5
3BD
330
22
100
AcDbEntity
  8
_4-7_
  6
Continuous
 62
     7
100
AcDbLine
 10
827.5782905599973
 20
1134.646510027565
 30
0.0
 11
827.5564320048189
 21
1134.635515487656
 31
0.0
  0
LINE
  5
3BE
330
22
100
AcDbEntity
  8
_4-7_
  6
Continuous
 62
     7
100
AcDbLine
 10
827.5564320048189
 20
1134.635515487656
 30
0.0
 11
827.5370045137291
 21
1134.621235509273
 31
0.0
  0
LINE
  5
3BF
330
22
100
AcDbEntity
  8
_4-7_
  6
Continuous
 62
     7
100
AcDbLine
 10
827.5370045137291
 20
1134.621235509273
 30
0.0
 11
827.5205983812142
 21
1134.604103982333
 31
0.0
  0
LINE
  5
3C0
330
22
100
AcDbEntity
  8
_4-7_
  6
Continuous
 62
     7
100
AcDbLine
 10
827.5205983812142
 20
1134.604103982333
 30
0.0
 11
827.5077120993078
 21
1134.584641439613
 31
0.0
  0
LINE
  5
3C1
330
22
100
AcDbEntity
  8
_4-7_
  6
Continuous
 62
     7
100
AcDbLine
 10
827.5077120993078
 20
1134.584641439613
 30
0.0
 11
827.498737211166
 21
1134.563439240626
 31
0.0
  0
LINE
  5
3C2
330
22
100
AcDbEntity
  8
_4-7_
  6
Continuous
 62
     7
100
AcDbLine
 10
827.498737211166
 20
1134.563439240626
 30
0.0
 11
827.496959114795
 21
1134.557253480003
 31
0.0
  0
LINE
  5
3C3
330
22
100
AcDbEntity
  8
_4-7_
  6
Continuous
 62
     7
100
AcDbLine
 10
826.6723977117937
 20
1134.636822041645
 30
0.0
 11
826.6723977117937
 21
1134.636822041645
 31
0.0
  0
LINE
  5
3C4
330
22
100
AcDbEntity
  8
_4-7_
  6
Continuous
 62
     7
100
AcDbLine
 10
826.6723977117937
 20
1134.636822041645
 30
0.0
 11
826.6474238655513
 21
1134.637241482638
 31
0.0
  0
LINE
  5
3C5
330
22
100
AcDbEntity
  8
_4-7_
  6
Continuous
 62
     7
100
AcDbLine
 10
826.6474238655513
 20
1134.637241482638
 30
0.0
 11
826.6227493520622
 21
1134.633710033535
 31
0.0
  0
LINE
  5
3C6
330
22
100
AcDbEntity
  8
_4-7_
  6
Continuous
 62
     7
100
AcDbLine
 10
826.6227493520622
 20
1134.633710033535
 30
0.0
 11
826.5991238939335
 21
1134.626334995632
 31
0.0
  0
LINE
  5
3C7
330
22
100
AcDbEntity
  8
_4-7_
  6
Continuous
 62
     7
100
AcDbLine
 10
826.5991238939335
 20
1134.626334995632
 30
0.0
 11
826.5772653387553
 21
1134.615340455723
 31
0.0
  0
LINE
  5
3C8
330
22
100
AcDbEntity
  8
_4-7_
  6
Continuous
 62
     7
100
AcDbLine
 10
826.5772653387553
 20
1134.615340455723
 30
0.0
 11
826.5578378476657
 21
1134.60106047734
 31
0.0
  0
LINE
  5
3C9
330
22
100
AcDbEntity
  8
_4-7_
  6
Continuous
 62
     7
100
AcDbLine
 10
826.5578378476657
 20
1134.60106047734
 30
0.0
 11
826.5414317151504
 21
1134.5839289504
 31
0.0
  0
LINE
  5
3CA
330
22
100
AcDbEntity
  8
_4-7_
  6
Continuous
 62
     7
100
AcDbLine
 10
826.5414317151504
 20
1134.5839289504
 30
0.0
 11
826.5285454332442
 21
1134.56446640768
 31
0.0
  0
LINE
  5
3CB
330
22
100
AcDbEntity
  8
_4-7_
  6
Continuous
 62
     7
100
AcDbLine
 10
826.5285454332442
 20
1134.56446640768
 30
0.0
 11
826.5195705451024
 21
1134.543264208693
 31
0.0
  0
LINE
  5
3CC
330
22
100
AcDbEntity
  8
_4-7_
  6
Continuous
 62
     7
100
AcDbLine
 10
826.5195705451024
 20
1134.543264208693
 30
0.0
 11
826.5177924487314
 21
1134.53707844807
 31
0.0
  0
LINE
  5
3CD
330
22
100
AcDbEntity
  8
_4-7_
  6
Continuous
 62
     7
100
AcDbLine
 10
825.6932310457315
 20
1134.616757696139
 30
0.0
 11
825.6932310457315
 21
1134.616757696139
 31
0.0
  0
LINE
  5
3CE
330
22
100
AcDbEntity
  8
_4-7_
  6
Continuous
 62
     7
100
AcDbLine
 10
825.6932310457315
 20
1134.616757696139
 30
0.0
 11
825.6682571994886
 21
1134.617177137131
 31
0.0
  0
LINE
  5
3CF
330
22
100
AcDbEntity
  8
_4-7_
  6
Continuous
 62
     7
100
AcDbLine
 10
825.6682571994886
 20
1134.617177137131
 30
0.0
 11
825.6435826859998
 21
1134.613645688029
 31
0.0
  0
LINE
  5
3D0
330
22
100
AcDbEntity
  8
_4-7_
  6
Continuous
 62
     7
100
AcDbLine
 10
825.6435826859998
 20
1134.613645688029
 30
0.0
 11
825.6199572278713
 21
1134.606270650126
 31
0.0
  0
LINE
  5
3D1
330
22
100
AcDbEntity
  8
_4-7_
  6
Continuous
 62
     7
100
AcDbLine
 10
825.6199572278713
 20
1134.606270650126
 30
0.0
 11
825.598098672693
 21
1134.595276110217
 31
0.0
  0
LINE
  5
3D2
330
22
100
AcDbEntity
  8
_4-7_
  6
Continuous
 62
     7
100
AcDbLine
 10
825.598098672693
 20
1134.595276110217
 30
0.0
 11
825.5786711816034
 21
1134.580996131834
 31
0.0
  0
LINE
  5
3D3
330
22
100
AcDbEntity
  8
_4-7_
  6
Continuous
 62
     7
100
AcDbLine
 10
825.5786711816034
 20
1134.580996131834
 30
0.0
 11
825.5622650490884
 21
1134.563864604895
 31
0.0
  0
LINE
  5
3D4
330
22
100
AcDbEntity
  8
_4-7_
  6
Continuous
 62
     7
100
AcDbLine
 10
825.5622650490884
 20
1134.563864604895
 30
0.0
 11
825.549378767182
 21
1134.544402062174
 31
0.0
  0
LINE
  5
3D5
330
22
100
AcDbEntity
  8
_4-7_
  6
Continuous
 62
     7
100
AcDbLine
 10
825.549378767182
 20
1134.544402062174
 30
0.0
 11
825.54040387904
 21
1134.523199863187
 31
0.0
  0
LINE
  5
3D6
330
22
100
AcDbEntity
  8
_4-7_
  6
Continuous
 62
     7
100
AcDbLine
 10
825.54040387904
 20
1134.523199863187
 30
0.0
 11
825.5386257826691
 21
1134.517014102564
 31
0.0
  0
LINE
  5
3D7
330
22
100
AcDbEntity
  8
_4-7_
  6
Continuous
 62
     7
100
AcDbLine
 10
824.7140643796704
 20
1134.602810864246
 30
0.0
 11
824.7140643796704
 21
1134.602810864246
 31
0.0
  0
LINE
  5
3D8
330
22
100
AcDbEntity
  8
_4-7_
  6
Continuous
 62
     7
100
AcDbLine
 10
824.7140643796704
 20
1134.602810864246
 30
0.0
 11
824.6890905334275
 21
1134.603230305238
 31
0.0
  0
LINE
  5
3D9
330
22
100
AcDbEntity
  8
_4-7_
  6
Continuous
 62
     7
100
AcDbLine
 10
824.6890905334275
 20
1134.603230305238
 30
0.0
 11
824.6644160199387
 21
1134.599698856135
 31
0.0
  0
LINE
  5
3DA
330
22
100
AcDbEntity
  8
_4-7_
  6
Continuous
 62
     7
100
AcDbLine
 10
824.6644160199387
 20
1134.599698856135
 30
0.0
 11
824.6407905618097
 21
1134.592323818232
 31
0.0
  0
LINE
  5
3DB
330
22
100
AcDbEntity
  8
_4-7_
  6
Continuous
 62
     7
100
AcDbLine
 10
824.6407905618097
 20
1134.592323818232
 30
0.0
 11
824.6189320066317
 21
1134.581329278323
 31
0.0
  0
LINE
  5
3DC
330
22
100
AcDbEntity
  8
_4-7_
  6
Continuous
 62
     7
100
AcDbLine
 10
824.6189320066317
 20
1134.581329278323
 30
0.0
 11
824.5995045155423
 21
1134.567049299941
 31
0.0
  0
LINE
  5
3DD
330
22
100
AcDbEntity
  8
_4-7_
  6
Continuous
 62
     7
100
AcDbLine
 10
824.5995045155423
 20
1134.567049299941
 30
0.0
 11
824.583098383027
 21
1134.549917773001
 31
0.0
  0
LINE
  5
3DE
330
22
100
AcDbEntity
  8
_4-7_
  6
Continuous
 62
     7
100
AcDbLine
 10
824.583098383027
 20
1134.549917773001
 30
0.0
 11
824.5702121011206
 21
1134.530455230281
 31
0.0
  0
LINE
  5
3DF
330
22
100
AcDbEntity
  8
_4-7_
  6
Continuous
 62
     7
100
AcDbLine
 10
824.5702121011206
 20
1134.530455230281
 30
0.0
 11
824.5612372129787
 21
1134.509253031293
 31
0.0
  0
LINE
  5
3E0
330
22
100
AcDbEntity
  8
_4-7_
  6
Continuous
 62
     7
100
AcDbLine
 10
824.5612372129787
 20
1134.509253031293
 30
0.0
 11
824.5594591166076
 21
1134.50306727067
 31
0.0
  0
LINE
  5
3E1
330
22
100
AcDbEntity
  8
_4-7_
  6
Continuous
 62
     7
100
AcDbLine
 10
823.7503529142129
 20
1134.581871752411
 30
0.0
 11
823.7503529142129
 21
1134.581871752411
 31
0.0
  0
LINE
  5
3E2
330
22
100
AcDbEntity
  8
_4-7_
  6
Continuous
 62
     7
100
AcDbLine
 10
823.7503529142129
 20
1134.581871752411
 30
0.0
 11
823.7339229129773
 21
1134.590410597255
 31
0.0
  0
LINE
  5
3E3
330
22
100
AcDbEntity
  8
_4-7_
  6
Continuous
 62
     7
100
AcDbLine
 10
823.7339229129773
 20
1134.590410597255
 30
0.0
 11
823.716112357156
 21
1134.596224665723
 31
0.0
  0
LINE
  5
3E4
330
22
100
AcDbEntity
  8
_4-7_
  6
Continuous
 62
     7
100
AcDbLine
 10
823.716112357156
 20
1134.596224665723
 30
0.0
 11
823.6974624114759
 21
1134.599137300286
 31
0.0
  0
LINE
  5
3E5
330
22
100
AcDbEntity
  8
_4-7_
  6
Continuous
 62
     7
100
AcDbLine
 10
823.6974624114759
 20
1134.599137300286
 30
0.0
 11
823.6785397450988
 21
1134.599060002018
 31
0.0
  0
LINE
  5
3E6
330
22
100
AcDbEntity
  8
_4-7_
  6
Continuous
 62
     7
100
AcDbLine
 10
823.6785397450988
 20
1134.599060002018
 30
0.0
 11
823.6599193136671
 21
1134.595995119586
 31
0.0
  0
LINE
  5
3E7
330
22
100
AcDbEntity
  8
_4-7_
  6
Continuous
 62
     7
100
AcDbLine
 10
823.6599193136671
 20
1134.595995119586
 30
0.0
 11
823.6421668895674
 21
1134.590035777894
 31
0.0
  0
LINE
  5
3E8
330
22
100
AcDbEntity
  8
_4-7_
  6
Continuous
 62
     7
100
AcDbLine
 10
823.6421668895674
 20
1134.590035777894
 30
0.0
 11
823.6258218712229
 21
1134.581363048522
 31
0.0
  0
LINE
  5
3E9
330
22
100
AcDbEntity
  8
_4-7_
  6
Continuous
 62
     7
100
AcDbLine
 10
823.6258218712229
 20
1134.581363048522
 30
0.0
 11
823.6113808937453
 21
1134.570240447965
 31
0.0
  0
LINE
  5
3EA
330
22
100
AcDbEntity
  8
_4-7_
  6
Continuous
 62
     7
100
AcDbLine
 10
823.6113808937453
 20
1134.570240447965
 30
0.0
 11
823.5992827389274
 21
1134.55700593081
 31
0.0
  0
LINE
  5
3EB
330
22
100
AcDbEntity
  8
_4-7_
  6
Continuous
 62
     7
100
AcDbLine
 10
823.5992827389274
 20
1134.55700593081
 30
0.0
 11
823.5898950030817
 21
1134.542061621167
 31
0.0
  0
LINE
  5
3EC
330
22
100
AcDbEntity
  8
_4-7_
  6
Continuous
 62
     7
100
AcDbLine
 10
823.5898950030817
 20
1134.542061621167
 30
0.0
 11
823.5835029278113
 21
1134.52586159432
 31
0.0
  0
LINE
  5
3ED
330
22
100
AcDbEntity
  8
_4-7_
  6
Continuous
 62
     7
100
AcDbLine
 10
823.5835029278113
 20
1134.52586159432
 30
0.0
 11
823.5803007330884
 21
1134.508898079887
 31
0.0
  0
LINE
  5
3EE
330
22
100
AcDbEntity
  8
_4-7_
  6
Continuous
 62
     7
100
AcDbLine
 10
823.5803007330884
 20
1134.508898079887
 30
0.0
 11
823.5802924505444
 21
1134.508806761252
 31
0.0
  0
LINE
  5
3EF
330
22
100
AcDbEntity
  8
_4-7_
  6
Continuous
 62
     7
100
AcDbLine
 10
829.1460819207946
 20
1134.319363792503
 30
0.0
 11
829.1460819207946
 21
1134.319363792503
 31
0.0
  0
LINE
  5
3F0
330
22
100
AcDbEntity
  8
_4-7_
  6
Continuous
 62
     7
100
AcDbLine
 10
829.1460819207946
 20
1134.319363792503
 30
0.0
 11
829.1384194478897
 21
1134.372067436749
 31
0.0
  0
LINE
  5
3F1
330
22
100
AcDbEntity
  8
_4-7_
  6
Continuous
 62
     7
100
AcDbLine
 10
829.1384194478897
 20
1134.372067436749
 30
0.0
 11
829.1208116561978
 21
1134.42276013766
 31
0.0
  0
LINE
  5
3F2
330
22
100
AcDbEntity
  8
_4-7_
  6
Continuous
 62
     7
100
AcDbLine
 10
829.1208116561978
 20
1134.42276013766
 30
0.0
 11
829.0937935495593
 21
1134.469901623171
 31
0.0
  0
LINE
  5
3F3
330
22
100
AcDbEntity
  8
_4-7_
  6
Continuous
 62
     7
100
AcDbLine
 10
829.0937935495593
 20
1134.469901623171
 30
0.0
 11
829.0581860594729
 21
1134.5120595231
 31
0.0
  0
LINE
  5
3F4
330
22
100
AcDbEntity
  8
_4-7_
  6
Continuous
 62
     7
100
AcDbLine
 10
829.0581860594729
 20
1134.5120595231
 30
0.0
 11
829.0150711015062
 21
1134.54795289099
 31
0.0
  0
LINE
  5
3F5
330
22
100
AcDbEntity
  8
_4-7_
  6
Continuous
 62
     7
100
AcDbLine
 10
829.0150711015062
 20
1134.54795289099
 30
0.0
 11
828.96575870184
 21
1134.57649112502
 31
0.0
  0
LINE
  5
3F6
330
22
100
AcDbEntity
  8
_4-7_
  6
Continuous
 62
     7
100
AcDbLine
 10
828.96575870184
 20
1134.57649112502
 30
0.0
 11
828.9117471927848
 21
1134.596807105391
 31
0.0
  0
LINE
  5
3F7
330
22
100
AcDbEntity
  8
_4-7_
  6
Continuous
 62
     7
100
AcDbLine
 10
828.9117471927848
 20
1134.596807105391
 30
0.0
 11
828.8546776867123
 21
1134.608283541319
 31
0.0
  0
LINE
  5
3F8
330
22
100
AcDbEntity
  8
_4-7_
  6
Continuous
 62
     7
100
AcDbLine
 10
828.8546776867123
 20
1134.608283541319
 30
0.0
 11
828.7962842116858
 21
1134.610571727106
 31
0.0
  0
LINE
  5
3F9
330
22
100
AcDbEntity
  8
_4-7_
  6
Continuous
 62
     7
100
AcDbLine
 10
828.7962842116858
 20
1134.610571727106
 30
0.0
 11
828.7383410238954
 21
1134.603602137385
 31
0.0
  0
LINE
  5
3FA
330
22
100
AcDbEntity
  8
_4-7_
  6
Continuous
 62
     7
100
AcDbLine
 10
828.7383410238954
 20
1134.603602137385
 30
0.0
 11
828.6826086977816
 21
1134.587586539614
 31
0.0
  0
LINE
  5
3FB
330
22
100
AcDbEntity
  8
_4-7_
  6
Continuous
 62
     7
100
AcDbLine
 10
828.6826086977816
 20
1134.587586539614
 30
0.0
 11
828.6307806318713
 21
1134.563011559624
 31
0.0
  0
LINE
  5
3FC
330
22
100
AcDbEntity
  8
_4-7_
  6
Continuous
 62
     7
100
AcDbLine
 10
828.6307806318713
 20
1134.563011559624
 30
0.0
 11
828.5844315957209
 21
1134.530623895749
 31
0.0
  0
LINE
  5
3FD
330
22
100
AcDbEntity
  8
_4-7_
  6
Continuous
 62
     7
100
AcDbLine
 10
828.5844315957209
 20
1134.530623895749
 30
0.0
 11
828.5449698813403
 21
1134.491407630765
 31
0.0
  0
LINE
  5
3FE
330
22
100
AcDbEntity
  8
_4-7_
  6
Continuous
 62
     7
100
AcDbLine
 10
828.5449698813403
 20
1134.491407630765
 30
0.0
 11
828.5135945129523
 21
1134.446554331042
 31
0.0
  0
LINE
  5
3FF
330
22
100
AcDbEntity
  8
_4-7_
  6
Continuous
 62
     7
100
AcDbLine
 10
828.5135945129523
 20
1134.446554331042
 30
0.0
 11
828.4912588152485
 21
1134.397426841391
 31
0.0
  0
LINE
  5
400
330
22
100
AcDbEntity
  8
_4-7_
  6
Continuous
 62
     7
100
AcDbLine
 10
828.4912588152485
 20
1134.397426841391
 30
0.0
 11
828.478641447101
 21
1134.34551787573
 31
0.0
  0
LINE
  5
401
330
22
100
AcDbEntity
  8
_4-7_
  6
Continuous
 62
     7
100
AcDbLine
 10
828.478641447101
 20
1134.34551787573
 30
0.0
 11
828.476125780857
 21
1134.319363792503
 31
0.0
  0
LINE
  5
402
330
22
100
AcDbEntity
  8
_4-7_
  6
Continuous
 62
     7
100
AcDbLine
 10
834.0419152511076
 20
1134.319363792503
 30
0.0
 11
834.0419152511076
 21
1134.319363792503
 31
0.0
  0
LINE
  5
403
330
22
100
AcDbEntity
  8
_4-7_
  6
Continuous
 62
     7
100
AcDbLine
 10
834.0419152511076
 20
1134.319363792503
 30
0.0
 11
834.0342527782027
 21
1134.372067436749
 31
0.0
  0
LINE
  5
404
330
22
100
AcDbEntity
  8
_4-7_
  6
Continuous
 62
     7
100
AcDbLine
 10
834.0342527782027
 20
1134.372067436749
 30
0.0
 11
834.0166449865108
 21
1134.42276013766
 31
0.0
  0
LINE
  5
405
330
22
100
AcDbEntity
  8
_4-7_
  6
Continuous
 62
     7
100
AcDbLine
 10
834.0166449865108
 20
1134.42276013766
 30
0.0
 11
833.9896268798723
 21
1134.469901623171
 31
0.0
  0
LINE
  5
406
330
22
100
AcDbEntity
  8
_4-7_
  6
Continuous
 62
     7
100
AcDbLine
 10
833.9896268798723
 20
1134.469901623171
 30
0.0
 11
833.9540193897859
 21
1134.5120595231
 31
0.0
  0
LINE
  5
407
330
22
100
AcDbEntity
  8
_4-7_
  6
Continuous
 62
     7
100
AcDbLine
 10
833.9540193897859
 20
1134.5120595231
 30
0.0
 11
833.9109044318192
 21
1134.54795289099
 31
0.0
  0
LINE
  5
408
330
22
100
AcDbEntity
  8
_4-7_
  6
Continuous
 62
     7
100
AcDbLine
 10
833.9109044318192
 20
1134.54795289099
 30
0.0
 11
833.8615920321531
 21
1134.57649112502
 31
0.0
  0
LINE
  5
409
330
22
100
AcDbEntity
  8
_4-7_
  6
Continuous
 62
     7
100
AcDbLine
 10
833.8615920321531
 20
1134.57649112502
 30
0.0
 11
833.8075805230978
 21
1134.596807105391
 31
0.0
  0
LINE
  5
40A
330
22
100
AcDbEntity
  8
_4-7_
  6
Continuous
 62
     7
100
AcDbLine
 10
833.8075805230978
 20
1134.596807105391
 30
0.0
 11
833.7505110170251
 21
1134.608283541319
 31
0.0
  0
LINE
  5
40B
330
22
100
AcDbEntity
  8
_4-7_
  6
Continuous
 62
     7
100
AcDbLine
 10
833.7505110170251
 20
1134.608283541319
 30
0.0
 11
833.6921175419988
 21
1134.610571727106
 31
0.0
  0
LINE
  5
40C
330
22
100
AcDbEntity
  8
_4-7_
  6
Continuous
 62
     7
100
AcDbLine
 10
833.6921175419988
 20
1134.610571727106
 30
0.0
 11
833.6341743542083
 21
1134.603602137385
 31
0.0
  0
LINE
  5
40D
330
22
100
AcDbEntity
  8
_4-7_
  6
Continuous
 62
     7
100
AcDbLine
 10
833.6341743542083
 20
1134.603602137385
 30
0.0
 11
833.5784420280944
 21
1134.587586539614
 31
0.0
  0
LINE
  5
40E
330
22
100
AcDbEntity
  8
_4-7_
  6
Continuous
 62
     7
100
AcDbLine
 10
833.5784420280944
 20
1134.587586539614
 30
0.0
 11
833.5266139621845
 21
1134.563011559624
 31
0.0
  0
LINE
  5
40F
330
22
100
AcDbEntity
  8
_4-7_
  6
Continuous
 62
     7
100
AcDbLine
 10
833.5266139621845
 20
1134.563011559624
 30
0.0
 11
833.4802649260339
 21
1134.530623895749
 31
0.0
  0
LINE
  5
410
330
22
100
AcDbEntity
  8
_4-7_
  6
Continuous
 62
     7
100
AcDbLine
 10
833.4802649260339
 20
1134.530623895749
 30
0.0
 11
833.4408032116533
 21
1134.491407630765
 31
0.0
  0
LINE
  5
411
330
22
100
AcDbEntity
  8
_4-7_
  6
Continuous
 62
     7
100
AcDbLine
 10
833.4408032116533
 20
1134.491407630765
 30
0.0
 11
833.4094278432653
 21
1134.446554331042
 31
0.0
  0
LINE
  5
412
330
22
100
AcDbEntity
  8
_4-7_
  6
Continuous
 62
     7
100
AcDbLine
 10
833.4094278432653
 20
1134.446554331042
 30
0.0
 11
833.3870921455615
 21
1134.397426841391
 31
0.0
  0
LINE
  5
413
330
22
100
AcDbEntity
  8
_4-7_
  6
Continuous
 62
     7
100
AcDbLine
 10
833.3870921455615
 20
1134.397426841391
 30
0.0
 11
833.3744747774142
 21
1134.34551787573
 31
0.0
  0
LINE
  5
414
330
22
100
AcDbEntity
  8
_4-7_
  6
Continuous
 62
     7
100
AcDbLine
 10
833.3744747774142
 20
1134.34551787573
 30
0.0
 11
833.3719591111702
 21
1134.319363792503
 31
0.0
  0
LINE
  5
415
330
22
100
AcDbEntity
  8
_4-7_
  6
Continuous
 62
     7
100
AcDbLine
 10
822.0857749076069
 20
1134.522624299253
 30
0.0
 11
822.0857749076069
 21
1134.522624299253
 31
0.0
  0
LINE
  5
416
330
22
100
AcDbEntity
  8
_4-7_
  6
Continuous
 62
     7
100
AcDbLine
 10
822.0857749076069
 20
1134.522624299253
 30
0.0
 11
822.0022847033771
 21
1134.545240057942
 31
0.0
  0
LINE
  5
417
330
22
100
AcDbEntity
  8
_4-7_
  6
Continuous
 62
     7
100
AcDbLine
 10
822.0022847033771
 20
1134.545240057942
 30
0.0
 11
821.9157452957428
 21
1134.554325292905
 31
0.0
  0
LINE
  5
418
330
22
100
AcDbEntity
  8
_4-7_
  6
Continuous
 62
     7
100
AcDbLine
 10
821.9157452957428
 20
1134.554325292905
 30
0.0
 11
821.8796345568566
 21
1134.554046382433
 31
0.0
  0
LINE
  5
419
330
22
100
AcDbEntity
  8
_4-7_
  6
Continuous
 62
     7
100
AcDbLine
 10
820.642792452357
 20
1134.871260198753
 30
0.0
 11
820.642792452357
 21
1134.871260198753
 31
0.0
  0
LINE
  5
41A
330
22
100
AcDbEntity
  8
_4-7_
  6
Continuous
 62
     7
100
AcDbLine
 10
820.642792452357
 20
1134.871260198753
 30
0.0
 11
820.6774990618429
 21
1134.875035684717
 31
0.0
  0
LINE
  5
41B
330
22
100
AcDbEntity
  8
_4-7_
  6
Continuous
 62
     7
100
AcDbLine
 10
820.6774990618429
 20
1134.875035684717
 30
0.0
 11
820.7109576164581
 21
1134.884235580936
 31
0.0
  0
LINE
  5
41C
330
22
100
AcDbEntity
  8
_4-7_
  6
Continuous
 62
     7
100
AcDbLine
 10
820.7109576164581
 20
1134.884235580936
 30
0.0
 11
820.7421514949515
 21
1134.898580353217
 31
0.0
  0
LINE
  5
41D
330
22
100
AcDbEntity
  8
_4-7_
  6
Continuous
 62
     7
100
AcDbLine
 10
820.7421514949515
 20
1134.898580353217
 30
0.0
 11
820.7701328871102
 21
1134.917634142915
 31
0.0
  0
LINE
  5
41E
330
22
100
AcDbEntity
  8
_4-7_
  6
Continuous
 62
     7
100
AcDbLine
 10
820.7701328871102
 20
1134.917634142915
 30
0.0
 11
820.7940515924921
 21
1134.940818010271
 31
0.0
  0
LINE
  5
41F
330
22
100
AcDbEntity
  8
_4-7_
  6
Continuous
 62
     7
100
AcDbLine
 10
820.7940515924921
 20
1134.940818010271
 30
0.0
 11
820.8131808533376
 21
1134.967427525206
 31
0.0
  0
LINE
  5
420
330
22
100
AcDbEntity
  8
_4-7_
  6
Continuous
 62
     7
100
AcDbLine
 10
820.8131808533376
 20
1134.967427525206
 30
0.0
 11
820.8269394367365
 21
1134.996654171074
 31
0.0
  0
LINE
  5
421
330
22
100
AcDbEntity
  8
_4-7_
  6
Continuous
 62
     7
100
AcDbLine
 10
820.8269394367365
 20
1134.996654171074
 30
0.0
 11
820.8349092950935
 21
1135.027609911031
 31
0.0
  0
LINE
  5
422
330
22
100
AcDbEntity
  8
_4-7_
  6
Continuous
 62
     7
100
AcDbLine
 10
820.8349092950935
 20
1135.027609911031
 30
0.0
 11
820.8368482682963
 21
1135.059354170582
 31
0.0
  0
LINE
  5
423
330
22
100
AcDbEntity
  8
_4-7_
  6
Continuous
 62
     7
100
AcDbLine
 10
820.8368482682963
 20
1135.059354170582
 30
0.0
 11
820.8326974416246
 21
1135.090922416464
 31
0.0
  0
LINE
  5
424
330
22
100
AcDbEntity
  8
_4-7_
  6
Continuous
 62
     7
100
AcDbLine
 10
820.8326974416246
 20
1135.090922416464
 30
0.0
 11
820.8225829358466
 21
1135.1213554635
 31
0.0
  0
LINE
  5
425
330
22
100
AcDbEntity
  8
_4-7_
  6
Continuous
 62
     7
100
AcDbLine
 10
820.8225829358466
 20
1135.1213554635
 30
0.0
 11
820.8068120751024
 21
1135.149728618955
 31
0.0
  0
LINE
  5
426
330
22
100
AcDbEntity
  8
_4-7_
  6
Continuous
 62
     7
100
AcDbLine
 10
820.8068120751024
 20
1135.149728618955
 30
0.0
 11
820.7858640490149
 21
1135.17517977886
 31
0.0
  0
LINE
  5
427
330
22
100
AcDbEntity
  8
_4-7_
  6
Continuous
 62
     7
100
AcDbLine
 10
820.7858640490149
 20
1135.17517977886
 30
0.0
 11
820.7603753527569
 21
1135.196935622598
 31
0.0
  0
LINE
  5
428
330
22
100
AcDbEntity
  8
_4-7_
  6
Continuous
 62
     7
100
AcDbLine
 10
820.7603753527569
 20
1135.196935622598
 30
0.0
 11
820.7311204474663
 21
1135.214335109868
 31
0.0
  0
LINE
  5
429
330
22
100
AcDbEntity
  8
_4-7_
  6
Continuous
 62
     7
100
AcDbLine
 10
820.7311204474663
 20
1135.214335109868
 30
0.0
 11
820.6989882286361
 21
1135.226849566052
 31
0.0
  0
LINE
  5
42A
330
22
100
AcDbEntity
  8
_4-7_
  6
Continuous
 62
     7
100
AcDbLine
 10
820.6989882286361
 20
1135.226849566052
 30
0.0
 11
820.6649550174764
 21
1135.234098745733
 31
0.0
  0
LINE
  5
42B
330
22
100
AcDbEntity
  8
_4-7_
  6
Continuous
 62
     7
100
AcDbLine
 10
820.6649550174764
 20
1135.234098745733
 30
0.0
 11
820.6300548958862
 21
1135.235862386253
 31
0.0
  0
LINE
  5
42C
330
22
100
AcDbEntity
  8
_4-7_
  6
Continuous
 62
     7
100
AcDbLine
 10
820.6300548958862
 20
1135.235862386253
 30
0.0
 11
820.6300548958862
 21
1135.235862386253
 31
0.0
  0
LINE
  5
42D
330
22
100
AcDbEntity
  8
_4-7_
  6
Continuous
 62
     7
100
AcDbLine
 10
843.7475878876627
 20
1138.174832542503
 30
0.0
 11
846.3072661207318
 21
1138.174832542503
 31
0.0
  0
LINE
  5
42E
330
22
100
AcDbEntity
  8
_4-7_
  6
Continuous
 62
     7
100
AcDbLine
 10
846.3072661207318
 20
1138.174832542503
 30
0.0
 11
846.3072661207318
 21
1136.299832542503
 31
0.0
  0
LINE
  5
42F
330
22
100
AcDbEntity
  8
_4-7_
  6
Continuous
 62
     7
100
AcDbLine
 10
843.7475878876627
 20
1138.174832542503
 30
0.0
 11
843.232237312535
 21
1138.643582542503
 31
0.0
  0
LINE
  5
430
330
22
100
AcDbEntity
  8
_4-7_
  6
Continuous
 62
     7
100
AcDbLine
 10
843.232237312535
 20
1138.643582542503
 30
0.0
 11
841.9206087330882
 21
1138.643582542503
 31
0.0
  0
LINE
  5
431
330
22
100
AcDbEntity
  8
_4-7_
  6
Continuous
 62
     7
100
AcDbLine
 10
841.9206087330882
 20
1138.643582542503
 30
0.0
 11
839.3471129123076
 21
1138.300945511252
 31
0.0
  0
LINE
  5
432
330
22
100
AcDbEntity
  8
_4-7_
  6
Continuous
 62
     7
100
AcDbLine
 10
839.3471129123076
 20
1138.300945511252
 30
0.0
 11
839.0923538444814
 21
1138.149743167502
 31
0.0
  0
LINE
  5
433
330
22
100
AcDbEntity
  8
_4-7_
  6
Continuous
 62
     7
100
AcDbLine
 10
839.0923538444814
 20
1138.149743167502
 30
0.0
 11
839.0923538444814
 21
1138.174832542503
 31
0.0
  0
LINE
  5
434
330
22
100
AcDbEntity
  8
_4-7_
  6
Continuous
 62
     7
100
AcDbLine
 10
839.0923538444814
 20
1138.174832542503
 30
0.0
 11
837.9585819153579
 21
1138.174832542503
 31
0.0
  0
LINE
  5
435
330
22
100
AcDbEntity
  8
_4-7_
  6
Continuous
 62
     7
100
AcDbLine
 10
837.9585819153579
 20
1138.174832542503
 30
0.0
 11
837.4432310384829
 21
1137.904199692147
 31
0.0
  0
LINE
  5
436
330
22
100
AcDbEntity
  8
_4-7_
  6
Continuous
 62
     7
100
AcDbLine
 10
837.2886257754192
 20
1137.985389573752
 30
0.0
 11
837.2886257754192
 21
1138.596707542503
 31
0.0
  0
LINE
  5
437
330
22
100
AcDbEntity
  8
_4-7_
  6
Continuous
 62
     7
100
AcDbLine
 10
837.2886257754192
 20
1138.596707542503
 30
0.0
 11
834.6427566542445
 21
1138.596707542503
 31
0.0
  0
LINE
  5
438
330
22
100
AcDbEntity
  8
_4-7_
  6
Continuous
 62
     7
100
AcDbLine
 10
834.6427566542445
 20
1138.596707542503
 30
0.0
 11
834.0419152511071
 21
1138.283289105003
 31
0.0
  0
LINE
  5
439
330
22
100
AcDbEntity
  8
_4-7_
  6
Continuous
 62
     7
100
AcDbLine
 10
834.0419152511071
 20
1138.283289105003
 30
0.0
 11
834.0419152511071
 21
1138.280301292502
 31
0.0
  0
LINE
  5
43A
330
22
100
AcDbEntity
  8
_4-7_
  6
Continuous
 62
     7
100
AcDbLine
 10
834.041915472221
 20
1138.280298684199
 30
0.0
 11
834.0419152511071
 21
1138.280301292502
 31
0.0
  0
LINE
  5
43B
330
22
100
AcDbEntity
  8
_4-7_
  6
Continuous
 62
     7
100
AcDbLine
 10
834.041915472221
 20
1138.280298684199
 30
0.0
 11
834.0419152511071
 21
1138.280301292502
 31
0.0
  0
LINE
  5
43C
330
22
100
AcDbEntity
  8
_4-7_
  6
Continuous
 62
     7
100
AcDbLine
 10
833.3719591111695
 20
1138.259931761253
 30
0.0
 11
833.3719591111695
 21
1138.596707542503
 31
0.0
  0
LINE
  5
43D
330
22
100
AcDbEntity
  8
_4-7_
  6
Continuous
 62
     7
100
AcDbLine
 10
833.3719591111695
 20
1138.596707542503
 30
0.0
 11
829.7486884006865
 21
1138.596707542503
 31
0.0
  0
LINE
  5
43E
330
22
100
AcDbEntity
  8
_4-7_
  6
Continuous
 62
     7
100
AcDbLine
 10
829.7486884006865
 20
1138.596707542503
 30
0.0
 11
829.1460937945828
 21
1138.280303050589
 31
0.0
  0
LINE
  5
43F
330
22
100
AcDbEntity
  8
_4-7_
  6
Continuous
 62
     7
100
AcDbLine
 10
829.1460819207939
 20
1138.280301292502
 30
0.0
 11
829.4444890440695
 21
1138.27805652353
 31
0.0
  0
LINE
  5
440
330
22
100
AcDbEntity
  8
_4-7_
  6
Continuous
 62
     7
100
AcDbLine
 10
829.4444890440695
 20
1138.27805652353
 30
0.0
 11
829.4552924469201
 21
1138.077631518765
 31
0.0
  0
LINE
  5
441
330
22
100
AcDbEntity
  8
_4-7_
  6
Continuous
 62
     7
100
AcDbLine
 10
829.6098977099823
 20
1137.978467743661
 30
0.0
 11
830.1252485868564
 21
1138.259931761253
 31
0.0
  0
LINE
  5
442
330
22
100
AcDbEntity
  8
_4-7_
  6
Continuous
 62
     7
100
AcDbLine
 10
830.1252485868564
 20
1138.259931761253
 30
0.0
 11
830.423655754979
 21
1138.25993185633
 31
0.0
  0
LINE
  5
443
330
22
100
AcDbEntity
  8
_4-7_
  6
Continuous
 62
     7
100
AcDbLine
 10
830.423655754979
 20
1138.25993185633
 30
0.0
 11
830.4344591129824
 21
1138.042411605002
 31
0.0
  0
LINE
  5
444
330
22
100
AcDbEntity
  8
_4-7_
  6
Continuous
 62
     7
100
AcDbLine
 10
830.589064376045
 20
1137.942668011428
 30
0.0
 11
831.10441525292
 21
1138.259931761253
 31
0.0
  0
LINE
  5
445
330
22
100
AcDbEntity
  8
_4-7_
  6
Continuous
 62
     7
100
AcDbLine
 10
831.10441525292
 20
1138.259931761253
 30
0.0
 11
831.4028224786124
 21
1138.259931761253
 31
0.0
  0
LINE
  5
446
330
22
100
AcDbEntity
  8
_4-7_
  6
Continuous
 62
     7
100
AcDbLine
 10
831.4028224786124
 20
1138.259931761253
 30
0.0
 11
831.4136257790448
 21
1138.042411605002
 31
0.0
  0
LINE
  5
447
330
22
100
AcDbEntity
  8
_4-7_
  6
Continuous
 62
     7
100
AcDbLine
 10
831.5682310421072
 20
1137.942668011428
 30
0.0
 11
832.0835819189824
 21
1138.259931761253
 31
0.0
  0
LINE
  5
448
330
22
100
AcDbEntity
  8
_4-7_
  6
Continuous
 62
     7
100
AcDbLine
 10
832.0835819189824
 20
1138.259931761253
 30
0.0
 11
832.3819891446749
 21
1138.259931761253
 31
0.0
  0
LINE
  5
449
330
22
100
AcDbEntity
  8
_4-7_
  6
Continuous
 62
     7
100
AcDbLine
 10
832.3819891446749
 20
1138.259931761253
 30
0.0
 11
832.3927924451073
 21
1138.042411605002
 31
0.0
  0
LINE
  5
44A
330
22
100
AcDbEntity
  8
_4-7_
  6
Continuous
 62
     7
100
AcDbLine
 10
832.5473977081696
 20
1137.942668011428
 30
0.0
 11
833.0627485850447
 21
1138.25993185633
 31
0.0
  0
LINE
  5
44B
330
22
100
AcDbEntity
  8
_4-7_
  6
Continuous
 62
     7
100
AcDbLine
 10
833.0627485850447
 20
1138.25993185633
 30
0.0
 11
833.3719591111695
 21
1138.259931761253
 31
0.0
  0
LINE
  5
44C
330
22
100
AcDbEntity
  8
_4-7_
  6
Continuous
 62
     7
100
AcDbLine
 10
834.041915472221
 20
1138.280298684199
 30
0.0
 11
834.3403226403427
 21
1138.277995433421
 31
0.0
  0
LINE
  5
44D
330
22
100
AcDbEntity
  8
_4-7_
  6
Continuous
 62
     7
100
AcDbLine
 10
834.3403226403427
 20
1138.277995433421
 30
0.0
 11
834.351125777232
 21
1138.079592386253
 31
0.0
  0
LINE
  5
44E
330
22
100
AcDbEntity
  8
_4-7_
  6
Continuous
 62
     7
100
AcDbLine
 10
834.5057310402943
 20
1137.978284798553
 30
0.0
 11
835.0210819171694
 21
1138.25993185633
 31
0.0
  0
LINE
  5
44F
330
22
100
AcDbEntity
  8
_4-7_
  6
Continuous
 62
     7
100
AcDbLine
 10
835.0210819171694
 20
1138.25993185633
 30
0.0
 11
835.3194890852909
 21
1138.25993185633
 31
0.0
  0
LINE
  5
450
330
22
100
AcDbEntity
  8
_4-7_
  6
Continuous
 62
     7
100
AcDbLine
 10
835.3194890852909
 20
1138.25993185633
 30
0.0
 11
835.3302924432943
 21
1138.042411605002
 31
0.0
  0
LINE
  5
451
330
22
100
AcDbEntity
  8
_4-7_
  6
Continuous
 62
     7
100
AcDbLine
 10
835.4848977063568
 20
1137.942668011428
 30
0.0
 11
836.0002485832318
 21
1138.259931761253
 31
0.0
  0
LINE
  5
452
330
22
100
AcDbEntity
  8
_4-7_
  6
Continuous
 62
     7
100
AcDbLine
 10
836.0002485832318
 20
1138.259931761253
 30
0.0
 11
836.2986557513533
 21
1138.25993185633
 31
0.0
  0
LINE
  5
453
330
22
100
AcDbEntity
  8
_4-7_
  6
Continuous
 62
     7
100
AcDbLine
 10
836.2986557513533
 20
1138.25993185633
 30
0.0
 11
836.3096038475818
 21
1138.041857797197
 31
0.0
  0
LINE
  5
454
330
22
100
AcDbEntity
  8
_4-7_
  6
Continuous
 62
     7
100
AcDbLine
 10
836.4640643724204
 20
1137.942668011428
 30
0.0
 11
836.9794152492943
 21
1138.25993185633
 31
0.0
  0
LINE
  5
455
330
22
100
AcDbEntity
  8
_4-7_
  6
Continuous
 62
     7
100
AcDbLine
 10
836.9794152492943
 20
1138.25993185633
 30
0.0
 11
837.2886257754192
 21
1138.259931757811
 31
0.0
  0
LINE
  5
456
330
22
100
AcDbEntity
  8
_4-7_
  6
Continuous
 62
     7
100
AcDbLine
 10
828.4761257808577
 20
1138.259931761253
 30
0.0
 11
828.4761257808577
 21
1138.596707542503
 31
0.0
  0
LINE
  5
457
330
22
100
AcDbEntity
  8
_4-7_
  6
Continuous
 62
     7
100
AcDbLine
 10
828.4761257808577
 20
1138.596707542503
 30
0.0
 11
826.4459746965838
 21
1138.596707542503
 31
0.0
  0
LINE
  5
458
330
22
100
AcDbEntity
  8
_4-7_
  6
Continuous
 62
     7
100
AcDbLine
 10
826.4459746965838
 20
1138.596707542503
 30
0.0
 11
824.2502485904822
 21
1138.280591448752
 31
0.0
  0
LINE
  5
459
330
22
100
AcDbEntity
  8
_4-7_
  6
Continuous
 62
     7
100
AcDbLine
 10
824.2502485904822
 20
1138.280591448752
 30
0.0
 11
824.5486555180706
 21
1138.280132375214
 31
0.0
  0
LINE
  5
45A
330
22
100
AcDbEntity
  8
_4-7_
  6
Continuous
 62
     7
100
AcDbLine
 10
824.5486555180706
 20
1138.280132375214
 30
0.0
 11
824.5594591166071
 21
1138.087202073752
 31
0.0
  0
LINE
  5
45B
330
22
100
AcDbEntity
  8
_4-7_
  6
Continuous
 62
     7
100
AcDbLine
 10
824.2502485904822
 20
1138.280591448752
 30
0.0
 11
823.7348977136072
 21
1138.009668442148
 31
0.0
  0
LINE
  5
45C
330
22
100
AcDbEntity
  8
_4-7_
  6
Continuous
 62
     7
100
AcDbLine
 10
824.7140643796694
 20
1137.996854220759
 30
0.0
 11
825.2294152565445
 21
1138.278480679173
 31
0.0
  0
LINE
  5
45D
330
22
100
AcDbEntity
  8
_4-7_
  6
Continuous
 62
     7
100
AcDbLine
 10
825.2294152565445
 20
1138.278480679173
 30
0.0
 11
825.5278221841319
 21
1138.277177614009
 31
0.0
  0
LINE
  5
45E
330
22
100
AcDbEntity
  8
_4-7_
  6
Continuous
 62
     7
100
AcDbLine
 10
825.5278221841319
 20
1138.277177614009
 30
0.0
 11
825.5386257826696
 21
1138.075723323753
 31
0.0
  0
LINE
  5
45F
330
22
100
AcDbEntity
  8
_4-7_
  6
Continuous
 62
     7
100
AcDbLine
 10
825.6932310457319
 20
1137.982907388866
 30
0.0
 11
826.208581682073
 21
1138.272824800944
 31
0.0
  0
LINE
  5
460
330
22
100
AcDbEntity
  8
_4-7_
  6
Continuous
 62
     7
100
AcDbLine
 10
826.208581682073
 20
1138.272824800944
 30
0.0
 11
826.5069888501955
 21
1138.270285525509
 31
0.0
  0
LINE
  5
461
330
22
100
AcDbEntity
  8
_4-7_
  6
Continuous
 62
     7
100
AcDbLine
 10
826.5069888501955
 20
1138.270285525509
 30
0.0
 11
826.5177924487318
 21
1138.061127178466
 31
0.0
  0
LINE
  5
462
330
22
100
AcDbEntity
  8
_4-7_
  6
Continuous
 62
     7
100
AcDbLine
 10
826.6723977117942
 20
1137.962843043361
 30
0.0
 11
827.1877483481365
 21
1138.262969683489
 31
0.0
  0
LINE
  5
463
330
22
100
AcDbEntity
  8
_4-7_
  6
Continuous
 62
     7
100
AcDbLine
 10
827.1877483481365
 20
1138.262969683489
 30
0.0
 11
827.4861558143618
 21
1138.259931761253
 31
0.0
  0
LINE
  5
464
330
22
100
AcDbEntity
  8
_4-7_
  6
Continuous
 62
     7
100
AcDbLine
 10
827.4861558143618
 20
1138.259931761253
 30
0.0
 11
827.4969591147954
 21
1138.042411605002
 31
0.0
  0
LINE
  5
465
330
22
100
AcDbEntity
  8
_4-7_
  6
Continuous
 62
     7
100
AcDbLine
 10
827.6515643778566
 20
1137.942668011428
 30
0.0
 11
828.1669152547316
 21
1138.25993185633
 31
0.0
  0
LINE
  5
466
330
22
100
AcDbEntity
  8
_4-7_
  6
Continuous
 62
     7
100
AcDbLine
 10
828.1669152547316
 20
1138.25993185633
 30
0.0
 11
828.4761257808577
 21
1138.259931761253
 31
0.0
  0
LINE
  5
467
330
22
100
AcDbEntity
  8
_4-7_
  6
Continuous
 62
     7
100
AcDbLine
 10
823.5802924505446
 20
1138.090858323753
 30
0.0
 11
823.5802924505446
 21
1138.174832542503
 31
0.0
  0
LINE
  5
468
330
22
100
AcDbEntity
  8
_4-7_
  6
Continuous
 62
     7
100
AcDbLine
 10
823.5802924505446
 20
1138.174832542503
 30
0.0
 11
823.0907091175129
 21
1138.174832542503
 31
0.0
  0
LINE
  5
469
330
22
100
AcDbEntity
  8
_4-7_
  6
Continuous
 62
     7
100
AcDbLine
 10
823.0907091175129
 20
1138.174832542503
 30
0.0
 11
823.0907091175129
 21
1138.081082542503
 31
0.0
  0
LINE
  5
46A
330
22
100
AcDbEntity
  8
_4-7_
  6
Continuous
 62
     7
100
AcDbLine
 10
823.0907091175129
 20
1138.081082542503
 30
0.0
 11
822.0857749076069
 21
1138.081082542503
 31
0.0
  0
LINE
  5
46B
330
22
100
AcDbEntity
  8
_4-7_
  6
Continuous
 62
     7
100
AcDbLine
 10
822.0857749076069
 20
1138.081082542503
 30
0.0
 11
822.0857749076069
 21
1138.077040785752
 31
0.0
  0
LINE
  5
46C
330
22
100
AcDbEntity
  8
_4-7_
  6
Continuous
 62
     7
100
AcDbLine
 10
821.8796345568568
 20
1138.045618792502
 30
0.0
 11
818.1606085613452
 21
1138.045618700916
 31
0.0
  0
LINE
  5
46D
330
22
100
AcDbEntity
  8
_4-7_
  6
Continuous
 62
     7
100
AcDbLine
 10
818.1606085613452
 20
1138.045618700916
 30
0.0
 11
817.7534705462447
 21
1137.770345355003
 31
0.0
  0
LINE
  5
46E
330
22
100
AcDbEntity
  8
_4-7_
  6
Continuous
 62
     7
100
AcDbLine
 10
817.7534705462447
 20
1137.770345355003
 30
0.0
 11
816.9322661388571
 21
1137.143582542503
 31
0.0
  0
LINE
  5
46F
330
22
100
AcDbEntity
  8
_4-7_
  6
Continuous
 62
     7
100
AcDbLine
 10
816.9322661388571
 20
1137.143582542503
 30
0.0
 11
816.9322661388571
 21
1137.050220992819
 31
0.0
  0
LINE
  5
470
330
22
100
AcDbEntity
  8
_4-7_
  6
Continuous
 62
     7
100
AcDbLine
 10
816.9322661388571
 20
1137.050220992819
 30
0.0
 11
818.1606085613452
 21
1137.728404811141
 31
0.0
  0
LINE
  5
471
330
22
100
AcDbEntity
  8
_4-7_
  6
Continuous
 62
     7
100
AcDbLine
 10
818.1606085613452
 20
1137.728404811141
 30
0.0
 11
820.6427924523575
 21
1137.728404886253
 31
0.0
  0
LINE
  5
472
330
22
100
AcDbEntity
  8
_4-7_
  6
Continuous
 62
     7
100
AcDbLine
 10
820.6427924523575
 20
1137.363802698753
 30
0.0
 11
818.1606086567819
 21
1137.363802869648
 31
0.0
  0
LINE
  5
473
330
22
100
AcDbEntity
  8
_4-7_
  6
Continuous
 62
     7
100
AcDbLine
 10
818.1606086567819
 20
1137.363802869648
 30
0.0
 11
816.9322661388571
 21
1136.685618891377
 31
0.0
  0
LINE
  5
474
330
22
100
AcDbEntity
  8
_4-7_
  6
Continuous
 62
     7
100
AcDbLine
 10
816.9322661388571
 20
1136.685618891377
 30
0.0
 11
816.9322661388571
 21
1136.299832542503
 31
0.0
  0
LINE
  5
475
330
22
100
AcDbEntity
  8
_4-7_
  6
Continuous
 62
     7
100
AcDbLine
 10
837.2886257754192
 20
1137.985389573754
 30
0.0
 11
837.2886257754192
 21
1137.985389573754
 31
0.0
  0
LINE
  5
476
330
22
100
AcDbEntity
  8
_4-7_
  6
Continuous
 62
     7
100
AcDbLine
 10
837.2886257754192
 20
1137.985389573754
 30
0.0
 11
837.2915343908662
 21
1137.96854054194
 31
0.0
  0
LINE
  5
477
330
22
100
AcDbEntity
  8
_4-7_
  6
Continuous
 62
     7
100
AcDbLine
 10
837.2915343908662
 20
1137.96854054194
 30
0.0
 11
837.2976154909476
 21
1137.952406888807
 31
0.0
  0
LINE
  5
478
330
22
100
AcDbEntity
  8
_4-7_
  6
Continuous
 62
     7
100
AcDbLine
 10
837.2976154909476
 20
1137.952406888807
 30
0.0
 11
837.3066843045139
 21
1137.93747882724
 31
0.0
  0
LINE
  5
479
330
22
100
AcDbEntity
  8
_4-7_
  6
Continuous
 62
     7
100
AcDbLine
 10
837.3066843045139
 20
1137.93747882724
 30
0.0
 11
837.3184652802548
 21
1137.924209938836
 31
0.0
  0
LINE
  5
47A
330
22
100
AcDbEntity
  8
_4-7_
  6
Continuous
 62
     7
100
AcDbLine
 10
837.3184652802548
 20
1137.924209938836
 30
0.0
 11
837.3326004591836
 21
1137.913003392055
 31
0.0
  0
LINE
  5
47B
330
22
100
AcDbEntity
  8
_4-7_
  6
Continuous
 62
     7
100
AcDbLine
 10
837.3326004591836
 20
1137.913003392055
 30
0.0
 11
837.3486603510409
 21
1137.904199692148
 31
0.0
  0
LINE
  5
47C
330
22
100
AcDbEntity
  8
_4-7_
  6
Continuous
 62
     7
100
AcDbLine
 10
837.3486603510409
 20
1137.904199692148
 30
0.0
 11
837.3661569841399
 21
1137.898066335085
 31
0.0
  0
LINE
  5
47D
330
22
100
AcDbEntity
  8
_4-7_
  6
Continuous
 62
     7
100
AcDbLine
 10
837.3661569841399
 20
1137.898066335085
 30
0.0
 11
837.3845587321369
 21
1137.894789679815
 31
0.0
  0
LINE
  5
47E
330
22
100
AcDbEntity
  8
_4-7_
  6
Continuous
 62
     7
100
AcDbLine
 10
837.3845587321369
 20
1137.894789679815
 30
0.0
 11
837.4033064672314
 21
1137.894469285851
 31
0.0
  0
LINE
  5
47F
330
22
100
AcDbEntity
  8
_4-7_
  6
Continuous
 62
     7
100
AcDbLine
 10
837.4033064672314
 20
1137.894469285851
 30
0.0
 11
837.4218305489792
 21
1137.897114888201
 31
0.0
  0
LINE
  5
480
330
22
100
AcDbEntity
  8
_4-7_
  6
Continuous
 62
     7
100
AcDbLine
 10
837.4218305489792
 20
1137.897114888201
 30
0.0
 11
837.4395681325298
 21
1137.902646101576
 31
0.0
  0
LINE
  5
481
330
22
100
AcDbEntity
  8
_4-7_
  6
Continuous
 62
     7
100
AcDbLine
 10
837.4395681325298
 20
1137.902646101576
 30
0.0
 11
837.455980270383
 21
1137.910894862857
 31
0.0
  0
LINE
  5
482
330
22
100
AcDbEntity
  8
_4-7_
  6
Continuous
 62
     7
100
AcDbLine
 10
837.455980270383
 20
1137.910894862857
 30
0.0
 11
837.4559806713982
 21
1137.910895108181
 31
0.0
  0
LINE
  5
483
330
22
100
AcDbEntity
  8
_4-7_
  6
Continuous
 62
     7
100
AcDbLine
 10
836.3094591093574
 20
1138.042411605003
 30
0.0
 11
836.3094591093574
 21
1138.042411605003
 31
0.0
  0
LINE
  5
484
330
22
100
AcDbEntity
  8
_4-7_
  6
Continuous
 62
     7
100
AcDbLine
 10
836.3094591093574
 20
1138.042411605003
 30
0.0
 11
836.3172800782695
 21
1138.020834587294
 31
0.0
  0
LINE
  5
485
330
22
100
AcDbEntity
  8
_4-7_
  6
Continuous
 62
     7
100
AcDbLine
 10
836.3172800782695
 20
1138.020834587294
 30
0.0
 11
836.3291015287559
 21
1138.000820663323
 31
0.0
  0
LINE
  5
486
330
22
100
AcDbEntity
  8
_4-7_
  6
Continuous
 62
     7
100
AcDbLine
 10
836.3291015287559
 20
1138.000820663323
 30
0.0
 11
836.3445642720254
 21
1137.982977946044
 31
0.0
  0
LINE
  5
487
330
22
100
AcDbEntity
  8
_4-7_
  6
Continuous
 62
     7
100
AcDbLine
 10
836.3445642720254
 20
1137.982977946044
 30
0.0
 11
836.3631984804486
 21
1137.96784857739
 31
0.0
  0
LINE
  5
488
330
22
100
AcDbEntity
  8
_4-7_
  6
Continuous
 62
     7
100
AcDbLine
 10
836.3631984804486
 20
1137.96784857739
 30
0.0
 11
836.3844379630318
 21
1137.955892255575
 31
0.0
  0
LINE
  5
489
330
22
100
AcDbEntity
  8
_4-7_
  6
Continuous
 62
     7
100
AcDbLine
 10
836.3844379630318
 20
1137.955892255575
 30
0.0
 11
836.4076373688448
 21
1137.947472267385
 31
0.0
  0
LINE
  5
48A
330
22
100
AcDbEntity
  8
_4-7_
  6
Continuous
 62
     7
100
AcDbLine
 10
836.4076373688448
 20
1137.947472267385
 30
0.0
 11
836.4320917956806
 21
1137.942844449901
 31
0.0
  0
LINE
  5
48B
330
22
100
AcDbEntity
  8
_4-7_
  6
Continuous
 62
     7
100
AcDbLine
 10
836.4320917956806
 20
1137.942844449901
 30
0.0
 11
836.4570582081551
 21
1137.942149417015
 31
0.0
  0
LINE
  5
48C
330
22
100
AcDbEntity
  8
_4-7_
  6
Continuous
 62
     7
100
AcDbLine
 10
836.4570582081551
 20
1137.942149417015
 30
0.0
 11
836.46406437242
 21
1137.942668011429
 31
0.0
  0
LINE
  5
48D
330
22
100
AcDbEntity
  8
_4-7_
  6
Continuous
 62
     7
100
AcDbLine
 10
835.330292443294
 20
1138.042411605003
 30
0.0
 11
835.330292443294
 21
1138.042411605003
 31
0.0
  0
LINE
  5
48E
330
22
100
AcDbEntity
  8
_4-7_
  6
Continuous
 62
     7
100
AcDbLine
 10
835.330292443294
 20
1138.042411605003
 30
0.0
 11
835.3381134122058
 21
1138.020834587294
 31
0.0
  0
LINE
  5
48F
330
22
100
AcDbEntity
  8
_4-7_
  6
Continuous
 62
     7
100
AcDbLine
 10
835.3381134122058
 20
1138.020834587294
 30
0.0
 11
835.3499348626924
 21
1138.000820663323
 31
0.0
  0
LINE
  5
490
330
22
100
AcDbEntity
  8
_4-7_
  6
Continuous
 62
     7
100
AcDbLine
 10
835.3499348626924
 20
1138.000820663323
 30
0.0
 11
835.3653976059618
 21
1137.982977946044
 31
0.0
  0
LINE
  5
491
330
22
100
AcDbEntity
  8
_4-7_
  6
Continuous
 62
     7
100
AcDbLine
 10
835.3653976059618
 20
1137.982977946044
 30
0.0
 11
835.384031814385
 21
1137.96784857739
 31
0.0
  0
LINE
  5
492
330
22
100
AcDbEntity
  8
_4-7_
  6
Continuous
 62
     7
100
AcDbLine
 10
835.384031814385
 20
1137.96784857739
 30
0.0
 11
835.4052712969684
 21
1137.955892255575
 31
0.0
  0
LINE
  5
493
330
22
100
AcDbEntity
  8
_4-7_
  6
Continuous
 62
     7
100
AcDbLine
 10
835.4052712969684
 20
1137.955892255575
 30
0.0
 11
835.428470702781
 21
1137.947472267385
 31
0.0
  0
LINE
  5
494
330
22
100
AcDbEntity
  8
_4-7_
  6
Continuous
 62
     7
100
AcDbLine
 10
835.428470702781
 20
1137.947472267385
 30
0.0
 11
835.452925129617
 21
1137.942844449901
 31
0.0
  0
LINE
  5
495
330
22
100
AcDbEntity
  8
_4-7_
  6
Continuous
 62
     7
100
AcDbLine
 10
835.452925129617
 20
1137.942844449901
 30
0.0
 11
835.4778915420913
 21
1137.942149417015
 31
0.0
  0
LINE
  5
496
330
22
100
AcDbEntity
  8
_4-7_
  6
Continuous
 62
     7
100
AcDbLine
 10
835.4778915420913
 20
1137.942149417015
 30
0.0
 11
835.4848977063566
 21
1137.942668011429
 31
0.0
  0
LINE
  5
497
330
22
100
AcDbEntity
  8
_4-7_
  6
Continuous
 62
     7
100
AcDbLine
 10
834.3511257772314
 20
1138.078028392128
 30
0.0
 11
834.3511257772314
 21
1138.078028392128
 31
0.0
  0
LINE
  5
498
330
22
100
AcDbEntity
  8
_4-7_
  6
Continuous
 62
     7
100
AcDbLine
 10
834.3511257772314
 20
1138.078028392128
 30
0.0
 11
834.3589467461434
 21
1138.056451374419
 31
0.0
  0
LINE
  5
499
330
22
100
AcDbEntity
  8
_4-7_
  6
Continuous
 62
     7
100
AcDbLine
 10
834.3589467461434
 20
1138.056451374419
 30
0.0
 11
834.3707681966298
 21
1138.036437450448
 31
0.0
  0
LINE
  5
49A
330
22
100
AcDbEntity
  8
_4-7_
  6
Continuous
 62
     7
100
AcDbLine
 10
834.3707681966298
 20
1138.036437450448
 30
0.0
 11
834.3862309398994
 21
1138.018594733168
 31
0.0
  0
LINE
  5
49B
330
22
100
AcDbEntity
  8
_4-7_
  6
Continuous
 62
     7
100
AcDbLine
 10
834.3862309398994
 20
1138.018594733168
 30
0.0
 11
834.4048651483227
 21
1138.003465364515
 31
0.0
  0
LINE
  5
49C
330
22
100
AcDbEntity
  8
_4-7_
  6
Continuous
 62
     7
100
AcDbLine
 10
834.4048651483227
 20
1138.003465364515
 30
0.0
 11
834.4261046309059
 21
1137.991509042699
 31
0.0
  0
LINE
  5
49D
330
22
100
AcDbEntity
  8
_4-7_
  6
Continuous
 62
     7
100
AcDbLine
 10
834.4261046309059
 20
1137.991509042699
 30
0.0
 11
834.4493040367188
 21
1137.983089054509
 31
0.0
  0
LINE
  5
49E
330
22
100
AcDbEntity
  8
_4-7_
  6
Continuous
 62
     7
100
AcDbLine
 10
834.4493040367188
 20
1137.983089054509
 30
0.0
 11
834.4737584635547
 21
1137.978461237025
 31
0.0
  0
LINE
  5
49F
330
22
100
AcDbEntity
  8
_4-7_
  6
Continuous
 62
     7
100
AcDbLine
 10
834.4737584635547
 20
1137.978461237025
 30
0.0
 11
834.498724876029
 21
1137.97776620414
 31
0.0
  0
LINE
  5
4A0
330
22
100
AcDbEntity
  8
_4-7_
  6
Continuous
 62
     7
100
AcDbLine
 10
834.498724876029
 20
1137.97776620414
 30
0.0
 11
834.5057310402943
 21
1137.978284798553
 31
0.0
  0
LINE
  5
4A1
330
22
100
AcDbEntity
  8
_4-7_
  6
Continuous
 62
     7
100
AcDbLine
 10
832.3927924451067
 20
1138.042411605003
 30
0.0
 11
832.3927924451067
 21
1138.042411605003
 31
0.0
  0
LINE
  5
4A2
330
22
100
AcDbEntity
  8
_4-7_
  6
Continuous
 62
     7
100
AcDbLine
 10
832.3927924451067
 20
1138.042411605003
 30
0.0
 11
832.4006134140187
 21
1138.020834587294
 31
0.0
  0
LINE
  5
4A3
330
22
100
AcDbEntity
  8
_4-7_
  6
Continuous
 62
     7
100
AcDbLine
 10
832.4006134140187
 20
1138.020834587294
 30
0.0
 11
832.4124348645051
 21
1138.000820663323
 31
0.0
  0
LINE
  5
4A4
330
22
100
AcDbEntity
  8
_4-7_
  6
Continuous
 62
     7
100
AcDbLine
 10
832.4124348645051
 20
1138.000820663323
 30
0.0
 11
832.4278976077748
 21
1137.982977946044
 31
0.0
  0
LINE
  5
4A5
330
22
100
AcDbEntity
  8
_4-7_
  6
Continuous
 62
     7
100
AcDbLine
 10
832.4278976077748
 20
1137.982977946044
 30
0.0
 11
832.446531816198
 21
1137.96784857739
 31
0.0
  0
LINE
  5
4A6
330
22
100
AcDbEntity
  8
_4-7_
  6
Continuous
 62
     7
100
AcDbLine
 10
832.446531816198
 20
1137.96784857739
 30
0.0
 11
832.4677712987812
 21
1137.955892255575
 31
0.0
  0
LINE
  5
4A7
330
22
100
AcDbEntity
  8
_4-7_
  6
Continuous
 62
     7
100
AcDbLine
 10
832.4677712987812
 20
1137.955892255575
 30
0.0
 11
832.4909707045938
 21
1137.947472267385
 31
0.0
  0
LINE
  5
4A8
330
22
100
AcDbEntity
  8
_4-7_
  6
Continuous
 62
     7
100
AcDbLine
 10
832.4909707045938
 20
1137.947472267385
 30
0.0
 11
832.51542513143
 21
1137.942844449901
 31
0.0
  0
LINE
  5
4A9
330
22
100
AcDbEntity
  8
_4-7_
  6
Continuous
 62
     7
100
AcDbLine
 10
832.51542513143
 20
1137.942844449901
 30
0.0
 11
832.5403915439045
 21
1137.942149417015
 31
0.0
  0
LINE
  5
4AA
330
22
100
AcDbEntity
  8
_4-7_
  6
Continuous
 62
     7
100
AcDbLine
 10
832.5403915439045
 20
1137.942149417015
 30
0.0
 11
832.5473977081692
 21
1137.942668011429
 31
0.0
  0
LINE
  5
4AB
330
22
100
AcDbEntity
  8
_4-7_
  6
Continuous
 62
     7
100
AcDbLine
 10
831.4136257790446
 20
1138.042411605003
 30
0.0
 11
831.4136257790446
 21
1138.042411605003
 31
0.0
  0
LINE
  5
4AC
330
22
100
AcDbEntity
  8
_4-7_
  6
Continuous
 62
     7
100
AcDbLine
 10
831.4136257790446
 20
1138.042411605003
 30
0.0
 11
831.4214467479564
 21
1138.020834587294
 31
0.0
  0
LINE
  5
4AD
330
22
100
AcDbEntity
  8
_4-7_
  6
Continuous
 62
     7
100
AcDbLine
 10
831.4214467479564
 20
1138.020834587294
 30
0.0
 11
831.4332681984426
 21
1138.000820663323
 31
0.0
  0
LINE
  5
4AE
330
22
100
AcDbEntity
  8
_4-7_
  6
Continuous
 62
     7
100
AcDbLine
 10
831.4332681984426
 20
1138.000820663323
 30
0.0
 11
831.4487309417124
 21
1137.982977946044
 31
0.0
  0
LINE
  5
4AF
330
22
100
AcDbEntity
  8
_4-7_
  6
Continuous
 62
     7
100
AcDbLine
 10
831.4487309417124
 20
1137.982977946044
 30
0.0
 11
831.4673651501356
 21
1137.96784857739
 31
0.0
  0
LINE
  5
4B0
330
22
100
AcDbEntity
  8
_4-7_
  6
Continuous
 62
     7
100
AcDbLine
 10
831.4673651501356
 20
1137.96784857739
 30
0.0
 11
831.4886046327186
 21
1137.955892255575
 31
0.0
  0
LINE
  5
4B1
330
22
100
AcDbEntity
  8
_4-7_
  6
Continuous
 62
     7
100
AcDbLine
 10
831.4886046327186
 20
1137.955892255575
 30
0.0
 11
831.5118040385314
 21
1137.947472267385
 31
0.0
  0
LINE
  5
4B2
330
22
100
AcDbEntity
  8
_4-7_
  6
Continuous
 62
     7
100
AcDbLine
 10
831.5118040385314
 20
1137.947472267385
 30
0.0
 11
831.5362584653676
 21
1137.942844449901
 31
0.0
  0
LINE
  5
4B3
330
22
100
AcDbEntity
  8
_4-7_
  6
Continuous
 62
     7
100
AcDbLine
 10
831.5362584653676
 20
1137.942844449901
 30
0.0
 11
831.5612248778419
 21
1137.942149417015
 31
0.0
  0
LINE
  5
4B4
330
22
100
AcDbEntity
  8
_4-7_
  6
Continuous
 62
     7
100
AcDbLine
 10
831.5612248778419
 20
1137.942149417015
 30
0.0
 11
831.5682310421069
 21
1137.942668011429
 31
0.0
  0
LINE
  5
4B5
330
22
100
AcDbEntity
  8
_4-7_
  6
Continuous
 62
     7
100
AcDbLine
 10
830.4344591129821
 20
1138.042411605003
 30
0.0
 11
830.4344591129821
 21
1138.042411605003
 31
0.0
  0
LINE
  5
4B6
330
22
100
AcDbEntity
  8
_4-7_
  6
Continuous
 62
     7
100
AcDbLine
 10
830.4344591129821
 20
1138.042411605003
 30
0.0
 11
830.4422800818938
 21
1138.020834587294
 31
0.0
  0
LINE
  5
4B7
330
22
100
AcDbEntity
  8
_4-7_
  6
Continuous
 62
     7
100
AcDbLine
 10
830.4422800818938
 20
1138.020834587294
 30
0.0
 11
830.4541015323804
 21
1138.000820663323
 31
0.0
  0
LINE
  5
4B8
330
22
100
AcDbEntity
  8
_4-7_
  6
Continuous
 62
     7
100
AcDbLine
 10
830.4541015323804
 20
1138.000820663323
 30
0.0
 11
830.4695642756502
 21
1137.982977946044
 31
0.0
  0
LINE
  5
4B9
330
22
100
AcDbEntity
  8
_4-7_
  6
Continuous
 62
     7
100
AcDbLine
 10
830.4695642756502
 20
1137.982977946044
 30
0.0
 11
830.4881984840731
 21
1137.96784857739
 31
0.0
  0
LINE
  5
4BA
330
22
100
AcDbEntity
  8
_4-7_
  6
Continuous
 62
     7
100
AcDbLine
 10
830.4881984840731
 20
1137.96784857739
 30
0.0
 11
830.5094379666565
 21
1137.955892255575
 31
0.0
  0
LINE
  5
4BB
330
22
100
AcDbEntity
  8
_4-7_
  6
Continuous
 62
     7
100
AcDbLine
 10
830.5094379666565
 20
1137.955892255575
 30
0.0
 11
830.5326373724691
 21
1137.947472267385
 31
0.0
  0
LINE
  5
4BC
330
22
100
AcDbEntity
  8
_4-7_
  6
Continuous
 62
     7
100
AcDbLine
 10
830.5326373724691
 20
1137.947472267385
 30
0.0
 11
830.5570917993051
 21
1137.942844449901
 31
0.0
  0
LINE
  5
4BD
330
22
100
AcDbEntity
  8
_4-7_
  6
Continuous
 62
     7
100
AcDbLine
 10
830.5570917993051
 20
1137.942844449901
 30
0.0
 11
830.5820582117794
 21
1137.942149417015
 31
0.0
  0
LINE
  5
4BE
330
22
100
AcDbEntity
  8
_4-7_
  6
Continuous
 62
     7
100
AcDbLine
 10
830.5820582117794
 20
1137.942149417015
 30
0.0
 11
830.5890643760445
 21
1137.942668011429
 31
0.0
  0
LINE
  5
4BF
330
22
100
AcDbEntity
  8
_4-7_
  6
Continuous
 62
     7
100
AcDbLine
 10
829.4552924469195
 20
1138.078211337236
 30
0.0
 11
829.4552924469195
 21
1138.078211337236
 31
0.0
  0
LINE
  5
4C0
330
22
100
AcDbEntity
  8
_4-7_
  6
Continuous
 62
     7
100
AcDbLine
 10
829.4552924469195
 20
1138.078211337236
 30
0.0
 11
829.4631134158315
 21
1138.056634319527
 31
0.0
  0
LINE
  5
4C1
330
22
100
AcDbEntity
  8
_4-7_
  6
Continuous
 62
     7
100
AcDbLine
 10
829.4631134158315
 20
1138.056634319527
 30
0.0
 11
829.4749348663181
 21
1138.036620395556
 31
0.0
  0
LINE
  5
4C2
330
22
100
AcDbEntity
  8
_4-7_
  6
Continuous
 62
     7
100
AcDbLine
 10
829.4749348663181
 20
1138.036620395556
 30
0.0
 11
829.4903976095875
 21
1138.018777678277
 31
0.0
  0
LINE
  5
4C3
330
22
100
AcDbEntity
  8
_4-7_
  6
Continuous
 62
     7
100
AcDbLine
 10
829.4903976095875
 20
1138.018777678277
 30
0.0
 11
829.5090318180108
 21
1138.003648309623
 31
0.0
  0
LINE
  5
4C4
330
22
100
AcDbEntity
  8
_4-7_
  6
Continuous
 62
     7
100
AcDbLine
 10
829.5090318180108
 20
1138.003648309623
 30
0.0
 11
829.5302713005941
 21
1137.991691987808
 31
0.0
  0
LINE
  5
4C5
330
22
100
AcDbEntity
  8
_4-7_
  6
Continuous
 62
     7
100
AcDbLine
 10
829.5302713005941
 20
1137.991691987808
 30
0.0
 11
829.5534707064067
 21
1137.983271999618
 31
0.0
  0
LINE
  5
4C6
330
22
100
AcDbEntity
  8
_4-7_
  6
Continuous
 62
     7
100
AcDbLine
 10
829.5534707064067
 20
1137.983271999618
 30
0.0
 11
829.5779251332429
 21
1137.978644182134
 31
0.0
  0
LINE
  5
4C7
330
22
100
AcDbEntity
  8
_4-7_
  6
Continuous
 62
     7
100
AcDbLine
 10
829.5779251332429
 20
1137.978644182134
 30
0.0
 11
829.6028915457171
 21
1137.977949149248
 31
0.0
  0
LINE
  5
4C8
330
22
100
AcDbEntity
  8
_4-7_
  6
Continuous
 62
     7
100
AcDbLine
 10
829.6028915457171
 20
1137.977949149248
 30
0.0
 11
829.6098977099823
 21
1137.978467743661
 31
0.0
  0
LINE
  5
4C9
330
22
100
AcDbEntity
  8
_4-7_
  6
Continuous
 62
     7
100
AcDbLine
 10
827.496959114795
 20
1138.042411605003
 30
0.0
 11
827.496959114795
 21
1138.042411605003
 31
0.0
  0
LINE
  5
4CA
330
22
100
AcDbEntity
  8
_4-7_
  6
Continuous
 62
     7
100
AcDbLine
 10
827.496959114795
 20
1138.042411605003
 30
0.0
 11
827.5047800837068
 21
1138.020834587294
 31
0.0
  0
LINE
  5
4CB
330
22
100
AcDbEntity
  8
_4-7_
  6
Continuous
 62
     7
100
AcDbLine
 10
827.5047800837068
 20
1138.020834587294
 30
0.0
 11
827.5166015341932
 21
1138.000820663323
 31
0.0
  0
LINE
  5
4CC
330
22
100
AcDbEntity
  8
_4-7_
  6
Continuous
 62
     7
100
AcDbLine
 10
827.5166015341932
 20
1138.000820663323
 30
0.0
 11
827.5320642774627
 21
1137.982977946044
 31
0.0
  0
LINE
  5
4CD
330
22
100
AcDbEntity
  8
_4-7_
  6
Continuous
 62
     7
100
AcDbLine
 10
827.5320642774627
 20
1137.982977946044
 30
0.0
 11
827.5506984858861
 21
1137.96784857739
 31
0.0
  0
LINE
  5
4CE
330
22
100
AcDbEntity
  8
_4-7_
  6
Continuous
 62
     7
100
AcDbLine
 10
827.5506984858861
 20
1137.96784857739
 30
0.0
 11
827.5719379684693
 21
1137.955892255575
 31
0.0
  0
LINE
  5
4CF
330
22
100
AcDbEntity
  8
_4-7_
  6
Continuous
 62
     7
100
AcDbLine
 10
827.5719379684693
 20
1137.955892255575
 30
0.0
 11
827.595137374282
 21
1137.947472267385
 31
0.0
  0
LINE
  5
4D0
330
22
100
AcDbEntity
  8
_4-7_
  6
Continuous
 62
     7
100
AcDbLine
 10
827.595137374282
 20
1137.947472267385
 30
0.0
 11
827.6195918011181
 21
1137.942844449901
 31
0.0
  0
LINE
  5
4D1
330
22
100
AcDbEntity
  8
_4-7_
  6
Continuous
 62
     7
100
AcDbLine
 10
827.6195918011181
 20
1137.942844449901
 30
0.0
 11
827.6445582135924
 21
1137.942149417015
 31
0.0
  0
LINE
  5
4D2
330
22
100
AcDbEntity
  8
_4-7_
  6
Continuous
 62
     7
100
AcDbLine
 10
827.6445582135924
 20
1137.942149417015
 30
0.0
 11
827.6515643778575
 21
1137.942668011429
 31
0.0
  0
LINE
  5
4D3
330
22
100
AcDbEntity
  8
_4-7_
  6
Continuous
 62
     7
100
AcDbLine
 10
826.5177924487314
 20
1138.062586636937
 30
0.0
 11
826.5177924487314
 21
1138.062586636937
 31
0.0
  0
LINE
  5
4D4
330
22
100
AcDbEntity
  8
_4-7_
  6
Continuous
 62
     7
100
AcDbLine
 10
826.5177924487314
 20
1138.062586636937
 30
0.0
 11
826.5256134176434
 21
1138.041009619227
 31
0.0
  0
LINE
  5
4D5
330
22
100
AcDbEntity
  8
_4-7_
  6
Continuous
 62
     7
100
AcDbLine
 10
826.5256134176434
 20
1138.041009619227
 30
0.0
 11
826.5374348681296
 21
1138.020995695256
 31
0.0
  0
LINE
  5
4D6
330
22
100
AcDbEntity
  8
_4-7_
  6
Continuous
 62
     7
100
AcDbLine
 10
826.5374348681296
 20
1138.020995695256
 30
0.0
 11
826.5528976113994
 21
1138.003152977977
 31
0.0
  0
LINE
  5
4D7
330
22
100
AcDbEntity
  8
_4-7_
  6
Continuous
 62
     7
100
AcDbLine
 10
826.5528976113994
 20
1138.003152977977
 30
0.0
 11
826.5715318198225
 21
1137.988023609324
 31
0.0
  0
LINE
  5
4D8
330
22
100
AcDbEntity
  8
_4-7_
  6
Continuous
 62
     7
100
AcDbLine
 10
826.5715318198225
 20
1137.988023609324
 30
0.0
 11
826.5927713024057
 21
1137.976067287508
 31
0.0
  0
LINE
  5
4D9
330
22
100
AcDbEntity
  8
_4-7_
  6
Continuous
 62
     7
100
AcDbLine
 10
826.5927713024057
 20
1137.976067287508
 30
0.0
 11
826.6159707082186
 21
1137.967647299318
 31
0.0
  0
LINE
  5
4DA
330
22
100
AcDbEntity
  8
_4-7_
  6
Continuous
 62
     7
100
AcDbLine
 10
826.6159707082186
 20
1137.967647299318
 30
0.0
 11
826.6404251350545
 21
1137.963019481834
 31
0.0
  0
LINE
  5
4DB
330
22
100
AcDbEntity
  8
_4-7_
  6
Continuous
 62
     7
100
AcDbLine
 10
826.6404251350545
 20
1137.963019481834
 30
0.0
 11
826.665391547529
 21
1137.962324448948
 31
0.0
  0
LINE
  5
4DC
330
22
100
AcDbEntity
  8
_4-7_
  6
Continuous
 62
     7
100
AcDbLine
 10
826.665391547529
 20
1137.962324448948
 30
0.0
 11
826.6723977117937
 21
1137.962843043361
 31
0.0
  0
LINE
  5
4DD
330
22
100
AcDbEntity
  8
_4-7_
  6
Continuous
 62
     7
100
AcDbLine
 10
825.5386257826691
 20
1138.082650982441
 30
0.0
 11
825.5386257826691
 21
1138.082650982441
 31
0.0
  0
LINE
  5
4DE
330
22
100
AcDbEntity
  8
_4-7_
  6
Continuous
 62
     7
100
AcDbLine
 10
825.5386257826691
 20
1138.082650982441
 30
0.0
 11
825.5464467515807
 21
1138.061073964732
 31
0.0
  0
LINE
  5
4DF
330
22
100
AcDbEntity
  8
_4-7_
  6
Continuous
 62
     7
100
AcDbLine
 10
825.5464467515807
 20
1138.061073964732
 30
0.0
 11
825.5582682020675
 21
1138.041060040761
 31
0.0
  0
LINE
  5
4E0
330
22
100
AcDbEntity
  8
_4-7_
  6
Continuous
 62
     7
100
AcDbLine
 10
825.5582682020675
 20
1138.041060040761
 30
0.0
 11
825.5737309453371
 21
1138.023217323482
 31
0.0
  0
LINE
  5
4E1
330
22
100
AcDbEntity
  8
_4-7_
  6
Continuous
 62
     7
100
AcDbLine
 10
825.5737309453371
 20
1138.023217323482
 30
0.0
 11
825.5923651537599
 21
1138.008087954829
 31
0.0
  0
LINE
  5
4E2
330
22
100
AcDbEntity
  8
_4-7_
  6
Continuous
 62
     7
100
AcDbLine
 10
825.5923651537599
 20
1138.008087954829
 30
0.0
 11
825.6136046363433
 21
1137.996131633013
 31
0.0
  0
LINE
  5
4E3
330
22
100
AcDbEntity
  8
_4-7_
  6
Continuous
 62
     7
100
AcDbLine
 10
825.6136046363433
 20
1137.996131633013
 30
0.0
 11
825.6368040421561
 21
1137.987711644823
 31
0.0
  0
LINE
  5
4E4
330
22
100
AcDbEntity
  8
_4-7_
  6
Continuous
 62
     7
100
AcDbLine
 10
825.6368040421561
 20
1137.987711644823
 30
0.0
 11
825.6612584689921
 21
1137.983083827339
 31
0.0
  0
LINE
  5
4E5
330
22
100
AcDbEntity
  8
_4-7_
  6
Continuous
 62
     7
100
AcDbLine
 10
825.6612584689921
 20
1137.983083827339
 30
0.0
 11
825.6862248814664
 21
1137.982388794453
 31
0.0
  0
LINE
  5
4E6
330
22
100
AcDbEntity
  8
_4-7_
  6
Continuous
 62
     7
100
AcDbLine
 10
825.6862248814664
 20
1137.982388794453
 30
0.0
 11
825.6932310457315
 21
1137.982907388866
 31
0.0
  0
LINE
  5
4E7
330
22
100
AcDbEntity
  8
_4-7_
  6
Continuous
 62
     7
100
AcDbLine
 10
824.5594591166076
 20
1138.096597814335
 30
0.0
 11
824.5594591166076
 21
1138.096597814335
 31
0.0
  0
LINE
  5
4E8
330
22
100
AcDbEntity
  8
_4-7_
  6
Continuous
 62
     7
100
AcDbLine
 10
824.5594591166076
 20
1138.096597814335
 30
0.0
 11
824.5672800855196
 21
1138.075020796625
 31
0.0
  0
LINE
  5
4E9
330
22
100
AcDbEntity
  8
_4-7_
  6
Continuous
 62
     7
100
AcDbLine
 10
824.5672800855196
 20
1138.075020796625
 30
0.0
 11
824.5791015360062
 21
1138.055006872655
 31
0.0
  0
LINE
  5
4EA
330
22
100
AcDbEntity
  8
_4-7_
  6
Continuous
 62
     7
100
AcDbLine
 10
824.5791015360062
 20
1138.055006872655
 30
0.0
 11
824.5945642792756
 21
1138.037164155375
 31
0.0
  0
LINE
  5
4EB
330
22
100
AcDbEntity
  8
_4-7_
  6
Continuous
 62
     7
100
AcDbLine
 10
824.5945642792756
 20
1138.037164155375
 30
0.0
 11
824.6131984876988
 21
1138.022034786722
 31
0.0
  0
LINE
  5
4EC
330
22
100
AcDbEntity
  8
_4-7_
  6
Continuous
 62
     7
100
AcDbLine
 10
824.6131984876988
 20
1138.022034786722
 30
0.0
 11
824.6344379702822
 21
1138.010078464906
 31
0.0
  0
LINE
  5
4ED
330
22
100
AcDbEntity
  8
_4-7_
  6
Continuous
 62
     7
100
AcDbLine
 10
824.6344379702822
 20
1138.010078464906
 30
0.0
 11
824.6576373760948
 21
1138.001658476716
 31
0.0
  0
LINE
  5
4EE
330
22
100
AcDbEntity
  8
_4-7_
  6
Continuous
 62
     7
100
AcDbLine
 10
824.6576373760948
 20
1138.001658476716
 30
0.0
 11
824.6820918029309
 21
1137.997030659232
 31
0.0
  0
LINE
  5
4EF
330
22
100
AcDbEntity
  8
_4-7_
  6
Continuous
 62
     7
100
AcDbLine
 10
824.6820918029309
 20
1137.997030659232
 30
0.0
 11
824.7070582154051
 21
1137.996335626347
 31
0.0
  0
LINE
  5
4F0
330
22
100
AcDbEntity
  8
_4-7_
  6
Continuous
 62
     7
100
AcDbLine
 10
824.7070582154051
 20
1137.996335626347
 30
0.0
 11
824.7140643796704
 21
1137.99685422076
 31
0.0
  0
LINE
  5
4F1
330
22
100
AcDbEntity
  8
_4-7_
  6
Continuous
 62
     7
100
AcDbLine
 10
823.5802924505444
 20
1138.090858323753
 30
0.0
 11
823.5802924505444
 21
1138.090858323753
 31
0.0
  0
LINE
  5
4F2
330
22
100
AcDbEntity
  8
_4-7_
  6
Continuous
 62
     7
100
AcDbLine
 10
823.5802924505444
 20
1138.090858323753
 30
0.0
 11
823.583477337325
 21
1138.073892113791
 31
0.0
  0
LINE
  5
4F3
330
22
100
AcDbEntity
  8
_4-7_
  6
Continuous
 62
     7
100
AcDbLine
 10
823.583477337325
 20
1138.073892113791
 30
0.0
 11
823.5898528822072
 21
1138.057686698646
 31
0.0
  0
LINE
  5
4F4
330
22
100
AcDbEntity
  8
_4-7_
  6
Continuous
 62
     7
100
AcDbLine
 10
823.5898528822072
 20
1138.057686698646
 30
0.0
 11
823.5992253674861
 21
1138.042734471657
 31
0.0
  0
LINE
  5
4F5
330
22
100
AcDbEntity
  8
_4-7_
  6
Continuous
 62
     7
100
AcDbLine
 10
823.5992253674861
 20
1138.042734471657
 30
0.0
 11
823.6113100149395
 21
1138.029489748675
 31
0.0
  0
LINE
  5
4F6
330
22
100
AcDbEntity
  8
_4-7_
  6
Continuous
 62
     7
100
AcDbLine
 10
823.6113100149395
 20
1138.029489748675
 30
0.0
 11
823.6257396386692
 21
1138.018354963905
 31
0.0
  0
LINE
  5
4F7
330
22
100
AcDbEntity
  8
_4-7_
  6
Continuous
 62
     7
100
AcDbLine
 10
823.6257396386692
 20
1138.018354963905
 30
0.0
 11
823.6420758018601
 21
1138.009668442148
 31
0.0
  0
LINE
  5
4F8
330
22
100
AcDbEntity
  8
_4-7_
  6
Continuous
 62
     7
100
AcDbLine
 10
823.6420758018601
 20
1138.009668442148
 30
0.0
 11
823.65982213846
 21
1138.003694118972
 31
0.0
  0
LINE
  5
4F9
330
22
100
AcDbEntity
  8
_4-7_
  6
Continuous
 62
     7
100
AcDbLine
 10
823.65982213846
 20
1138.003694118972
 30
0.0
 11
823.6784394350118
 21
1138.000613521164
 31
0.0
  0
LINE
  5
4FA
330
22
100
AcDbEntity
  8
_4-7_
  6
Continuous
 62
     7
100
AcDbLine
 10
823.6784394350118
 20
1138.000613521164
 30
0.0
 11
823.6973620143801
 21
1138.000520251129
 31
0.0
  0
LINE
  5
4FB
330
22
100
AcDbEntity
  8
_4-7_
  6
Continuous
 62
     7
100
AcDbLine
 10
823.6973620143801
 20
1138.000520251129
 30
0.0
 11
823.7160149235664
 21
1138.00341714283
 31
0.0
  0
LINE
  5
4FC
330
22
100
AcDbEntity
  8
_4-7_
  6
Continuous
 62
     7
100
AcDbLine
 10
823.7160149235664
 20
1138.00341714283
 30
0.0
 11
823.7338314033637
 21
1138.009216175678
 31
0.0
  0
LINE
  5
4FD
330
22
100
AcDbEntity
  8
_4-7_
  6
Continuous
 62
     7
100
AcDbLine
 10
823.7338314033637
 20
1138.009216175678
 30
0.0
 11
823.7502701090495
 21
1138.017741148996
 31
0.0
  0
LINE
  5
4FE
330
22
100
AcDbEntity
  8
_4-7_
  6
Continuous
 62
     7
100
AcDbLine
 10
823.7502701090495
 20
1138.017741148996
 30
0.0
 11
823.7503529142129
 21
1138.017793332594
 31
0.0
  0
LINE
  5
4FF
330
22
100
AcDbEntity
  8
_4-7_
  6
Continuous
 62
     7
100
AcDbLine
 10
828.476125780857
 20
1138.280301292502
 30
0.0
 11
828.476125780857
 21
1138.280301292502
 31
0.0
  0
LINE
  5
500
330
22
100
AcDbEntity
  8
_4-7_
  6
Continuous
 62
     7
100
AcDbLine
 10
828.476125780857
 20
1138.280301292502
 30
0.0
 11
828.4837882537621
 21
1138.227597648256
 31
0.0
  0
LINE
  5
501
330
22
100
AcDbEntity
  8
_4-7_
  6
Continuous
 62
     7
100
AcDbLine
 10
828.4837882537621
 20
1138.227597648256
 30
0.0
 11
828.501396045454
 21
1138.176904947345
 31
0.0
  0
LINE
  5
502
330
22
100
AcDbEntity
  8
_4-7_
  6
Continuous
 62
     7
100
AcDbLine
 10
828.501396045454
 20
1138.176904947345
 30
0.0
 11
828.5284141520923
 21
1138.129763461834
 31
0.0
  0
LINE
  5
503
330
22
100
AcDbEntity
  8
_4-7_
  6
Continuous
 62
     7
100
AcDbLine
 10
828.5284141520923
 20
1138.129763461834
 30
0.0
 11
828.5640216421789
 21
1138.087605561905
 31
0.0
  0
LINE
  5
504
330
22
100
AcDbEntity
  8
_4-7_
  6
Continuous
 62
     7
100
AcDbLine
 10
828.5640216421789
 20
1138.087605561905
 30
0.0
 11
828.6071366001456
 21
1138.051712194015
 31
0.0
  0
LINE
  5
505
330
22
100
AcDbEntity
  8
_4-7_
  6
Continuous
 62
     7
100
AcDbLine
 10
828.6071366001456
 20
1138.051712194015
 30
0.0
 11
828.6564489998117
 21
1138.023173959985
 31
0.0
  0
LINE
  5
506
330
22
100
AcDbEntity
  8
_4-7_
  6
Continuous
 62
     7
100
AcDbLine
 10
828.6564489998117
 20
1138.023173959985
 30
0.0
 11
828.7104605088668
 21
1138.002857979614
 31
0.0
  0
LINE
  5
507
330
22
100
AcDbEntity
  8
_4-7_
  6
Continuous
 62
     7
100
AcDbLine
 10
828.7104605088668
 20
1138.002857979614
 30
0.0
 11
828.7675300149395
 21
1137.991381543686
 31
0.0
  0
LINE
  5
508
330
22
100
AcDbEntity
  8
_4-7_
  6
Continuous
 62
     7
100
AcDbLine
 10
828.7675300149395
 20
1137.991381543686
 30
0.0
 11
828.8259234899662
 21
1137.989093357899
 31
0.0
  0
LINE
  5
509
330
22
100
AcDbEntity
  8
_4-7_
  6
Continuous
 62
     7
100
AcDbLine
 10
828.8259234899662
 20
1137.989093357899
 30
0.0
 11
828.8838666777566
 21
1137.99606294762
 31
0.0
  0
LINE
  5
50A
330
22
100
AcDbEntity
  8
_4-7_
  6
Continuous
 62
     7
100
AcDbLine
 10
828.8838666777566
 20
1137.99606294762
 30
0.0
 11
828.9395990038704
 21
1138.012078545392
 31
0.0
  0
LINE
  5
50B
330
22
100
AcDbEntity
  8
_4-7_
  6
Continuous
 62
     7
100
AcDbLine
 10
828.9395990038704
 20
1138.012078545392
 30
0.0
 11
828.9914270697805
 21
1138.036653525382
 31
0.0
  0
LINE
  5
50C
330
22
100
AcDbEntity
  8
_4-7_
  6
Continuous
 62
     7
100
AcDbLine
 10
828.9914270697805
 20
1138.036653525382
 30
0.0
 11
829.0377761059309
 21
1138.069041189257
 31
0.0
  0
LINE
  5
50D
330
22
100
AcDbEntity
  8
_4-7_
  6
Continuous
 62
     7
100
AcDbLine
 10
829.0377761059309
 20
1138.069041189257
 30
0.0
 11
829.0772378203113
 21
1138.10825745424
 31
0.0
  0
LINE
  5
50E
330
22
100
AcDbEntity
  8
_4-7_
  6
Continuous
 62
     7
100
AcDbLine
 10
829.0772378203113
 20
1138.10825745424
 30
0.0
 11
829.1086131886995
 21
1138.153110753964
 31
0.0
  0
LINE
  5
50F
330
22
100
AcDbEntity
  8
_4-7_
  6
Continuous
 62
     7
100
AcDbLine
 10
829.1086131886995
 20
1138.153110753964
 30
0.0
 11
829.1309488864033
 21
1138.202238243614
 31
0.0
  0
LINE
  5
510
330
22
100
AcDbEntity
  8
_4-7_
  6
Continuous
 62
     7
100
AcDbLine
 10
829.1309488864033
 20
1138.202238243614
 30
0.0
 11
829.1435662545508
 21
1138.254147209275
 31
0.0
  0
LINE
  5
511
330
22
100
AcDbEntity
  8
_4-7_
  6
Continuous
 62
     7
100
AcDbLine
 10
829.1435662545508
 20
1138.254147209275
 30
0.0
 11
829.1460819207946
 21
1138.280301292502
 31
0.0
  0
LINE
  5
512
330
22
100
AcDbEntity
  8
_4-7_
  6
Continuous
 62
     7
100
AcDbLine
 10
833.3719591111702
 20
1138.280301292502
 30
0.0
 11
833.3719591111702
 21
1138.280301292502
 31
0.0
  0
LINE
  5
513
330
22
100
AcDbEntity
  8
_4-7_
  6
Continuous
 62
     7
100
AcDbLine
 10
833.3719591111702
 20
1138.280301292502
 30
0.0
 11
833.3796215840751
 21
1138.227597648256
 31
0.0
  0
LINE
  5
514
330
22
100
AcDbEntity
  8
_4-7_
  6
Continuous
 62
     7
100
AcDbLine
 10
833.3796215840751
 20
1138.227597648256
 30
0.0
 11
833.3972293757671
 21
1138.176904947345
 31
0.0
  0
LINE
  5
515
330
22
100
AcDbEntity
  8
_4-7_
  6
Continuous
 62
     7
100
AcDbLine
 10
833.3972293757671
 20
1138.176904947345
 30
0.0
 11
833.4242474824055
 21
1138.129763461834
 31
0.0
  0
LINE
  5
516
330
22
100
AcDbEntity
  8
_4-7_
  6
Continuous
 62
     7
100
AcDbLine
 10
833.4242474824055
 20
1138.129763461834
 30
0.0
 11
833.4598549724921
 21
1138.087605561905
 31
0.0
  0
LINE
  5
517
330
22
100
AcDbEntity
  8
_4-7_
  6
Continuous
 62
     7
100
AcDbLine
 10
833.4598549724921
 20
1138.087605561905
 30
0.0
 11
833.5029699304586
 21
1138.051712194015
 31
0.0
  0
LINE
  5
518
330
22
100
AcDbEntity
  8
_4-7_
  6
Continuous
 62
     7
100
AcDbLine
 10
833.5029699304586
 20
1138.051712194015
 30
0.0
 11
833.5522823301248
 21
1138.023173959985
 31
0.0
  0
LINE
  5
519
330
22
100
AcDbEntity
  8
_4-7_
  6
Continuous
 62
     7
100
AcDbLine
 10
833.5522823301248
 20
1138.023173959985
 30
0.0
 11
833.6062938391799
 21
1138.002857979614
 31
0.0
  0
LINE
  5
51A
330
22
100
AcDbEntity
  8
_4-7_
  6
Continuous
 62
     7
100
AcDbLine
 10
833.6062938391799
 20
1138.002857979614
 30
0.0
 11
833.6633633452526
 21
1137.991381543686
 31
0.0
  0
LINE
  5
51B
330
22
100
AcDbEntity
  8
_4-7_
  6
Continuous
 62
     7
100
AcDbLine
 10
833.6633633452526
 20
1137.991381543686
 30
0.0
 11
833.721756820279
 21
1137.989093357899
 31
0.0
  0
LINE
  5
51C
330
22
100
AcDbEntity
  8
_4-7_
  6
Continuous
 62
     7
100
AcDbLine
 10
833.721756820279
 20
1137.989093357899
 30
0.0
 11
833.7797000080694
 21
1137.99606294762
 31
0.0
  0
LINE
  5
51D
330
22
100
AcDbEntity
  8
_4-7_
  6
Continuous
 62
     7
100
AcDbLine
 10
833.7797000080694
 20
1137.99606294762
 30
0.0
 11
833.8354323341834
 21
1138.012078545392
 31
0.0
  0
LINE
  5
51E
330
22
100
AcDbEntity
  8
_4-7_
  6
Continuous
 62
     7
100
AcDbLine
 10
833.8354323341834
 20
1138.012078545392
 30
0.0
 11
833.8872604000936
 21
1138.036653525382
 31
0.0
  0
LINE
  5
51F
330
22
100
AcDbEntity
  8
_4-7_
  6
Continuous
 62
     7
100
AcDbLine
 10
833.8872604000936
 20
1138.036653525382
 30
0.0
 11
833.9336094362439
 21
1138.069041189257
 31
0.0
  0
LINE
  5
520
330
22
100
AcDbEntity
  8
_4-7_
  6
Continuous
 62
     7
100
AcDbLine
 10
833.9336094362439
 20
1138.069041189257
 30
0.0
 11
833.9730711506247
 21
1138.10825745424
 31
0.0
  0
LINE
  5
521
330
22
100
AcDbEntity
  8
_4-7_
  6
Continuous
 62
     7
100
AcDbLine
 10
833.9730711506247
 20
1138.10825745424
 30
0.0
 11
834.0044465190127
 21
1138.153110753964
 31
0.0
  0
LINE
  5
522
330
22
100
AcDbEntity
  8
_4-7_
  6
Continuous
 62
     7
100
AcDbLine
 10
834.0044465190127
 20
1138.153110753964
 30
0.0
 11
834.0267822167165
 21
1138.202238243614
 31
0.0
  0
LINE
  5
523
330
22
100
AcDbEntity
  8
_4-7_
  6
Continuous
 62
     7
100
AcDbLine
 10
834.0267822167165
 20
1138.202238243614
 30
0.0
 11
834.0393995848636
 21
1138.254147209275
 31
0.0
  0
LINE
  5
524
330
22
100
AcDbEntity
  8
_4-7_
  6
Continuous
 62
     7
100
AcDbLine
 10
834.0393995848636
 20
1138.254147209275
 30
0.0
 11
834.0419152511076
 21
1138.280301292502
 31
0.0
  0
LINE
  5
525
330
22
100
AcDbEntity
  8
_4-7_
  6
Continuous
 62
     7
100
AcDbLine
 10
821.8796345568566
 20
1138.045618702572
 30
0.0
 11
821.8796345568566
 21
1138.045618702572
 31
0.0
  0
LINE
  5
526
330
22
100
AcDbEntity
  8
_4-7_
  6
Continuous
 62
     7
100
AcDbLine
 10
821.8796345568566
 20
1138.045618702572
 30
0.0
 11
821.9666693205537
 21
1138.048996155338
 31
0.0
  0
LINE
  5
527
330
22
100
AcDbEntity
  8
_4-7_
  6
Continuous
 62
     7
100
AcDbLine
 10
821.9666693205537
 20
1138.048996155338
 30
0.0
 11
822.0517370362305
 21
1138.066069085351
 31
0.0
  0
LINE
  5
528
330
22
100
AcDbEntity
  8
_4-7_
  6
Continuous
 62
     7
100
AcDbLine
 10
822.0517370362305
 20
1138.066069085351
 30
0.0
 11
822.0857749076069
 21
1138.077040785752
 31
0.0
  0
LINE
  5
529
330
22
100
AcDbEntity
  8
_4-7_
  6
Continuous
 62
     7
100
AcDbLine
 10
820.6300548958862
 20
1137.363802698753
 30
0.0
 11
820.6300548958862
 21
1137.363802698753
 31
0.0
  0
LINE
  5
52A
330
22
100
AcDbEntity
  8
_4-7_
  6
Continuous
 62
     7
100
AcDbLine
 10
820.6300548958862
 20
1137.363802698753
 30
0.0
 11
820.6649550174764
 21
1137.365566339274
 31
0.0
  0
LINE
  5
52B
330
22
100
AcDbEntity
  8
_4-7_
  6
Continuous
 62
     7
100
AcDbLine
 10
820.6649550174764
 20
1137.365566339274
 30
0.0
 11
820.6989882286361
 21
1137.372815518954
 31
0.0
  0
LINE
  5
52C
330
22
100
AcDbEntity
  8
_4-7_
  6
Continuous
 62
     7
100
AcDbLine
 10
820.6989882286361
 20
1137.372815518954
 30
0.0
 11
820.7311204474663
 21
1137.385329975139
 31
0.0
  0
LINE
  5
52D
330
22
100
AcDbEntity
  8
_4-7_
  6
Continuous
 62
     7
100
AcDbLine
 10
820.7311204474663
 20
1137.385329975139
 30
0.0
 11
820.7603753527569
 21
1137.402729462408
 31
0.0
  0
LINE
  5
52E
330
22
100
AcDbEntity
  8
_4-7_
  6
Continuous
 62
     7
100
AcDbLine
 10
820.7603753527569
 20
1137.402729462408
 30
0.0
 11
820.7858640490149
 21
1137.424485306146
 31
0.0
  0
LINE
  5
52F
330
22
100
AcDbEntity
  8
_4-7_
  6
Continuous
 62
     7
100
AcDbLine
 10
820.7858640490149
 20
1137.424485306146
 30
0.0
 11
820.8068120751024
 21
1137.449936466051
 31
0.0
  0
LINE
  5
530
330
22
100
AcDbEntity
  8
_4-7_
  6
Continuous
 62
     7
100
AcDbLine
 10
820.8068120751024
 20
1137.449936466051
 30
0.0
 11
820.8225829358466
 21
1137.478309621506
 31
0.0
  0
LINE
  5
531
330
22
100
AcDbEntity
  8
_4-7_
  6
Continuous
 62
     7
100
AcDbLine
 10
820.8225829358466
 20
1137.478309621506
 30
0.0
 11
820.8326974416246
 21
1137.508742668542
 31
0.0
  0
LINE
  5
532
330
22
100
AcDbEntity
  8
_4-7_
  6
Continuous
 62
     7
100
AcDbLine
 10
820.8326974416246
 20
1137.508742668542
 30
0.0
 11
820.8368482682963
 21
1137.540310914424
 31
0.0
  0
LINE
  5
533
330
22
100
AcDbEntity
  8
_4-7_
  6
Continuous
 62
     7
100
AcDbLine
 10
820.8368482682963
 20
1137.540310914424
 30
0.0
 11
820.8349092950935
 21
1137.572055173975
 31
0.0
  0
LINE
  5
534
330
22
100
AcDbEntity
  8
_4-7_
  6
Continuous
 62
     7
100
AcDbLine
 10
820.8349092950935
 20
1137.572055173975
 30
0.0
 11
820.8269394367365
 21
1137.603010913932
 31
0.0
  0
LINE
  5
535
330
22
100
AcDbEntity
  8
_4-7_
  6
Continuous
 62
     7
100
AcDbLine
 10
820.8269394367365
 20
1137.603010913932
 30
0.0
 11
820.8131808533376
 21
1137.6322375598
 31
0.0
  0
LINE
  5
536
330
22
100
AcDbEntity
  8
_4-7_
  6
Continuous
 62
     7
100
AcDbLine
 10
820.8131808533376
 20
1137.6322375598
 30
0.0
 11
820.7940515924921
 21
1137.658847074736
 31
0.0
  0
LINE
  5
537
330
22
100
AcDbEntity
  8
_4-7_
  6
Continuous
 62
     7
100
AcDbLine
 10
820.7940515924921
 20
1137.658847074736
 30
0.0
 11
820.7701328871102
 21
1137.682030942091
 31
0.0
  0
LINE
  5
538
330
22
100
AcDbEntity
  8
_4-7_
  6
Continuous
 62
     7
100
AcDbLine
 10
820.7701328871102
 20
1137.682030942091
 30
0.0
 11
820.7421514949519
 21
1137.701084731789
 31
0.0
  0
LINE
  5
539
330
22
100
AcDbEntity
  8
_4-7_
  6
Continuous
 62
     7
100
AcDbLine
 10
820.7421514949519
 20
1137.701084731789
 30
0.0
 11
820.7109576164581
 21
1137.715429504071
 31
0.0
  0
LINE
  5
53A
330
22
100
AcDbEntity
  8
_4-7_
  6
Continuous
 62
     7
100
AcDbLine
 10
820.7109576164581
 20
1137.715429504071
 30
0.0
 11
820.6774990618429
 21
1137.724629400289
 31
0.0
  0
LINE
  5
53B
330
22
100
AcDbEntity
  8
_4-7_
  6
Continuous
 62
     7
100
AcDbLine
 10
820.6774990618429
 20
1137.724629400289
 30
0.0
 11
820.642792452357
 21
1137.728404886253
 31
0.0
  0
LINE
  5
53C
330
22
100
AcDbEntity
  8
_4-7_
  6
Continuous
 62
     7
100
AcDbLine
 10
820.642792452357
 20
1137.728404886253
 30
0.0
 11
820.642792452357
 21
1137.728404886253
 31
0.0
  0
LINE
  5
53D
330
22
100
AcDbEntity
  8
_2-7_ビス
  6
Continuous
 62
     7
100
AcDbLine
 10
928.6773473151971
 20
409.7961379837872
 30
0.0
 11
932.7728324881091
 21
409.7961379837872
 31
0.0
  0
LINE
  5
53E
330
22
100
AcDbEntity
  8
_2-7_ビス
  6
Continuous
 62
     7
100
AcDbLine
 10
932.7728324881091
 20
409.7961379837872
 30
0.0
 11
932.7728324881091
 21
412.7961379837878
 31
0.0
  0
LINE
  5
53F
330
22
100
AcDbEntity
  8
_2-7_ビス
  6
Continuous
 62
     7
100
AcDbLine
 10
928.6773473151971
 20
409.7961379837872
 30
0.0
 11
927.8527863949932
 21
409.0461379837878
 31
0.0
  0
LINE
  5
540
330
22
100
AcDbEntity
  8
_2-7_ビス
  6
Continuous
 62
     7
100
AcDbLine
 10
927.8527863949932
 20
409.0461379837878
 30
0.0
 11
925.7541806678785
 21
409.0461379837878
 31
0.0
  0
LINE
  5
541
330
22
100
AcDbEntity
  8
_2-7_ビス
  6
Continuous
 62
     7
100
AcDbLine
 10
925.7541806678785
 20
409.0461379837878
 30
0.0
 11
921.6365873546296
 21
409.5943572337885
 31
0.0
  0
LINE
  5
542
330
22
100
AcDbEntity
  8
_2-7_ビス
  6
Continuous
 62
     7
100
AcDbLine
 10
921.6365873546296
 20
409.5943572337885
 30
0.0
 11
921.2289728461087
 21
409.8362809837882
 31
0.0
  0
LINE
  5
543
330
22
100
AcDbEntity
  8
_2-7_ビス
  6
Continuous
 62
     7
100
AcDbLine
 10
921.2289728461087
 20
409.8362809837882
 30
0.0
 11
921.2289728461087
 21
409.7961379837872
 31
0.0
  0
LINE
  5
544
330
22
100
AcDbEntity
  8
_2-7_ビス
  6
Continuous
 62
     7
100
AcDbLine
 10
921.2289728461087
 20
409.7961379837872
 30
0.0
 11
919.4149377595088
 21
409.7961379837872
 31
0.0
  0
LINE
  5
545
330
22
100
AcDbEntity
  8
_2-7_ビス
  6
Continuous
 62
     7
100
AcDbLine
 10
919.4149377595088
 20
409.7961379837872
 30
0.0
 11
918.5903763565089
 21
410.2291505443551
 31
0.0
  0
LINE
  5
546
330
22
100
AcDbEntity
  8
_2-7_ビス
  6
Continuous
 62
     7
100
AcDbLine
 10
918.3430079356083
 20
410.0992467337877
 30
0.0
 11
918.3430079356083
 21
409.1211379837884
 31
0.0
  0
LINE
  5
547
330
22
100
AcDbEntity
  8
_2-7_ビス
  6
Continuous
 62
     7
100
AcDbLine
 10
918.3430079356083
 20
409.1211379837884
 30
0.0
 11
914.1096173417293
 21
409.1211379837884
 31
0.0
  0
LINE
  5
548
330
22
100
AcDbEntity
  8
_2-7_ビス
  6
Continuous
 62
     7
100
AcDbLine
 10
914.1096173417293
 20
409.1211379837884
 30
0.0
 11
913.1482710967086
 21
409.6226074837884
 31
0.0
  0
LINE
  5
549
330
22
100
AcDbEntity
  8
_2-7_ビス
  6
Continuous
 62
     7
100
AcDbLine
 10
913.1482710967086
 20
409.6226074837884
 30
0.0
 11
913.1482710967086
 21
409.627387983788
 31
0.0
  0
LINE
  5
54A
330
22
100
AcDbEntity
  8
_2-7_ビス
  6
Continuous
 62
     7
100
AcDbLine
 10
913.1482714504908
 20
409.6273921570727
 30
0.0
 11
913.1482710967086
 21
409.627387983788
 31
0.0
  0
LINE
  5
54B
330
22
100
AcDbEntity
  8
_2-7_ビス
  6
Continuous
 62
     7
100
AcDbLine
 10
913.1482714504908
 20
409.6273921570727
 30
0.0
 11
913.1482710967086
 21
409.627387983788
 31
0.0
  0
LINE
  5
54C
330
22
100
AcDbEntity
  8
_2-7_ビス
  6
Continuous
 62
     7
100
AcDbLine
 10
912.0763412728093
 20
409.659979233788
 30
0.0
 11
912.0763412728093
 21
409.1211379837884
 31
0.0
  0
LINE
  5
54D
330
22
100
AcDbEntity
  8
_2-7_ビス
  6
Continuous
 62
     7
100
AcDbLine
 10
912.0763412728093
 20
409.1211379837884
 30
0.0
 11
906.2791081360353
 21
409.1211379837884
 31
0.0
  0
LINE
  5
54E
330
22
100
AcDbEntity
  8
_2-7_ビス
  6
Continuous
 62
     7
100
AcDbLine
 10
906.2791081360353
 20
409.1211379837884
 30
0.0
 11
905.3149567662705
 21
409.6273851708483
 31
0.0
  0
LINE
  5
54F
330
22
100
AcDbEntity
  8
_2-7_ビス
  6
Continuous
 62
     7
100
AcDbLine
 10
905.3149377682087
 20
409.627387983788
 30
0.0
 11
905.7923891654491
 21
409.6309796141437
 31
0.0
  0
LINE
  5
550
330
22
100
AcDbEntity
  8
_2-7_ビス
  6
Continuous
 62
     7
100
AcDbLine
 10
905.7923891654491
 20
409.6309796141437
 30
0.0
 11
905.8096746100092
 21
409.9516596217673
 31
0.0
  0
LINE
  5
551
330
22
100
AcDbEntity
  8
_2-7_ビス
  6
Continuous
 62
     7
100
AcDbLine
 10
906.0570430309088
 20
410.1103216619353
 30
0.0
 11
906.8816044339087
 21
409.659979233788
 31
0.0
  0
LINE
  5
552
330
22
100
AcDbEntity
  8
_2-7_ビス
  6
Continuous
 62
     7
100
AcDbLine
 10
906.8816044339087
 20
409.659979233788
 30
0.0
 11
907.3590559029035
 21
409.6599790816648
 31
0.0
  0
LINE
  5
553
330
22
100
AcDbEntity
  8
_2-7_ビス
  6
Continuous
 62
     7
100
AcDbLine
 10
907.3590559029035
 20
409.6599790816648
 30
0.0
 11
907.376341275709
 21
410.008011483787
 31
0.0
  0
LINE
  5
554
330
22
100
AcDbEntity
  8
_2-7_ビス
  6
Continuous
 62
     7
100
AcDbLine
 10
907.6237096966091
 20
410.1676012335085
 30
0.0
 11
908.4482710996088
 21
409.659979233788
 31
0.0
  0
LINE
  5
555
330
22
100
AcDbEntity
  8
_2-7_ビス
  6
Continuous
 62
     7
100
AcDbLine
 10
908.4482710996088
 20
409.659979233788
 30
0.0
 11
908.9257226607172
 21
409.659979233788
 31
0.0
  0
LINE
  5
556
330
22
100
AcDbEntity
  8
_2-7_ビス
  6
Continuous
 62
     7
100
AcDbLine
 10
908.9257226607172
 20
409.659979233788
 30
0.0
 11
908.9430079414093
 21
410.008011483787
 31
0.0
  0
LINE
  5
557
330
22
100
AcDbEntity
  8
_2-7_ビス
  6
Continuous
 62
     7
100
AcDbLine
 10
909.1903763623088
 20
410.1676012335085
 30
0.0
 11
910.0149377653091
 21
409.659979233788
 31
0.0
  0
LINE
  5
558
330
22
100
AcDbEntity
  8
_2-7_ビス
  6
Continuous
 62
     7
100
AcDbLine
 10
910.0149377653091
 20
409.659979233788
 30
0.0
 11
910.4923893264174
 21
409.659979233788
 31
0.0
  0
LINE
  5
559
330
22
100
AcDbEntity
  8
_2-7_ビス
  6
Continuous
 62
     7
100
AcDbLine
 10
910.4923893264174
 20
409.659979233788
 30
0.0
 11
910.509674607109
 21
410.008011483787
 31
0.0
  0
LINE
  5
55A
330
22
100
AcDbEntity
  8
_2-7_ビス
  6
Continuous
 62
     7
100
AcDbLine
 10
910.7570430280087
 20
410.1676012335085
 30
0.0
 11
911.5816044310086
 21
409.6599790816648
 31
0.0
  0
LINE
  5
55B
330
22
100
AcDbEntity
  8
_2-7_ビス
  6
Continuous
 62
     7
100
AcDbLine
 10
911.5816044310086
 20
409.6599790816648
 30
0.0
 11
912.0763412728093
 21
409.659979233788
 31
0.0
  0
LINE
  5
55C
330
22
100
AcDbEntity
  8
_2-7_ビス
  6
Continuous
 62
     7
100
AcDbLine
 10
913.1482714504908
 20
409.6273921570727
 30
0.0
 11
913.6257229194846
 21
409.6310773583181
 31
0.0
  0
LINE
  5
55D
330
22
100
AcDbEntity
  8
_2-7_ビス
  6
Continuous
 62
     7
100
AcDbLine
 10
913.6257229194846
 20
409.6310773583181
 30
0.0
 11
913.6430079385091
 21
409.9485222337872
 31
0.0
  0
LINE
  5
55E
330
22
100
AcDbEntity
  8
_2-7_ビス
  6
Continuous
 62
     7
100
AcDbLine
 10
913.8903763594086
 20
410.110614374108
 30
0.0
 11
914.7149377624087
 21
409.6599790816648
 31
0.0
  0
LINE
  5
55F
330
22
100
AcDbEntity
  8
_2-7_ビス
  6
Continuous
 62
     7
100
AcDbLine
 10
914.7149377624087
 20
409.6599790816648
 30
0.0
 11
915.192389231403
 21
409.6599790816648
 31
0.0
  0
LINE
  5
560
330
22
100
AcDbEntity
  8
_2-7_ビス
  6
Continuous
 62
     7
100
AcDbLine
 10
915.192389231403
 20
409.6599790816648
 30
0.0
 11
915.2096746042094
 21
410.008011483787
 31
0.0
  0
LINE
  5
561
330
22
100
AcDbEntity
  8
_2-7_ビス
  6
Continuous
 62
     7
100
AcDbLine
 10
915.4570430251089
 20
410.1676012335085
 30
0.0
 11
916.2816044281088
 21
409.659979233788
 31
0.0
  0
LINE
  5
562
330
22
100
AcDbEntity
  8
_2-7_ビス
  6
Continuous
 62
     7
100
AcDbLine
 10
916.2816044281088
 20
409.659979233788
 30
0.0
 11
916.7590558971028
 21
409.6599790816648
 31
0.0
  0
LINE
  5
563
330
22
100
AcDbEntity
  8
_2-7_ビス
  6
Continuous
 62
     7
100
AcDbLine
 10
916.7590558971028
 20
409.6599790816648
 30
0.0
 11
916.7765728510687
 21
410.0088975762761
 31
0.0
  0
LINE
  5
564
330
22
100
AcDbEntity
  8
_2-7_ビス
  6
Continuous
 62
     7
100
AcDbLine
 10
917.023709690809
 20
410.1676012335085
 30
0.0
 11
917.8482710938091
 21
409.6599790816648
 31
0.0
  0
LINE
  5
565
330
22
100
AcDbEntity
  8
_2-7_ビス
  6
Continuous
 62
     7
100
AcDbLine
 10
917.8482710938091
 20
409.6599790816648
 30
0.0
 11
918.3430079356083
 21
409.6599792392951
 31
0.0
  0
LINE
  5
566
330
22
100
AcDbEntity
  8
_2-7_ビス
  6
Continuous
 62
     7
100
AcDbLine
 10
904.2430079443089
 20
409.659979233788
 30
0.0
 11
904.2430079443089
 21
409.1211379837884
 31
0.0
  0
LINE
  5
567
330
22
100
AcDbEntity
  8
_2-7_ビス
  6
Continuous
 62
     7
100
AcDbLine
 10
904.2430079443089
 20
409.1211379837884
 30
0.0
 11
900.9947662094715
 21
409.1211379837884
 31
0.0
  0
LINE
  5
568
330
22
100
AcDbEntity
  8
_2-7_ビス
  6
Continuous
 62
     7
100
AcDbLine
 10
900.9947662094715
 20
409.1211379837884
 30
0.0
 11
897.4816044397085
 21
409.6269237337876
 31
0.0
  0
LINE
  5
569
330
22
100
AcDbEntity
  8
_2-7_ビス
  6
Continuous
 62
     7
100
AcDbLine
 10
897.4816044397085
 20
409.6269237337876
 30
0.0
 11
897.9590555238496
 21
409.6276582514517
 31
0.0
  0
LINE
  5
56A
330
22
100
AcDbEntity
  8
_2-7_ビス
  6
Continuous
 62
     7
100
AcDbLine
 10
897.9590555238496
 20
409.6276582514517
 30
0.0
 11
897.9763412815088
 21
409.9363467337886
 31
0.0
  0
LINE
  5
56B
330
22
100
AcDbEntity
  8
_2-7_ビス
  6
Continuous
 62
     7
100
AcDbLine
 10
897.4816044397085
 20
409.6269237337876
 30
0.0
 11
896.6570430367085
 21
410.0604005443548
 31
0.0
  0
LINE
  5
56C
330
22
100
AcDbEntity
  8
_2-7_ビス
  6
Continuous
 62
     7
100
AcDbLine
 10
898.2237097024084
 20
410.0809032985759
 30
0.0
 11
899.0482711054085
 21
409.6303009651157
 31
0.0
  0
LINE
  5
56D
330
22
100
AcDbEntity
  8
_2-7_ビス
  6
Continuous
 62
     7
100
AcDbLine
 10
899.0482711054085
 20
409.6303009651157
 30
0.0
 11
899.5257221895483
 21
409.6323858693775
 31
0.0
  0
LINE
  5
56E
330
22
100
AcDbEntity
  8
_2-7_ビス
  6
Continuous
 62
     7
100
AcDbLine
 10
899.5257221895483
 20
409.6323858693775
 30
0.0
 11
899.543007947209
 21
409.954712733788
 31
0.0
  0
LINE
  5
56F
330
22
100
AcDbEntity
  8
_2-7_ビス
  6
Continuous
 62
     7
100
AcDbLine
 10
899.7903763681085
 20
410.1032182296054
 30
0.0
 11
900.6149373862546
 21
409.6393503702822
 31
0.0
  0
LINE
  5
570
330
22
100
AcDbEntity
  8
_2-7_ビス
  6
Continuous
 62
     7
100
AcDbLine
 10
900.6149373862546
 20
409.6393503702822
 30
0.0
 11
901.0923888552495
 21
409.6434132109785
 31
0.0
  0
LINE
  5
571
330
22
100
AcDbEntity
  8
_2-7_ビス
  6
Continuous
 62
     7
100
AcDbLine
 10
901.0923888552495
 20
409.6434132109785
 30
0.0
 11
901.1096746129087
 21
409.9780665662464
 31
0.0
  0
LINE
  5
572
330
22
100
AcDbEntity
  8
_2-7_ビス
  6
Continuous
 62
     7
100
AcDbLine
 10
901.3570430338086
 20
410.1353211824149
 30
0.0
 11
902.1816040519547
 21
409.6551185582095
 31
0.0
  0
LINE
  5
573
330
22
100
AcDbEntity
  8
_2-7_ビス
  6
Continuous
 62
     7
100
AcDbLine
 10
902.1816040519547
 20
409.6551185582095
 30
0.0
 11
902.6590559979172
 21
409.659979233788
 31
0.0
  0
LINE
  5
574
330
22
100
AcDbEntity
  8
_2-7_ビス
  6
Continuous
 62
     7
100
AcDbLine
 10
902.6590559979172
 20
409.659979233788
 30
0.0
 11
902.676341278609
 21
410.008011483787
 31
0.0
  0
LINE
  5
575
330
22
100
AcDbEntity
  8
_2-7_ビス
  6
Continuous
 62
     7
100
AcDbLine
 10
902.9237096995087
 20
410.1676012335085
 30
0.0
 11
903.7482711025088
 21
409.6599790816648
 31
0.0
  0
LINE
  5
576
330
22
100
AcDbEntity
  8
_2-7_ビス
  6
Continuous
 62
     7
100
AcDbLine
 10
903.7482711025088
 20
409.6599790816648
 30
0.0
 11
904.2430079443089
 21
409.659979233788
 31
0.0
  0
LINE
  5
577
330
22
100
AcDbEntity
  8
_2-7_ビス
  6
Continuous
 62
     7
100
AcDbLine
 10
896.4096746158087
 20
409.9304967337886
 30
0.0
 11
896.4096746158087
 21
409.7961379837872
 31
0.0
  0
LINE
  5
578
330
22
100
AcDbEntity
  8
_2-7_ビス
  6
Continuous
 62
     7
100
AcDbLine
 10
896.4096746158087
 20
409.7961379837872
 30
0.0
 11
895.6263412829583
 21
409.7961379837872
 31
0.0
  0
LINE
  5
579
330
22
100
AcDbEntity
  8
_2-7_ビス
  6
Continuous
 62
     7
100
AcDbLine
 10
895.6263412829583
 20
409.7961379837872
 30
0.0
 11
895.6263412829583
 21
409.9461379837881
 31
0.0
  0
LINE
  5
57A
330
22
100
AcDbEntity
  8
_2-7_ビス
  6
Continuous
 62
     7
100
AcDbLine
 10
895.6263412829583
 20
409.9461379837881
 30
0.0
 11
894.0184465471087
 21
409.9461379837881
 31
0.0
  0
LINE
  5
57B
330
22
100
AcDbEntity
  8
_2-7_ビス
  6
Continuous
 62
     7
100
AcDbLine
 10
894.0184465471087
 20
409.9461379837881
 30
0.0
 11
894.0184465471087
 21
409.9526047945889
 31
0.0
  0
LINE
  5
57C
330
22
100
AcDbEntity
  8
_2-7_ビス
  6
Continuous
 62
     7
100
AcDbLine
 10
893.6886219859093
 20
410.0028799837875
 30
0.0
 11
887.7381803930893
 21
410.0028801303265
 31
0.0
  0
LINE
  5
57D
330
22
100
AcDbEntity
  8
_2-7_ビス
  6
Continuous
 62
     7
100
AcDbLine
 10
887.7381803930893
 20
410.0028801303265
 30
0.0
 11
887.0867595689299
 21
410.4433174837876
 31
0.0
  0
LINE
  5
57E
330
22
100
AcDbEntity
  8
_2-7_ビス
  6
Continuous
 62
     7
100
AcDbLine
 10
887.0867595689299
 20
410.4433174837876
 30
0.0
 11
885.7728325171091
 21
411.4461379837879
 31
0.0
  0
LINE
  5
57F
330
22
100
AcDbEntity
  8
_2-7_ビス
  6
Continuous
 62
     7
100
AcDbLine
 10
885.7728325171091
 20
411.4461379837879
 30
0.0
 11
885.7728325171091
 21
411.5955164632825
 31
0.0
  0
LINE
  5
580
330
22
100
AcDbEntity
  8
_2-7_ビス
  6
Continuous
 62
     7
100
AcDbLine
 10
885.7728325171091
 20
411.5955164632825
 30
0.0
 11
887.7381803930893
 21
410.510422353968
 31
0.0
  0
LINE
  5
581
330
22
100
AcDbEntity
  8
_2-7_ビス
  6
Continuous
 62
     7
100
AcDbLine
 10
887.7381803930893
 20
410.510422353968
 30
0.0
 11
891.7096746187086
 21
410.5104222337874
 31
0.0
  0
LINE
  5
582
330
22
100
AcDbEntity
  8
_2-7_ビス
  6
Continuous
 62
     7
100
AcDbLine
 10
891.7096746187086
 20
411.0937857337874
 30
0.0
 11
887.7381805457877
 21
411.0937854603556
 31
0.0
  0
LINE
  5
583
330
22
100
AcDbEntity
  8
_2-7_ビス
  6
Continuous
 62
     7
100
AcDbLine
 10
887.7381805457877
 20
411.0937854603556
 30
0.0
 11
885.7728325171091
 21
412.1788798255883
 31
0.0
  0
LINE
  5
584
330
22
100
AcDbEntity
  8
_2-7_ビス
  6
Continuous
 62
     7
100
AcDbLine
 10
885.7728325171091
 20
412.1788798255883
 30
0.0
 11
885.7728325171091
 21
412.7961379837878
 31
0.0
  0
LINE
  5
585
330
22
100
AcDbEntity
  8
_2-7_ビス
  6
Continuous
 62
     7
100
AcDbLine
 10
918.6107757691743
 20
410.2184378787048
 30
0.0
 11
918.6107757691743
 21
410.2184378787048
 31
0.0
  0
LINE
  5
586
330
22
100
AcDbEntity
  8
_2-7_ビス
  6
Continuous
 62
     7
100
AcDbLine
 10
918.6107757691743
 20
410.2184378787048
 30
0.0
 11
918.5845164137978
 21
410.2316360040596
 31
0.0
  0
LINE
  5
587
330
22
100
AcDbEntity
  8
_2-7_ビス
  6
Continuous
 62
     7
100
AcDbLine
 10
918.5845164137978
 20
410.2316360040596
 30
0.0
 11
918.5561363238287
 21
410.2404860614311
 31
0.0
  0
LINE
  5
588
330
22
100
AcDbEntity
  8
_2-7_ビス
  6
Continuous
 62
     7
100
AcDbLine
 10
918.5561363238287
 20
410.2404860614311
 30
0.0
 11
918.5264978139404
 21
410.244719146304
 31
0.0
  0
LINE
  5
589
330
22
100
AcDbEntity
  8
_2-7_ビス
  6
Continuous
 62
     7
100
AcDbLine
 10
918.5264978139404
 20
410.244719146304
 30
0.0
 11
918.4965014352576
 21
410.2442066385369
 31
0.0
  0
LINE
  5
58A
330
22
100
AcDbEntity
  8
_2-7_ビス
  6
Continuous
 62
     7
100
AcDbLine
 10
918.4965014352576
 20
410.2442066385369
 30
0.0
 11
918.4670586125676
 21
410.2389641104188
 31
0.0
  0
LINE
  5
58B
330
22
100
AcDbEntity
  8
_2-7_ビス
  6
Continuous
 62
     7
100
AcDbLine
 10
918.4670586125676
 20
410.2389641104188
 30
0.0
 11
918.4390639511391
 21
410.2291508535136
 31
0.0
  0
LINE
  5
58C
330
22
100
AcDbEntity
  8
_2-7_ビス
  6
Continuous
 62
     7
100
AcDbLine
 10
918.4390639511391
 20
410.2291508535136
 30
0.0
 11
918.413368054594
 21
410.2150650386665
 31
0.0
  0
LINE
  5
58D
330
22
100
AcDbEntity
  8
_2-7_ビス
  6
Continuous
 62
     7
100
AcDbLine
 10
918.413368054594
 20
410.2150650386665
 30
0.0
 11
918.3907516797457
 21
410.1971346562343
 31
0.0
  0
LINE
  5
58E
330
22
100
AcDbEntity
  8
_2-7_ビス
  6
Continuous
 62
     7
100
AcDbLine
 10
918.3907516797457
 20
410.1971346562343
 30
0.0
 11
918.3719020136994
 21
410.1759045118137
 31
0.0
  0
LINE
  5
58F
330
22
100
AcDbEntity
  8
_2-7_ビス
  6
Continuous
 62
     7
100
AcDbLine
 10
918.3719020136994
 20
410.1759045118137
 30
0.0
 11
918.3573917940199
 21
410.1520196726
 31
0.0
  0
LINE
  5
590
330
22
100
AcDbEntity
  8
_2-7_ビス
  6
Continuous
 62
     7
100
AcDbLine
 10
918.3573917940199
 20
410.1520196726
 30
0.0
 11
918.3476619063895
 21
410.1262058673464
 31
0.0
  0
LINE
  5
591
330
22
100
AcDbEntity
  8
_2-7_ビス
  6
Continuous
 62
     7
100
AcDbLine
 10
918.3476619063895
 20
410.1262058673464
 30
0.0
 11
918.3430079885203
 21
410.0992474354632
 31
0.0
  0
LINE
  5
592
330
22
100
AcDbEntity
  8
_2-7_ビス
  6
Continuous
 62
     7
100
AcDbLine
 10
918.3430079885203
 20
410.0992474354632
 30
0.0
 11
918.3430079356083
 21
410.0992467337878
 31
0.0
  0
LINE
  5
593
330
22
100
AcDbEntity
  8
_2-7_ビス
  6
Continuous
 62
     7
100
AcDbLine
 10
917.0237096908087
 20
410.1676012335092
 30
0.0
 11
917.0237096908087
 21
410.1676012335092
 31
0.0
  0
LINE
  5
594
330
22
100
AcDbEntity
  8
_2-7_ビス
  6
Continuous
 62
     7
100
AcDbLine
 10
917.0237096908087
 20
410.1676012335092
 30
0.0
 11
916.9837515368204
 21
410.1682723390962
 31
0.0
  0
LINE
  5
595
330
22
100
AcDbEntity
  8
_2-7_ビス
  6
Continuous
 62
     7
100
AcDbLine
 10
916.9837515368204
 20
410.1682723390962
 30
0.0
 11
916.9442723152382
 21
410.1626220205321
 31
0.0
  0
LINE
  5
596
330
22
100
AcDbEntity
  8
_2-7_ビス
  6
Continuous
 62
     7
100
AcDbLine
 10
916.9442723152382
 20
410.1626220205321
 30
0.0
 11
916.9064715822321
 21
410.1508219598874
 31
0.0
  0
LINE
  5
597
330
22
100
AcDbEntity
  8
_2-7_ビス
  6
Continuous
 62
     7
100
AcDbLine
 10
916.9064715822321
 20
410.1508219598874
 30
0.0
 11
916.8714978939473
 21
410.1332306960334
 31
0.0
  0
LINE
  5
598
330
22
100
AcDbEntity
  8
_2-7_ビス
  6
Continuous
 62
     7
100
AcDbLine
 10
916.8714978939473
 20
410.1332306960334
 30
0.0
 11
916.8404139082035
 21
410.1103827306208
 31
0.0
  0
LINE
  5
599
330
22
100
AcDbEntity
  8
_2-7_ビス
  6
Continuous
 62
     7
100
AcDbLine
 10
916.8404139082035
 20
410.1103827306208
 30
0.0
 11
916.8141640961792
 21
410.0829722875172
 31
0.0
  0
LINE
  5
59A
330
22
100
AcDbEntity
  8
_2-7_ビス
  6
Continuous
 62
     7
100
AcDbLine
 10
916.8141640961792
 20
410.0829722875172
 30
0.0
 11
916.7935460451296
 21
410.0518322191656
 31
0.0
  0
LINE
  5
59B
330
22
100
AcDbEntity
  8
_2-7_ビス
  6
Continuous
 62
     7
100
AcDbLine
 10
916.7935460451296
 20
410.0518322191656
 30
0.0
 11
916.7791862241022
 21
410.0179087007855
 31
0.0
  0
LINE
  5
59C
330
22
100
AcDbEntity
  8
_2-7_ビス
  6
Continuous
 62
     7
100
AcDbLine
 10
916.7791862241022
 20
410.0179087007855
 30
0.0
 11
916.7763412699086
 21
410.0080114837885
 31
0.0
  0
LINE
  5
59D
330
22
100
AcDbEntity
  8
_2-7_ビス
  6
Continuous
 62
     7
100
AcDbLine
 10
915.4570430251085
 20
410.1676012335092
 30
0.0
 11
915.4570430251085
 21
410.1676012335092
 31
0.0
  0
LINE
  5
59E
330
22
100
AcDbEntity
  8
_2-7_ビス
  6
Continuous
 62
     7
100
AcDbLine
 10
915.4570430251085
 20
410.1676012335092
 30
0.0
 11
915.4170848711203
 21
410.1682723390962
 31
0.0
  0
LINE
  5
59F
330
22
100
AcDbEntity
  8
_2-7_ビス
  6
Continuous
 62
     7
100
AcDbLine
 10
915.4170848711203
 20
410.1682723390962
 30
0.0
 11
915.3776056495377
 21
410.1626220205321
 31
0.0
  0
LINE
  5
5A0
330
22
100
AcDbEntity
  8
_2-7_ビス
  6
Continuous
 62
     7
100
AcDbLine
 10
915.3776056495377
 20
410.1626220205321
 30
0.0
 11
915.3398049165321
 21
410.1508219598874
 31
0.0
  0
LINE
  5
5A1
330
22
100
AcDbEntity
  8
_2-7_ビス
  6
Continuous
 62
     7
100
AcDbLine
 10
915.3398049165321
 20
410.1508219598874
 30
0.0
 11
915.304831228247
 21
410.1332306960334
 31
0.0
  0
LINE
  5
5A2
330
22
100
AcDbEntity
  8
_2-7_ビス
  6
Continuous
 62
     7
100
AcDbLine
 10
915.304831228247
 20
410.1332306960334
 30
0.0
 11
915.2737472425036
 21
410.1103827306208
 31
0.0
  0
LINE
  5
5A3
330
22
100
AcDbEntity
  8
_2-7_ビス
  6
Continuous
 62
     7
100
AcDbLine
 10
915.2737472425036
 20
410.1103827306208
 30
0.0
 11
915.2474974304793
 21
410.0829722875172
 31
0.0
  0
LINE
  5
5A4
330
22
100
AcDbEntity
  8
_2-7_ビス
  6
Continuous
 62
     7
100
AcDbLine
 10
915.2474974304793
 20
410.0829722875172
 30
0.0
 11
915.2268793794297
 21
410.0518322191656
 31
0.0
  0
LINE
  5
5A5
330
22
100
AcDbEntity
  8
_2-7_ビス
  6
Continuous
 62
     7
100
AcDbLine
 10
915.2268793794297
 20
410.0518322191656
 30
0.0
 11
915.2125195584023
 21
410.0179087007855
 31
0.0
  0
LINE
  5
5A6
330
22
100
AcDbEntity
  8
_2-7_ビス
  6
Continuous
 62
     7
100
AcDbLine
 10
915.2125195584023
 20
410.0179087007855
 30
0.0
 11
915.2096746042087
 21
410.0080114837885
 31
0.0
  0
LINE
  5
5A7
330
22
100
AcDbEntity
  8
_2-7_ビス
  6
Continuous
 62
     7
100
AcDbLine
 10
913.8903763594086
 20
410.1106143741075
 30
0.0
 11
913.8903763594086
 21
410.1106143741075
 31
0.0
  0
LINE
  5
5A8
330
22
100
AcDbEntity
  8
_2-7_ビス
  6
Continuous
 62
     7
100
AcDbLine
 10
913.8903763594086
 20
410.1106143741075
 30
0.0
 11
913.85041820542
 21
410.1112854796945
 31
0.0
  0
LINE
  5
5A9
330
22
100
AcDbEntity
  8
_2-7_ビス
  6
Continuous
 62
     7
100
AcDbLine
 10
913.85041820542
 20
410.1112854796945
 30
0.0
 11
913.8109389838382
 21
410.1056351611306
 31
0.0
  0
LINE
  5
5AA
330
22
100
AcDbEntity
  8
_2-7_ビス
  6
Continuous
 62
     7
100
AcDbLine
 10
913.8109389838382
 20
410.1056351611306
 30
0.0
 11
913.773138250832
 21
410.0938351004857
 31
0.0
  0
LINE
  5
5AB
330
22
100
AcDbEntity
  8
_2-7_ビス
  6
Continuous
 62
     7
100
AcDbLine
 10
913.773138250832
 20
410.0938351004857
 30
0.0
 11
913.738164562547
 21
410.0762438366319
 31
0.0
  0
LINE
  5
5AC
330
22
100
AcDbEntity
  8
_2-7_ビス
  6
Continuous
 62
     7
100
AcDbLine
 10
913.738164562547
 20
410.0762438366319
 30
0.0
 11
913.7070805768034
 21
410.0533958712192
 31
0.0
  0
LINE
  5
5AD
330
22
100
AcDbEntity
  8
_2-7_ビス
  6
Continuous
 62
     7
100
AcDbLine
 10
913.7070805768034
 20
410.0533958712192
 30
0.0
 11
913.6808307647791
 21
410.0259854281156
 31
0.0
  0
LINE
  5
5AE
330
22
100
AcDbEntity
  8
_2-7_ビス
  6
Continuous
 62
     7
100
AcDbLine
 10
913.6808307647791
 20
410.0259854281156
 30
0.0
 11
913.6602127137296
 21
409.994845359764
 31
0.0
  0
LINE
  5
5AF
330
22
100
AcDbEntity
  8
_2-7_ビス
  6
Continuous
 62
     7
100
AcDbLine
 10
913.6602127137296
 20
409.994845359764
 30
0.0
 11
913.645852892702
 21
409.9609218413839
 31
0.0
  0
LINE
  5
5B0
330
22
100
AcDbEntity
  8
_2-7_ビス
  6
Continuous
 62
     7
100
AcDbLine
 10
913.645852892702
 20
409.9609218413839
 30
0.0
 11
913.6430079385085
 21
409.9510246243869
 31
0.0
  0
LINE
  5
5B1
330
22
100
AcDbEntity
  8
_2-7_ビス
  6
Continuous
 62
     7
100
AcDbLine
 10
910.7570430280084
 20
410.1676012335092
 30
0.0
 11
910.7570430280084
 21
410.1676012335092
 31
0.0
  0
LINE
  5
5B2
330
22
100
AcDbEntity
  8
_2-7_ビス
  6
Continuous
 62
     7
100
AcDbLine
 10
910.7570430280084
 20
410.1676012335092
 30
0.0
 11
910.7170848740201
 21
410.1682723390962
 31
0.0
  0
LINE
  5
5B3
330
22
100
AcDbEntity
  8
_2-7_ビス
  6
Continuous
 62
     7
100
AcDbLine
 10
910.7170848740201
 20
410.1682723390962
 30
0.0
 11
910.6776056524379
 21
410.1626220205321
 31
0.0
  0
LINE
  5
5B4
330
22
100
AcDbEntity
  8
_2-7_ビス
  6
Continuous
 62
     7
100
AcDbLine
 10
910.6776056524379
 20
410.1626220205321
 30
0.0
 11
910.6398049194321
 21
410.1508219598874
 31
0.0
  0
LINE
  5
5B5
330
22
100
AcDbEntity
  8
_2-7_ビス
  6
Continuous
 62
     7
100
AcDbLine
 10
910.6398049194321
 20
410.1508219598874
 30
0.0
 11
910.6048312311468
 21
410.1332306960334
 31
0.0
  0
LINE
  5
5B6
330
22
100
AcDbEntity
  8
_2-7_ビス
  6
Continuous
 62
     7
100
AcDbLine
 10
910.6048312311468
 20
410.1332306960334
 30
0.0
 11
910.5737472454034
 21
410.1103827306208
 31
0.0
  0
LINE
  5
5B7
330
22
100
AcDbEntity
  8
_2-7_ビス
  6
Continuous
 62
     7
100
AcDbLine
 10
910.5737472454034
 20
410.1103827306208
 30
0.0
 11
910.5474974333793
 21
410.0829722875172
 31
0.0
  0
LINE
  5
5B8
330
22
100
AcDbEntity
  8
_2-7_ビス
  6
Continuous
 62
     7
100
AcDbLine
 10
910.5474974333793
 20
410.0829722875172
 30
0.0
 11
910.5268793823295
 21
410.0518322191656
 31
0.0
  0
LINE
  5
5B9
330
22
100
AcDbEntity
  8
_2-7_ビス
  6
Continuous
 62
     7
100
AcDbLine
 10
910.5268793823295
 20
410.0518322191656
 30
0.0
 11
910.5125195613021
 21
410.0179087007855
 31
0.0
  0
LINE
  5
5BA
330
22
100
AcDbEntity
  8
_2-7_ビス
  6
Continuous
 62
     7
100
AcDbLine
 10
910.5125195613021
 20
410.0179087007855
 30
0.0
 11
910.5096746071083
 21
410.0080114837885
 31
0.0
  0
LINE
  5
5BB
330
22
100
AcDbEntity
  8
_2-7_ビス
  6
Continuous
 62
     7
100
AcDbLine
 10
909.1903763623085
 20
410.1676012335092
 30
0.0
 11
909.1903763623085
 21
410.1676012335092
 31
0.0
  0
LINE
  5
5BC
330
22
100
AcDbEntity
  8
_2-7_ビス
  6
Continuous
 62
     7
100
AcDbLine
 10
909.1903763623085
 20
410.1676012335092
 30
0.0
 11
909.15041820832
 21
410.1682723390962
 31
0.0
  0
LINE
  5
5BD
330
22
100
AcDbEntity
  8
_2-7_ビス
  6
Continuous
 62
     7
100
AcDbLine
 10
909.15041820832
 20
410.1682723390962
 30
0.0
 11
909.1109389867378
 21
410.1626220205321
 31
0.0
  0
LINE
  5
5BE
330
22
100
AcDbEntity
  8
_2-7_ビス
  6
Continuous
 62
     7
100
AcDbLine
 10
909.1109389867378
 20
410.1626220205321
 30
0.0
 11
909.0731382537319
 21
410.1508219598874
 31
0.0
  0
LINE
  5
5BF
330
22
100
AcDbEntity
  8
_2-7_ビス
  6
Continuous
 62
     7
100
AcDbLine
 10
909.0731382537319
 20
410.1508219598874
 30
0.0
 11
909.0381645654469
 21
410.1332306960334
 31
0.0
  0
LINE
  5
5C0
330
22
100
AcDbEntity
  8
_2-7_ビス
  6
Continuous
 62
     7
100
AcDbLine
 10
909.0381645654469
 20
410.1332306960334
 30
0.0
 11
909.0070805797033
 21
410.1103827306208
 31
0.0
  0
LINE
  5
5C1
330
22
100
AcDbEntity
  8
_2-7_ビス
  6
Continuous
 62
     7
100
AcDbLine
 10
909.0070805797033
 20
410.1103827306208
 30
0.0
 11
908.9808307676793
 21
410.0829722875172
 31
0.0
  0
LINE
  5
5C2
330
22
100
AcDbEntity
  8
_2-7_ビス
  6
Continuous
 62
     7
100
AcDbLine
 10
908.9808307676793
 20
410.0829722875172
 30
0.0
 11
908.9602127166291
 21
410.0518322191656
 31
0.0
  0
LINE
  5
5C3
330
22
100
AcDbEntity
  8
_2-7_ビス
  6
Continuous
 62
     7
100
AcDbLine
 10
908.9602127166291
 20
410.0518322191656
 30
0.0
 11
908.9458528956017
 21
410.0179087007855
 31
0.0
  0
LINE
  5
5C4
330
22
100
AcDbEntity
  8
_2-7_ビス
  6
Continuous
 62
     7
100
AcDbLine
 10
908.9458528956017
 20
410.0179087007855
 30
0.0
 11
908.9430079414084
 21
410.0080114837885
 31
0.0
  0
LINE
  5
5C5
330
22
100
AcDbEntity
  8
_2-7_ビス
  6
Continuous
 62
     7
100
AcDbLine
 10
907.6237096966083
 20
410.1676012335092
 30
0.0
 11
907.6237096966083
 21
410.1676012335092
 31
0.0
  0
LINE
  5
5C6
330
22
100
AcDbEntity
  8
_2-7_ビス
  6
Continuous
 62
     7
100
AcDbLine
 10
907.6237096966083
 20
410.1676012335092
 30
0.0
 11
907.5837515426199
 21
410.1682723390962
 31
0.0
  0
LINE
  5
5C7
330
22
100
AcDbEntity
  8
_2-7_ビス
  6
Continuous
 62
     7
100
AcDbLine
 10
907.5837515426199
 20
410.1682723390962
 30
0.0
 11
907.5442723210377
 21
410.1626220205321
 31
0.0
  0
LINE
  5
5C8
330
22
100
AcDbEntity
  8
_2-7_ビス
  6
Continuous
 62
     7
100
AcDbLine
 10
907.5442723210377
 20
410.1626220205321
 30
0.0
 11
907.5064715880321
 21
410.1508219598874
 31
0.0
  0
LINE
  5
5C9
330
22
100
AcDbEntity
  8
_2-7_ビス
  6
Continuous
 62
     7
100
AcDbLine
 10
907.5064715880321
 20
410.1508219598874
 30
0.0
 11
907.4714978997468
 21
410.1332306960334
 31
0.0
  0
LINE
  5
5CA
330
22
100
AcDbEntity
  8
_2-7_ビス
  6
Continuous
 62
     7
100
AcDbLine
 10
907.4714978997468
 20
410.1332306960334
 30
0.0
 11
907.4404139140034
 21
410.1103827306208
 31
0.0
  0
LINE
  5
5CB
330
22
100
AcDbEntity
  8
_2-7_ビス
  6
Continuous
 62
     7
100
AcDbLine
 10
907.4404139140034
 20
410.1103827306208
 30
0.0
 11
907.4141641019791
 21
410.0829722875172
 31
0.0
  0
LINE
  5
5CC
330
22
100
AcDbEntity
  8
_2-7_ビス
  6
Continuous
 62
     7
100
AcDbLine
 10
907.4141641019791
 20
410.0829722875172
 30
0.0
 11
907.3935460509291
 21
410.0518322191656
 31
0.0
  0
LINE
  5
5CD
330
22
100
AcDbEntity
  8
_2-7_ビス
  6
Continuous
 62
     7
100
AcDbLine
 10
907.3935460509291
 20
410.0518322191656
 30
0.0
 11
907.3791862299021
 21
410.0179087007855
 31
0.0
  0
LINE
  5
5CE
330
22
100
AcDbEntity
  8
_2-7_ビス
  6
Continuous
 62
     7
100
AcDbLine
 10
907.3791862299021
 20
410.0179087007855
 30
0.0
 11
907.3763412757084
 21
410.0080114837885
 31
0.0
  0
LINE
  5
5CF
330
22
100
AcDbEntity
  8
_2-7_ビス
  6
Continuous
 62
     7
100
AcDbLine
 10
906.0570430309084
 20
410.1103216619349
 30
0.0
 11
906.0570430309084
 21
410.1103216619349
 31
0.0
  0
LINE
  5
5D0
330
22
100
AcDbEntity
  8
_2-7_ビス
  6
Continuous
 62
     7
100
AcDbLine
 10
906.0570430309084
 20
410.1103216619349
 30
0.0
 11
906.01708487692
 21
410.1109927675219
 31
0.0
  0
LINE
  5
5D1
330
22
100
AcDbEntity
  8
_2-7_ビス
  6
Continuous
 62
     7
100
AcDbLine
 10
906.01708487692
 20
410.1109927675219
 30
0.0
 11
905.9776056553376
 21
410.1053424489578
 31
0.0
  0
LINE
  5
5D2
330
22
100
AcDbEntity
  8
_2-7_ビス
  6
Continuous
 62
     7
100
AcDbLine
 10
905.9776056553376
 20
410.1053424489578
 30
0.0
 11
905.939804922332
 21
410.0935423883131
 31
0.0
  0
LINE
  5
5D3
330
22
100
AcDbEntity
  8
_2-7_ビス
  6
Continuous
 62
     7
100
AcDbLine
 10
905.939804922332
 20
410.0935423883131
 30
0.0
 11
905.9048312340468
 21
410.0759511244591
 31
0.0
  0
LINE
  5
5D4
330
22
100
AcDbEntity
  8
_2-7_ビス
  6
Continuous
 62
     7
100
AcDbLine
 10
905.9048312340468
 20
410.0759511244591
 30
0.0
 11
905.8737472483034
 21
410.0531031590466
 31
0.0
  0
LINE
  5
5D5
330
22
100
AcDbEntity
  8
_2-7_ビス
  6
Continuous
 62
     7
100
AcDbLine
 10
905.8737472483034
 20
410.0531031590466
 30
0.0
 11
905.8474974362789
 21
410.0256927159428
 31
0.0
  0
LINE
  5
5D6
330
22
100
AcDbEntity
  8
_2-7_ビス
  6
Continuous
 62
     7
100
AcDbLine
 10
905.8474974362789
 20
410.0256927159428
 30
0.0
 11
905.8268793852292
 21
409.9945526475913
 31
0.0
  0
LINE
  5
5D7
330
22
100
AcDbEntity
  8
_2-7_ビス
  6
Continuous
 62
     7
100
AcDbLine
 10
905.8268793852292
 20
409.9945526475913
 30
0.0
 11
905.8125195642018
 21
409.9606291292112
 31
0.0
  0
LINE
  5
5D8
330
22
100
AcDbEntity
  8
_2-7_ビス
  6
Continuous
 62
     7
100
AcDbLine
 10
905.8125195642018
 20
409.9606291292112
 30
0.0
 11
905.8096746100083
 21
409.9507319122142
 31
0.0
  0
LINE
  5
5D9
330
22
100
AcDbEntity
  8
_2-7_ビス
  6
Continuous
 62
     7
100
AcDbLine
 10
902.9237096995085
 20
410.1676012335092
 30
0.0
 11
902.9237096995085
 21
410.1676012335092
 31
0.0
  0
LINE
  5
5DA
330
22
100
AcDbEntity
  8
_2-7_ビス
  6
Continuous
 62
     7
100
AcDbLine
 10
902.9237096995085
 20
410.1676012335092
 30
0.0
 11
902.8837515455199
 21
410.1682723390962
 31
0.0
  0
LINE
  5
5DB
330
22
100
AcDbEntity
  8
_2-7_ビス
  6
Continuous
 62
     7
100
AcDbLine
 10
902.8837515455199
 20
410.1682723390962
 30
0.0
 11
902.8442723239377
 21
410.1626220205321
 31
0.0
  0
LINE
  5
5DC
330
22
100
AcDbEntity
  8
_2-7_ビス
  6
Continuous
 62
     7
100
AcDbLine
 10
902.8442723239377
 20
410.1626220205321
 30
0.0
 11
902.8064715909319
 21
410.1508219598874
 31
0.0
  0
LINE
  5
5DD
330
22
100
AcDbEntity
  8
_2-7_ビス
  6
Continuous
 62
     7
100
AcDbLine
 10
902.8064715909319
 20
410.1508219598874
 30
0.0
 11
902.7714979026468
 21
410.1332306960334
 31
0.0
  0
LINE
  5
5DE
330
22
100
AcDbEntity
  8
_2-7_ビス
  6
Continuous
 62
     7
100
AcDbLine
 10
902.7714979026468
 20
410.1332306960334
 30
0.0
 11
902.7404139169032
 21
410.1103827306208
 31
0.0
  0
LINE
  5
5DF
330
22
100
AcDbEntity
  8
_2-7_ビス
  6
Continuous
 62
     7
100
AcDbLine
 10
902.7404139169032
 20
410.1103827306208
 30
0.0
 11
902.7141641048787
 21
410.0829722875172
 31
0.0
  0
LINE
  5
5E0
330
22
100
AcDbEntity
  8
_2-7_ビス
  6
Continuous
 62
     7
100
AcDbLine
 10
902.7141641048787
 20
410.0829722875172
 30
0.0
 11
902.6935460538291
 21
410.0518322191656
 31
0.0
  0
LINE
  5
5E1
330
22
100
AcDbEntity
  8
_2-7_ビス
  6
Continuous
 62
     7
100
AcDbLine
 10
902.6935460538291
 20
410.0518322191656
 30
0.0
 11
902.6791862328018
 21
410.0179087007855
 31
0.0
  0
LINE
  5
5E2
330
22
100
AcDbEntity
  8
_2-7_ビス
  6
Continuous
 62
     7
100
AcDbLine
 10
902.6791862328018
 20
410.0179087007855
 30
0.0
 11
902.6763412786085
 21
410.0080114837885
 31
0.0
  0
LINE
  5
5E3
330
22
100
AcDbEntity
  8
_2-7_ビス
  6
Continuous
 62
     7
100
AcDbLine
 10
901.3570430338084
 20
410.1353211824145
 30
0.0
 11
901.3570430338084
 21
410.1353211824145
 31
0.0
  0
LINE
  5
5E4
330
22
100
AcDbEntity
  8
_2-7_ビス
  6
Continuous
 62
     7
100
AcDbLine
 10
901.3570430338084
 20
410.1353211824145
 30
0.0
 11
901.31708487982
 21
410.1359922880016
 31
0.0
  0
LINE
  5
5E5
330
22
100
AcDbEntity
  8
_2-7_ビス
  6
Continuous
 62
     7
100
AcDbLine
 10
901.31708487982
 20
410.1359922880016
 30
0.0
 11
901.2776056582378
 21
410.1303419694376
 31
0.0
  0
LINE
  5
5E6
330
22
100
AcDbEntity
  8
_2-7_ビス
  6
Continuous
 62
     7
100
AcDbLine
 10
901.2776056582378
 20
410.1303419694376
 30
0.0
 11
901.239804925232
 21
410.1185419087927
 31
0.0
  0
LINE
  5
5E7
330
22
100
AcDbEntity
  8
_2-7_ビス
  6
Continuous
 62
     7
100
AcDbLine
 10
901.239804925232
 20
410.1185419087927
 30
0.0
 11
901.2048312369467
 21
410.1009506449389
 31
0.0
  0
LINE
  5
5E8
330
22
100
AcDbEntity
  8
_2-7_ビス
  6
Continuous
 62
     7
100
AcDbLine
 10
901.2048312369467
 20
410.1009506449389
 30
0.0
 11
901.1737472512033
 21
410.0781026795263
 31
0.0
  0
LINE
  5
5E9
330
22
100
AcDbEntity
  8
_2-7_ビス
  6
Continuous
 62
     7
100
AcDbLine
 10
901.1737472512033
 20
410.0781026795263
 30
0.0
 11
901.1474974391788
 21
410.0506922364225
 31
0.0
  0
LINE
  5
5EA
330
22
100
AcDbEntity
  8
_2-7_ビス
  6
Continuous
 62
     7
100
AcDbLine
 10
901.1474974391788
 20
410.0506922364225
 30
0.0
 11
901.1268793881292
 21
410.0195521680711
 31
0.0
  0
LINE
  5
5EB
330
22
100
AcDbEntity
  8
_2-7_ビス
  6
Continuous
 62
     7
100
AcDbLine
 10
901.1268793881292
 20
410.0195521680711
 30
0.0
 11
901.112519567102
 21
409.9856286496908
 31
0.0
  0
LINE
  5
5EC
330
22
100
AcDbEntity
  8
_2-7_ビス
  6
Continuous
 62
     7
100
AcDbLine
 10
901.112519567102
 20
409.9856286496908
 30
0.0
 11
901.1096746129082
 21
409.9757314326938
 31
0.0
  0
LINE
  5
5ED
330
22
100
AcDbEntity
  8
_2-7_ビス
  6
Continuous
 62
     7
100
AcDbLine
 10
899.790376368108
 20
410.1032182296061
 30
0.0
 11
899.790376368108
 21
410.1032182296061
 31
0.0
  0
LINE
  5
5EE
330
22
100
AcDbEntity
  8
_2-7_ビス
  6
Continuous
 62
     7
100
AcDbLine
 10
899.790376368108
 20
410.1032182296061
 30
0.0
 11
899.7504182141199
 21
410.1038893351931
 31
0.0
  0
LINE
  5
5EF
330
22
100
AcDbEntity
  8
_2-7_ビス
  6
Continuous
 62
     7
100
AcDbLine
 10
899.7504182141199
 20
410.1038893351931
 30
0.0
 11
899.7109389925377
 21
410.0982390166292
 31
0.0
  0
LINE
  5
5F0
330
22
100
AcDbEntity
  8
_2-7_ビス
  6
Continuous
 62
     7
100
AcDbLine
 10
899.7109389925377
 20
410.0982390166292
 30
0.0
 11
899.6731382595317
 21
410.0864389559843
 31
0.0
  0
LINE
  5
5F1
330
22
100
AcDbEntity
  8
_2-7_ビス
  6
Continuous
 62
     7
100
AcDbLine
 10
899.6731382595317
 20
410.0864389559843
 30
0.0
 11
899.6381645712466
 21
410.0688476921305
 31
0.0
  0
LINE
  5
5F2
330
22
100
AcDbEntity
  8
_2-7_ビス
  6
Continuous
 62
     7
100
AcDbLine
 10
899.6381645712466
 20
410.0688476921305
 30
0.0
 11
899.6070805855028
 21
410.0459997267178
 31
0.0
  0
LINE
  5
5F3
330
22
100
AcDbEntity
  8
_2-7_ビス
  6
Continuous
 62
     7
100
AcDbLine
 10
899.6070805855028
 20
410.0459997267178
 30
0.0
 11
899.5808307734787
 21
410.0185892836142
 31
0.0
  0
LINE
  5
5F4
330
22
100
AcDbEntity
  8
_2-7_ビス
  6
Continuous
 62
     7
100
AcDbLine
 10
899.5808307734787
 20
410.0185892836142
 30
0.0
 11
899.5602127224293
 21
409.9874492152626
 31
0.0
  0
LINE
  5
5F5
330
22
100
AcDbEntity
  8
_2-7_ビス
  6
Continuous
 62
     7
100
AcDbLine
 10
899.5602127224293
 20
409.9874492152626
 30
0.0
 11
899.5458529014019
 21
409.9535256968825
 31
0.0
  0
LINE
  5
5F6
330
22
100
AcDbEntity
  8
_2-7_ビス
  6
Continuous
 62
     7
100
AcDbLine
 10
899.5458529014019
 20
409.9535256968825
 30
0.0
 11
899.5430079472081
 21
409.9436284798854
 31
0.0
  0
LINE
  5
5F7
330
22
100
AcDbEntity
  8
_2-7_ビス
  6
Continuous
 62
     7
100
AcDbLine
 10
898.2237097024093
 20
410.0809032985766
 30
0.0
 11
898.2237097024093
 21
410.0809032985766
 31
0.0
  0
LINE
  5
5F8
330
22
100
AcDbEntity
  8
_2-7_ビス
  6
Continuous
 62
     7
100
AcDbLine
 10
898.2237097024093
 20
410.0809032985766
 30
0.0
 11
898.183751548421
 21
410.0815744041637
 31
0.0
  0
LINE
  5
5F9
330
22
100
AcDbEntity
  8
_2-7_ビス
  6
Continuous
 62
     7
100
AcDbLine
 10
898.183751548421
 20
410.0815744041637
 30
0.0
 11
898.1442723268386
 21
410.0759240855997
 31
0.0
  0
LINE
  5
5FA
330
22
100
AcDbEntity
  8
_2-7_ビス
  6
Continuous
 62
     7
100
AcDbLine
 10
898.1442723268386
 20
410.0759240855997
 30
0.0
 11
898.106471593833
 21
410.0641240249549
 31
0.0
  0
LINE
  5
5FB
330
22
100
AcDbEntity
  8
_2-7_ビス
  6
Continuous
 62
     7
100
AcDbLine
 10
898.106471593833
 20
410.0641240249549
 30
0.0
 11
898.0714979055475
 21
410.0465327611008
 31
0.0
  0
LINE
  5
5FC
330
22
100
AcDbEntity
  8
_2-7_ビス
  6
Continuous
 62
     7
100
AcDbLine
 10
898.0714979055475
 20
410.0465327611008
 30
0.0
 11
898.0404139198041
 21
410.0236847956884
 31
0.0
  0
LINE
  5
5FD
330
22
100
AcDbEntity
  8
_2-7_ビス
  6
Continuous
 62
     7
100
AcDbLine
 10
898.0404139198041
 20
410.0236847956884
 30
0.0
 11
898.0141641077798
 21
409.9962743525847
 31
0.0
  0
LINE
  5
5FE
330
22
100
AcDbEntity
  8
_2-7_ビス
  6
Continuous
 62
     7
100
AcDbLine
 10
898.0141641077798
 20
409.9962743525847
 30
0.0
 11
897.9935460567302
 21
409.9651342842332
 31
0.0
  0
LINE
  5
5FF
330
22
100
AcDbEntity
  8
_2-7_ビス
  6
Continuous
 62
     7
100
AcDbLine
 10
897.9935460567302
 20
409.9651342842332
 30
0.0
 11
897.9791862357028
 21
409.931210765853
 31
0.0
  0
LINE
  5
600
330
22
100
AcDbEntity
  8
_2-7_ビス
  6
Continuous
 62
     7
100
AcDbLine
 10
897.9791862357028
 20
409.931210765853
 30
0.0
 11
897.9763412815092
 21
409.9213135488559
 31
0.0
  0
LINE
  5
601
330
22
100
AcDbEntity
  8
_2-7_ビス
  6
Continuous
 62
     7
100
AcDbLine
 10
896.6817713576787
 20
410.0474007196421
 30
0.0
 11
896.6817713576787
 21
410.0474007196421
 31
0.0
  0
LINE
  5
602
330
22
100
AcDbEntity
  8
_2-7_ビス
  6
Continuous
 62
     7
100
AcDbLine
 10
896.6817713576787
 20
410.0474007196421
 30
0.0
 11
896.6554833557013
 21
410.0610628713921
 31
0.0
  0
LINE
  5
603
330
22
100
AcDbEntity
  8
_2-7_ビス
  6
Continuous
 62
     7
100
AcDbLine
 10
896.6554833557013
 20
410.0610628713921
 30
0.0
 11
896.626986466388
 21
410.0703653809405
 31
0.0
  0
LINE
  5
604
330
22
100
AcDbEntity
  8
_2-7_ビス
  6
Continuous
 62
     7
100
AcDbLine
 10
896.626986466388
 20
410.0703653809405
 30
0.0
 11
896.5971465532996
 21
410.0750255962419
 31
0.0
  0
LINE
  5
605
330
22
100
AcDbEntity
  8
_2-7_ビス
  6
Continuous
 62
     7
100
AcDbLine
 10
896.5971465532996
 20
410.0750255962419
 30
0.0
 11
896.566870287096
 21
410.0749019190129
 31
0.0
  0
LINE
  5
606
330
22
100
AcDbEntity
  8
_2-7_ビス
  6
Continuous
 62
     7
100
AcDbLine
 10
896.566870287096
 20
410.0749019190129
 30
0.0
 11
896.5370775968052
 21
410.069998107123
 31
0.0
  0
LINE
  5
607
330
22
100
AcDbEntity
  8
_2-7_ビス
  6
Continuous
 62
     7
100
AcDbLine
 10
896.5370775968052
 20
410.069998107123
 30
0.0
 11
896.5086737182458
 21
410.0604631604153
 31
0.0
  0
LINE
  5
608
330
22
100
AcDbEntity
  8
_2-7_ビス
  6
Continuous
 62
     7
100
AcDbLine
 10
896.5086737182458
 20
410.0604631604153
 30
0.0
 11
896.4825216888948
 21
410.0465867934206
 31
0.0
  0
LINE
  5
609
330
22
100
AcDbEntity
  8
_2-7_ビス
  6
Continuous
 62
     7
100
AcDbLine
 10
896.4825216888948
 20
410.0465867934206
 30
0.0
 11
896.4594161249303
 21
410.0287906325282
 31
0.0
  0
LINE
  5
60A
330
22
100
AcDbEntity
  8
_2-7_ビス
  6
Continuous
 62
     7
100
AcDbLine
 10
896.4594161249303
 20
410.0287906325282
 30
0.0
 11
896.4400590772216
 21
410.0076154050816
 31
0.0
  0
LINE
  5
60B
330
22
100
AcDbEntity
  8
_2-7_ビス
  6
Continuous
 62
     7
100
AcDbLine
 10
896.4400590772216
 20
410.0076154050816
 30
0.0
 11
896.4250386998683
 21
409.9837045096514
 31
0.0
  0
LINE
  5
60C
330
22
100
AcDbEntity
  8
_2-7_ビス
  6
Continuous
 62
     7
100
AcDbLine
 10
896.4250386998683
 20
409.9837045096514
 30
0.0
 11
896.4148113794356
 21
409.9577844666958
 31
0.0
  0
LINE
  5
60D
330
22
100
AcDbEntity
  8
_2-7_ビス
  6
Continuous
 62
     7
100
AcDbLine
 10
896.4148113794356
 20
409.9577844666958
 30
0.0
 11
896.4096878678789
 21
409.930642843604
 31
0.0
  0
LINE
  5
60E
330
22
100
AcDbEntity
  8
_2-7_ビス
  6
Continuous
 62
     7
100
AcDbLine
 10
896.4096878678789
 20
409.930642843604
 30
0.0
 11
896.4096746158093
 21
409.9304967337879
 31
0.0
  0
LINE
  5
60F
330
22
100
AcDbEntity
  8
_2-7_ビス
  6
Continuous
 62
     7
100
AcDbLine
 10
905.3149377682091
 20
409.6273879837871
 30
0.0
 11
905.3149377682091
 21
409.6273879837871
 31
0.0
  0
LINE
  5
610
330
22
100
AcDbEntity
  8
_2-7_ビス
  6
Continuous
 62
     7
100
AcDbLine
 10
905.3149377682091
 20
409.6273879837871
 30
0.0
 11
905.3026778115611
 21
409.7117138145808
 31
0.0
  0
LINE
  5
611
330
22
100
AcDbEntity
  8
_2-7_ビス
  6
Continuous
 62
     7
100
AcDbLine
 10
905.3026778115611
 20
409.7117138145808
 30
0.0
 11
905.2745053448543
 21
409.7928221360391
 31
0.0
  0
LINE
  5
612
330
22
100
AcDbEntity
  8
_2-7_ビス
  6
Continuous
 62
     7
100
AcDbLine
 10
905.2745053448543
 20
409.7928221360391
 30
0.0
 11
905.2312763742325
 21
409.8682485128573
 31
0.0
  0
LINE
  5
613
330
22
100
AcDbEntity
  8
_2-7_ビス
  6
Continuous
 62
     7
100
AcDbLine
 10
905.2312763742325
 20
409.8682485128573
 30
0.0
 11
905.1743043900943
 21
409.9357011527431
 31
0.0
  0
LINE
  5
614
330
22
100
AcDbEntity
  8
_2-7_ビス
  6
Continuous
 62
     7
100
AcDbLine
 10
905.1743043900943
 20
409.9357011527431
 30
0.0
 11
905.1053204573472
 21
409.9931305413665
 31
0.0
  0
LINE
  5
615
330
22
100
AcDbEntity
  8
_2-7_ビス
  6
Continuous
 62
     7
100
AcDbLine
 10
905.1053204573472
 20
409.9931305413665
 30
0.0
 11
905.0264206178812
 21
410.0387917158148
 31
0.0
  0
LINE
  5
616
330
22
100
AcDbEntity
  8
_2-7_ビス
  6
Continuous
 62
     7
100
AcDbLine
 10
905.0264206178812
 20
410.0387917158148
 30
0.0
 11
904.9400022033935
 21
410.0712972844081
 31
0.0
  0
LINE
  5
617
330
22
100
AcDbEntity
  8
_2-7_ビス
  6
Continuous
 62
     7
100
AcDbLine
 10
904.9400022033935
 20
410.0712972844081
 30
0.0
 11
904.8486909936771
 21
410.0896595818931
 31
0.0
  0
LINE
  5
618
330
22
100
AcDbEntity
  8
_2-7_ビス
  6
Continuous
 62
     7
100
AcDbLine
 10
904.8486909936771
 20
410.0896595818931
 30
0.0
 11
904.7552614336344
 21
410.0933206791528
 31
0.0
  0
LINE
  5
619
330
22
100
AcDbEntity
  8
_2-7_ビス
  6
Continuous
 62
     7
100
AcDbLine
 10
904.7552614336344
 20
410.0933206791528
 30
0.0
 11
904.6625523331698
 21
410.0821693355993
 31
0.0
  0
LINE
  5
61A
330
22
100
AcDbEntity
  8
_2-7_ビス
  6
Continuous
 62
     7
100
AcDbLine
 10
904.6625523331698
 20
410.0821693355993
 30
0.0
 11
904.5733806113879
 21
410.0565443791637
 31
0.0
  0
LINE
  5
61B
330
22
100
AcDbEntity
  8
_2-7_ビス
  6
Continuous
 62
     7
100
AcDbLine
 10
904.5733806113879
 20
410.0565443791637
 30
0.0
 11
904.4904557059313
 21
410.0172244111806
 31
0.0
  0
LINE
  5
61C
330
22
100
AcDbEntity
  8
_2-7_ビス
  6
Continuous
 62
     7
100
AcDbLine
 10
904.4904557059313
 20
410.0172244111806
 30
0.0
 11
904.4162972480908
 21
409.96540414898
 31
0.0
  0
LINE
  5
61D
330
22
100
AcDbEntity
  8
_2-7_ビス
  6
Continuous
 62
     7
100
AcDbLine
 10
904.4162972480908
 20
409.96540414898
 30
0.0
 11
904.3531585050818
 21
409.9026581250068
 31
0.0
  0
LINE
  5
61E
330
22
100
AcDbEntity
  8
_2-7_ビス
  6
Continuous
 62
     7
100
AcDbLine
 10
904.3531585050818
 20
409.9026581250068
 30
0.0
 11
904.3029579156607
 21
409.8308928454484
 31
0.0
  0
LINE
  5
61F
330
22
100
AcDbEntity
  8
_2-7_ビス
  6
Continuous
 62
     7
100
AcDbLine
 10
904.3029579156607
 20
409.8308928454484
 30
0.0
 11
904.2672207993346
 21
409.752288862009
 31
0.0
  0
LINE
  5
620
330
22
100
AcDbEntity
  8
_2-7_ビス
  6
Continuous
 62
     7
100
AcDbLine
 10
904.2672207993346
 20
409.752288862009
 30
0.0
 11
904.2470330102993
 21
409.66923451695
 31
0.0
  0
LINE
  5
621
330
22
100
AcDbEntity
  8
_2-7_ビス
  6
Continuous
 62
     7
100
AcDbLine
 10
904.2470330102993
 20
409.66923451695
 30
0.0
 11
904.2430079443088
 21
409.6273879837871
 31
0.0
  0
LINE
  5
622
330
22
100
AcDbEntity
  8
_2-7_ビス
  6
Continuous
 62
     7
100
AcDbLine
 10
913.1482710967093
 20
409.6273879837871
 30
0.0
 11
913.1482710967093
 21
409.6273879837871
 31
0.0
  0
LINE
  5
623
330
22
100
AcDbEntity
  8
_2-7_ビス
  6
Continuous
 62
     7
100
AcDbLine
 10
913.1482710967093
 20
409.6273879837871
 30
0.0
 11
913.1360111400612
 21
409.7117138145808
 31
0.0
  0
LINE
  5
624
330
22
100
AcDbEntity
  8
_2-7_ビス
  6
Continuous
 62
     7
100
AcDbLine
 10
913.1360111400612
 20
409.7117138145808
 30
0.0
 11
913.1078386733541
 21
409.7928221360391
 31
0.0
  0
LINE
  5
625
330
22
100
AcDbEntity
  8
_2-7_ビス
  6
Continuous
 62
     7
100
AcDbLine
 10
913.1078386733541
 20
409.7928221360391
 30
0.0
 11
913.0646097027327
 21
409.8682485128573
 31
0.0
  0
LINE
  5
626
330
22
100
AcDbEntity
  8
_2-7_ビス
  6
Continuous
 62
     7
100
AcDbLine
 10
913.0646097027327
 20
409.8682485128573
 30
0.0
 11
913.0076377185941
 21
409.9357011527431
 31
0.0
  0
LINE
  5
627
330
22
100
AcDbEntity
  8
_2-7_ビス
  6
Continuous
 62
     7
100
AcDbLine
 10
913.0076377185941
 20
409.9357011527431
 30
0.0
 11
912.9386537858474
 21
409.9931305413665
 31
0.0
  0
LINE
  5
628
330
22
100
AcDbEntity
  8
_2-7_ビス
  6
Continuous
 62
     7
100
AcDbLine
 10
912.9386537858474
 20
409.9931305413665
 30
0.0
 11
912.8597539463816
 21
410.0387917158148
 31
0.0
  0
LINE
  5
629
330
22
100
AcDbEntity
  8
_2-7_ビス
  6
Continuous
 62
     7
100
AcDbLine
 10
912.8597539463816
 20
410.0387917158148
 30
0.0
 11
912.7733355318932
 21
410.0712972844081
 31
0.0
  0
LINE
  5
62A
330
22
100
AcDbEntity
  8
_2-7_ビス
  6
Continuous
 62
     7
100
AcDbLine
 10
912.7733355318932
 20
410.0712972844081
 30
0.0
 11
912.6820243221773
 21
410.0896595818931
 31
0.0
  0
LINE
  5
62B
330
22
100
AcDbEntity
  8
_2-7_ビス
  6
Continuous
 62
     7
100
AcDbLine
 10
912.6820243221773
 20
410.0896595818931
 30
0.0
 11
912.5885947621348
 21
410.0933206791528
 31
0.0
  0
LINE
  5
62C
330
22
100
AcDbEntity
  8
_2-7_ビス
  6
Continuous
 62
     7
100
AcDbLine
 10
912.5885947621348
 20
410.0933206791528
 30
0.0
 11
912.49588566167
 21
410.0821693355993
 31
0.0
  0
LINE
  5
62D
330
22
100
AcDbEntity
  8
_2-7_ビス
  6
Continuous
 62
     7
100
AcDbLine
 10
912.49588566167
 20
410.0821693355993
 30
0.0
 11
912.406713939888
 21
410.0565443791637
 31
0.0
  0
LINE
  5
62E
330
22
100
AcDbEntity
  8
_2-7_ビス
  6
Continuous
 62
     7
100
AcDbLine
 10
912.406713939888
 20
410.0565443791637
 30
0.0
 11
912.3237890344315
 21
410.0172244111806
 31
0.0
  0
LINE
  5
62F
330
22
100
AcDbEntity
  8
_2-7_ビス
  6
Continuous
 62
     7
100
AcDbLine
 10
912.3237890344315
 20
410.0172244111806
 30
0.0
 11
912.2496305765912
 21
409.96540414898
 31
0.0
  0
LINE
  5
630
330
22
100
AcDbEntity
  8
_2-7_ビス
  6
Continuous
 62
     7
100
AcDbLine
 10
912.2496305765912
 20
409.96540414898
 30
0.0
 11
912.1864918335822
 21
409.9026581250068
 31
0.0
  0
LINE
  5
631
330
22
100
AcDbEntity
  8
_2-7_ビス
  6
Continuous
 62
     7
100
AcDbLine
 10
912.1864918335822
 20
409.9026581250068
 30
0.0
 11
912.1362912441613
 21
409.8308928454484
 31
0.0
  0
LINE
  5
632
330
22
100
AcDbEntity
  8
_2-7_ビス
  6
Continuous
 62
     7
100
AcDbLine
 10
912.1362912441613
 20
409.8308928454484
 30
0.0
 11
912.1005541278348
 21
409.752288862009
 31
0.0
  0
LINE
  5
633
330
22
100
AcDbEntity
  8
_2-7_ビス
  6
Continuous
 62
     7
100
AcDbLine
 10
912.1005541278348
 20
409.752288862009
 30
0.0
 11
912.0803663387995
 21
409.66923451695
 31
0.0
  0
LINE
  5
634
330
22
100
AcDbEntity
  8
_2-7_ビス
  6
Continuous
 62
     7
100
AcDbLine
 10
912.0803663387995
 20
409.66923451695
 30
0.0
 11
912.076341272809
 21
409.6273879837871
 31
0.0
  0
LINE
  5
635
330
22
100
AcDbEntity
  8
_2-7_ビス
  6
Continuous
 62
     7
100
AcDbLine
 10
894.0184465471086
 20
409.9526047945897
 30
0.0
 11
894.0184465471086
 21
409.9526047945897
 31
0.0
  0
LINE
  5
636
330
22
100
AcDbEntity
  8
_2-7_ビス
  6
Continuous
 62
     7
100
AcDbLine
 10
894.0184465471086
 20
409.9526047945897
 30
0.0
 11
893.8848622203412
 21
409.9887900084913
 31
0.0
  0
LINE
  5
637
330
22
100
AcDbEntity
  8
_2-7_ビス
  6
Continuous
 62
     7
100
AcDbLine
 10
893.8848622203412
 20
409.9887900084913
 30
0.0
 11
893.7463991681259
 21
410.0033263844326
 31
0.0
  0
LINE
  5
638
330
22
100
AcDbEntity
  8
_2-7_ビス
  6
Continuous
 62
     7
100
AcDbLine
 10
893.7463991681259
 20
410.0033263844326
 30
0.0
 11
893.6886219859085
 21
410.0028801276777
 31
0.0
  0
LINE
  5
639
330
22
100
AcDbEntity
  8
_2-7_ビス
  6
Continuous
 62
     7
100
AcDbLine
 10
891.7096746187088
 20
410.5104222337874
 30
0.0
 11
891.7096746187088
 21
410.5104222337874
 31
0.0
  0
LINE
  5
63A
330
22
100
AcDbEntity
  8
_2-7_ビス
  6
Continuous
 62
     7
100
AcDbLine
 10
891.7096746187088
 20
410.5104222337874
 30
0.0
 11
891.7652051938867
 21
410.5164630113304
 31
0.0
  0
LINE
  5
63B
330
22
100
AcDbEntity
  8
_2-7_ビス
  6
Continuous
 62
     7
100
AcDbLine
 10
891.7652051938867
 20
410.5164630113304
 30
0.0
 11
891.8187388812711
 21
410.53118284528
 31
0.0
  0
LINE
  5
63C
330
22
100
AcDbEntity
  8
_2-7_ビス
  6
Continuous
 62
     7
100
AcDbLine
 10
891.8187388812711
 20
410.53118284528
 30
0.0
 11
891.8686490868607
 21
410.5541344809304
 31
0.0
  0
LINE
  5
63D
330
22
100
AcDbEntity
  8
_2-7_ビス
  6
Continuous
 62
     7
100
AcDbLine
 10
891.8686490868607
 20
410.5541344809304
 30
0.0
 11
891.9134193143138
 21
410.5846205444465
 31
0.0
  0
LINE
  5
63E
330
22
100
AcDbEntity
  8
_2-7_ビス
  6
Continuous
 62
     7
100
AcDbLine
 10
891.9134193143138
 20
410.5846205444465
 30
0.0
 11
891.951689242925
 21
410.6217147322152
 31
0.0
  0
LINE
  5
63F
330
22
100
AcDbEntity
  8
_2-7_ビス
  6
Continuous
 62
     7
100
AcDbLine
 10
891.951689242925
 20
410.6217147322152
 30
0.0
 11
891.9822960602781
 21
410.6642899561116
 31
0.0
  0
LINE
  5
640
330
22
100
AcDbEntity
  8
_2-7_ビス
  6
Continuous
 62
     7
100
AcDbLine
 10
891.9822960602781
 20
410.6642899561116
 30
0.0
 11
892.004309793716
 21
410.7110525895016
 31
0.0
  0
LINE
  5
641
330
22
100
AcDbEntity
  8
_2-7_ビス
  6
Continuous
 62
     7
100
AcDbLine
 10
892.004309793716
 20
410.7110525895016
 30
0.0
 11
892.0170615670878
 21
410.7605817734327
 31
0.0
  0
LINE
  5
642
330
22
100
AcDbEntity
  8
_2-7_ビス
  6
Continuous
 62
     7
100
AcDbLine
 10
892.0170615670878
 20
410.7605817734327
 30
0.0
 11
892.0201639242119
 21
410.811372588714
 31
0.0
  0
LINE
  5
643
330
22
100
AcDbEntity
  8
_2-7_ビス
  6
Continuous
 62
     7
100
AcDbLine
 10
892.0201639242119
 20
410.811372588714
 30
0.0
 11
892.0135226015373
 21
410.861881782125
 31
0.0
  0
LINE
  5
644
330
22
100
AcDbEntity
  8
_2-7_ビス
  6
Continuous
 62
     7
100
AcDbLine
 10
892.0135226015373
 20
410.861881782125
 30
0.0
 11
891.9973393922928
 21
410.9105746573824
 31
0.0
  0
LINE
  5
645
330
22
100
AcDbEntity
  8
_2-7_ビス
  6
Continuous
 62
     7
100
AcDbLine
 10
891.9973393922928
 20
410.9105746573824
 30
0.0
 11
891.9721060151017
 21
410.9559717061116
 31
0.0
  0
LINE
  5
646
330
22
100
AcDbEntity
  8
_2-7_ビス
  6
Continuous
 62
     7
100
AcDbLine
 10
891.9721060151017
 20
410.9559717061116
 30
0.0
 11
891.9385891733618
 21
410.9966935619586
 31
0.0
  0
LINE
  5
647
330
22
100
AcDbEntity
  8
_2-7_ビス
  6
Continuous
 62
     7
100
AcDbLine
 10
891.9385891733618
 20
410.9966935619586
 30
0.0
 11
891.8978072593491
 21
411.0315029119401
 31
0.0
  0
LINE
  5
648
330
22
100
AcDbEntity
  8
_2-7_ビス
  6
Continuous
 62
     7
100
AcDbLine
 10
891.8978072593491
 20
411.0315029119401
 30
0.0
 11
891.8509994108839
 21
411.059342091571
 31
0.0
  0
LINE
  5
649
330
22
100
AcDbEntity
  8
_2-7_ビス
  6
Continuous
 62
     7
100
AcDbLine
 10
891.8509994108839
 20
411.059342091571
 30
0.0
 11
891.7995878607559
 21
411.0793652214657
 31
0.0
  0
LINE
  5
64A
330
22
100
AcDbEntity
  8
_2-7_ビス
  6
Continuous
 62
     7
100
AcDbLine
 10
891.7995878607559
 20
411.0793652214657
 30
0.0
 11
891.7451347229
 21
411.0909639089546
 31
0.0
  0
LINE
  5
64B
330
22
100
AcDbEntity
  8
_2-7_ビス
  6
Continuous
 62
     7
100
AcDbLine
 10
891.7451347229
 20
411.0909639089546
 30
0.0
 11
891.6892945283562
 21
411.0937857337874
 31
0.0
  0
LINE
  5
64C
330
22
100
AcDbEntity
  8
_2-7_ビス
  6
Continuous
 62
     7
100
AcDbLine
 10
891.6892945283562
 20
411.0937857337874
 30
0.0
 11
891.6892945283562
 21
411.0937857337874
 31
0.0
  0
LINE
  5
64D
330
22
100
AcDbEntity
  8
_2-7_ビス
  6
Continuous
 62
     7
100
AcDbLine
 10
928.6773473151971
 20
415.7961379837884
 30
0.0
 11
932.7728324881091
 21
415.7961379837884
 31
0.0
  0
LINE
  5
64E
330
22
100
AcDbEntity
  8
_2-7_ビス
  6
Continuous
 62
     7
100
AcDbLine
 10
932.7728324881091
 20
415.7961379837884
 30
0.0
 11
932.7728324881091
 21
412.7961379837878
 31
0.0
  0
LINE
  5
64F
330
22
100
AcDbEntity
  8
_2-7_ビス
  6
Continuous
 62
     7
100
AcDbLine
 10
928.6773473151971
 20
415.7961379837884
 30
0.0
 11
927.8527863949932
 21
416.5461379837878
 31
0.0
  0
LINE
  5
650
330
22
100
AcDbEntity
  8
_2-7_ビス
  6
Continuous
 62
     7
100
AcDbLine
 10
927.8527863949932
 20
416.5461379837878
 30
0.0
 11
925.7541806678785
 21
416.5461379837878
 31
0.0
  0
LINE
  5
651
330
22
100
AcDbEntity
  8
_2-7_ビス
  6
Continuous
 62
     7
100
AcDbLine
 10
925.7541806678785
 20
416.5461379837878
 30
0.0
 11
921.6365873546296
 21
415.9979187337873
 31
0.0
  0
LINE
  5
652
330
22
100
AcDbEntity
  8
_2-7_ビス
  6
Continuous
 62
     7
100
AcDbLine
 10
921.6365873546296
 20
415.9979187337873
 30
0.0
 11
921.2289728461087
 21
415.7559949837875
 31
0.0
  0
LINE
  5
653
330
22
100
AcDbEntity
  8
_2-7_ビス
  6
Continuous
 62
     7
100
AcDbLine
 10
921.2289728461087
 20
415.7559949837875
 30
0.0
 11
921.2289728461087
 21
415.7961379837884
 31
0.0
  0
LINE
  5
654
330
22
100
AcDbEntity
  8
_2-7_ビス
  6
Continuous
 62
     7
100
AcDbLine
 10
921.2289728461087
 20
415.7961379837884
 30
0.0
 11
919.4149377595088
 21
415.7961379837884
 31
0.0
  0
LINE
  5
655
330
22
100
AcDbEntity
  8
_2-7_ビス
  6
Continuous
 62
     7
100
AcDbLine
 10
919.4149377595088
 20
415.7961379837884
 30
0.0
 11
918.5903763565089
 21
415.3631254232207
 31
0.0
  0
LINE
  5
656
330
22
100
AcDbEntity
  8
_2-7_ビス
  6
Continuous
 62
     7
100
AcDbLine
 10
918.3430079356083
 20
415.4930292337879
 30
0.0
 11
918.3430079356083
 21
416.4711379837873
 31
0.0
  0
LINE
  5
657
330
22
100
AcDbEntity
  8
_2-7_ビス
  6
Continuous
 62
     7
100
AcDbLine
 10
918.3430079356083
 20
416.4711379837873
 30
0.0
 11
914.1096173417293
 21
416.4711379837873
 31
0.0
  0
LINE
  5
658
330
22
100
AcDbEntity
  8
_2-7_ビス
  6
Continuous
 62
     7
100
AcDbLine
 10
914.1096173417293
 20
416.4711379837873
 30
0.0
 11
913.1482710967086
 21
415.9696684837873
 31
0.0
  0
LINE
  5
659
330
22
100
AcDbEntity
  8
_2-7_ビス
  6
Continuous
 62
     7
100
AcDbLine
 10
913.1482710967086
 20
415.9696684837873
 30
0.0
 11
913.1482710967086
 21
415.9648879837877
 31
0.0
  0
LINE
  5
65A
330
22
100
AcDbEntity
  8
_2-7_ビス
  6
Continuous
 62
     7
100
AcDbLine
 10
913.1482714504908
 20
415.9648838105032
 30
0.0
 11
913.1482710967086
 21
415.9648879837877
 31
0.0
  0
LINE
  5
65B
330
22
100
AcDbEntity
  8
_2-7_ビス
  6
Continuous
 62
     7
100
AcDbLine
 10
913.1482714504908
 20
415.9648838105032
 30
0.0
 11
913.1482710967086
 21
415.9648879837877
 31
0.0
  0
LINE
  5
65C
330
22
100
AcDbEntity
  8
_2-7_ビス
  6
Continuous
 62
     7
100
AcDbLine
 10
912.0763412728093
 20
415.9322967337876
 30
0.0
 11
912.0763412728093
 21
416.4711379837873
 31
0.0
  0
LINE
  5
65D
330
22
100
AcDbEntity
  8
_2-7_ビス
  6
Continuous
 62
     7
100
AcDbLine
 10
912.0763412728093
 20
416.4711379837873
 30
0.0
 11
906.2791081360353
 21
416.4711379837873
 31
0.0
  0
LINE
  5
65E
330
22
100
AcDbEntity
  8
_2-7_ビス
  6
Continuous
 62
     7
100
AcDbLine
 10
906.2791081360353
 20
416.4711379837873
 30
0.0
 11
905.3149567662705
 21
415.9648907967263
 31
0.0
  0
LINE
  5
65F
330
22
100
AcDbEntity
  8
_2-7_ビス
  6
Continuous
 62
     7
100
AcDbLine
 10
905.3149377682087
 20
415.9648879837877
 30
0.0
 11
905.7923891654491
 21
415.9612963534319
 31
0.0
  0
LINE
  5
660
330
22
100
AcDbEntity
  8
_2-7_ビス
  6
Continuous
 62
     7
100
AcDbLine
 10
905.7923891654491
 20
415.9612963534319
 30
0.0
 11
905.8096746100092
 21
415.6406163458084
 31
0.0
  0
LINE
  5
661
330
22
100
AcDbEntity
  8
_2-7_ビス
  6
Continuous
 62
     7
100
AcDbLine
 10
906.0570430309088
 20
415.4819543056404
 30
0.0
 11
906.8816044339087
 21
415.9322967337876
 31
0.0
  0
LINE
  5
662
330
22
100
AcDbEntity
  8
_2-7_ビス
  6
Continuous
 62
     7
100
AcDbLine
 10
906.8816044339087
 20
415.9322967337876
 30
0.0
 11
907.3590559029035
 21
415.9322968859108
 31
0.0
  0
LINE
  5
663
330
22
100
AcDbEntity
  8
_2-7_ビス
  6
Continuous
 62
     7
100
AcDbLine
 10
907.3590559029035
 20
415.9322968859108
 30
0.0
 11
907.376341275709
 21
415.5842644837875
 31
0.0
  0
LINE
  5
664
330
22
100
AcDbEntity
  8
_2-7_ビス
  6
Continuous
 62
     7
100
AcDbLine
 10
907.6237096966091
 20
415.4246747340672
 30
0.0
 11
908.4482710996088
 21
415.9322967337876
 31
0.0
  0
LINE
  5
665
330
22
100
AcDbEntity
  8
_2-7_ビス
  6
Continuous
 62
     7
100
AcDbLine
 10
908.4482710996088
 20
415.9322967337876
 30
0.0
 11
908.9257226607172
 21
415.9322967337876
 31
0.0
  0
LINE
  5
666
330
22
100
AcDbEntity
  8
_2-7_ビス
  6
Continuous
 62
     7
100
AcDbLine
 10
908.9257226607172
 20
415.9322967337876
 30
0.0
 11
908.9430079414093
 21
415.5842644837875
 31
0.0
  0
LINE
  5
667
330
22
100
AcDbEntity
  8
_2-7_ビス
  6
Continuous
 62
     7
100
AcDbLine
 10
909.1903763623088
 20
415.4246747340672
 30
0.0
 11
910.0149377653091
 21
415.9322967337876
 31
0.0
  0
LINE
  5
668
330
22
100
AcDbEntity
  8
_2-7_ビス
  6
Continuous
 62
     7
100
AcDbLine
 10
910.0149377653091
 20
415.9322967337876
 30
0.0
 11
910.4923893264174
 21
415.9322967337876
 31
0.0
  0
LINE
  5
669
330
22
100
AcDbEntity
  8
_2-7_ビス
  6
Continuous
 62
     7
100
AcDbLine
 10
910.4923893264174
 20
415.9322967337876
 30
0.0
 11
910.509674607109
 21
415.5842644837875
 31
0.0
  0
LINE
  5
66A
330
22
100
AcDbEntity
  8
_2-7_ビス
  6
Continuous
 62
     7
100
AcDbLine
 10
910.7570430280087
 20
415.4246747340672
 30
0.0
 11
911.5816044310086
 21
415.9322968859108
 31
0.0
  0
LINE
  5
66B
330
22
100
AcDbEntity
  8
_2-7_ビス
  6
Continuous
 62
     7
100
AcDbLine
 10
911.5816044310086
 20
415.9322968859108
 30
0.0
 11
912.0763412728093
 21
415.9322967337876
 31
0.0
  0
LINE
  5
66C
330
22
100
AcDbEntity
  8
_2-7_ビス
  6
Continuous
 62
     7
100
AcDbLine
 10
913.1482714504908
 20
415.9648838105032
 30
0.0
 11
913.6257229194846
 21
415.9611986092576
 31
0.0
  0
LINE
  5
66D
330
22
100
AcDbEntity
  8
_2-7_ビス
  6
Continuous
 62
     7
100
AcDbLine
 10
913.6257229194846
 20
415.9611986092576
 30
0.0
 11
913.6430079385091
 21
415.6437537337884
 31
0.0
  0
LINE
  5
66E
330
22
100
AcDbEntity
  8
_2-7_ビス
  6
Continuous
 62
     7
100
AcDbLine
 10
913.8903763594086
 20
415.4816615934666
 30
0.0
 11
914.7149377624087
 21
415.9322968859108
 31
0.0
  0
LINE
  5
66F
330
22
100
AcDbEntity
  8
_2-7_ビス
  6
Continuous
 62
     7
100
AcDbLine
 10
914.7149377624087
 20
415.9322968859108
 30
0.0
 11
915.192389231403
 21
415.9322968859108
 31
0.0
  0
LINE
  5
670
330
22
100
AcDbEntity
  8
_2-7_ビス
  6
Continuous
 62
     7
100
AcDbLine
 10
915.192389231403
 20
415.9322968859108
 30
0.0
 11
915.2096746042094
 21
415.5842644837875
 31
0.0
  0
LINE
  5
671
330
22
100
AcDbEntity
  8
_2-7_ビス
  6
Continuous
 62
     7
100
AcDbLine
 10
915.4570430251089
 20
415.4246747340672
 30
0.0
 11
916.2816044281088
 21
415.9322967337876
 31
0.0
  0
LINE
  5
672
330
22
100
AcDbEntity
  8
_2-7_ビス
  6
Continuous
 62
     7
100
AcDbLine
 10
916.2816044281088
 20
415.9322967337876
 30
0.0
 11
916.7590558971028
 21
415.9322968859108
 31
0.0
  0
LINE
  5
673
330
22
100
AcDbEntity
  8
_2-7_ビス
  6
Continuous
 62
     7
100
AcDbLine
 10
916.7590558971028
 20
415.9322968859108
 30
0.0
 11
916.7765728510687
 21
415.5833783912996
 31
0.0
  0
LINE
  5
674
330
22
100
AcDbEntity
  8
_2-7_ビス
  6
Continuous
 62
     7
100
AcDbLine
 10
917.023709690809
 20
415.4246747340672
 30
0.0
 11
917.8482710938091
 21
415.9322968859108
 31
0.0
  0
LINE
  5
675
330
22
100
AcDbEntity
  8
_2-7_ビス
  6
Continuous
 62
     7
100
AcDbLine
 10
917.8482710938091
 20
415.9322968859108
 30
0.0
 11
918.3430079356083
 21
415.9322967282807
 31
0.0
  0
LINE
  5
676
330
22
100
AcDbEntity
  8
_2-7_ビス
  6
Continuous
 62
     7
100
AcDbLine
 10
904.2430079443089
 20
415.9322967337876
 30
0.0
 11
904.2430079443089
 21
416.4711379837873
 31
0.0
  0
LINE
  5
677
330
22
100
AcDbEntity
  8
_2-7_ビス
  6
Continuous
 62
     7
100
AcDbLine
 10
904.2430079443089
 20
416.4711379837873
 30
0.0
 11
900.9947662094715
 21
416.4711379837873
 31
0.0
  0
LINE
  5
678
330
22
100
AcDbEntity
  8
_2-7_ビス
  6
Continuous
 62
     7
100
AcDbLine
 10
900.9947662094715
 20
416.4711379837873
 30
0.0
 11
897.4816044397085
 21
415.9653522337881
 31
0.0
  0
LINE
  5
679
330
22
100
AcDbEntity
  8
_2-7_ビス
  6
Continuous
 62
     7
100
AcDbLine
 10
897.4816044397085
 20
415.9653522337881
 30
0.0
 11
897.9590555238496
 21
415.964617716124
 31
0.0
  0
LINE
  5
67A
330
22
100
AcDbEntity
  8
_2-7_ビス
  6
Continuous
 62
     7
100
AcDbLine
 10
897.9590555238496
 20
415.964617716124
 30
0.0
 11
897.9763412815088
 21
415.6559292337871
 31
0.0
  0
LINE
  5
67B
330
22
100
AcDbEntity
  8
_2-7_ビス
  6
Continuous
 62
     7
100
AcDbLine
 10
897.4816044397085
 20
415.9653522337881
 30
0.0
 11
896.6570430367085
 21
415.5318754232209
 31
0.0
  0
LINE
  5
67C
330
22
100
AcDbEntity
  8
_2-7_ビス
  6
Continuous
 62
     7
100
AcDbLine
 10
898.2237097024084
 20
415.5113726689998
 30
0.0
 11
899.0482711054085
 21
415.9619750024601
 31
0.0
  0
LINE
  5
67D
330
22
100
AcDbEntity
  8
_2-7_ビス
  6
Continuous
 62
     7
100
AcDbLine
 10
899.0482711054085
 20
415.9619750024601
 30
0.0
 11
899.5257221895483
 21
415.9598900981981
 31
0.0
  0
LINE
  5
67E
330
22
100
AcDbEntity
  8
_2-7_ビス
  6
Continuous
 62
     7
100
AcDbLine
 10
899.5257221895483
 20
415.9598900981981
 30
0.0
 11
899.543007947209
 21
415.6375632337878
 31
0.0
  0
LINE
  5
67F
330
22
100
AcDbEntity
  8
_2-7_ビス
  6
Continuous
 62
     7
100
AcDbLine
 10
899.7903763681085
 20
415.4890577379692
 30
0.0
 11
900.6149373862546
 21
415.9529255972936
 31
0.0
  0
LINE
  5
680
330
22
100
AcDbEntity
  8
_2-7_ビス
  6
Continuous
 62
     7
100
AcDbLine
 10
900.6149373862546
 20
415.9529255972936
 30
0.0
 11
901.0923888552495
 21
415.9488627565972
 31
0.0
  0
LINE
  5
681
330
22
100
AcDbEntity
  8
_2-7_ビス
  6
Continuous
 62
     7
100
AcDbLine
 10
901.0923888552495
 20
415.9488627565972
 30
0.0
 11
901.1096746129087
 21
415.6142094013281
 31
0.0
  0
LINE
  5
682
330
22
100
AcDbEntity
  8
_2-7_ビス
  6
Continuous
 62
     7
100
AcDbLine
 10
901.3570430338086
 20
415.4569547851608
 30
0.0
 11
902.1816040519547
 21
415.9371574093663
 31
0.0
  0
LINE
  5
683
330
22
100
AcDbEntity
  8
_2-7_ビス
  6
Continuous
 62
     7
100
AcDbLine
 10
902.1816040519547
 20
415.9371574093663
 30
0.0
 11
902.6590559979172
 21
415.9322967337876
 31
0.0
  0
LINE
  5
684
330
22
100
AcDbEntity
  8
_2-7_ビス
  6
Continuous
 62
     7
100
AcDbLine
 10
902.6590559979172
 20
415.9322967337876
 30
0.0
 11
902.676341278609
 21
415.5842644837875
 31
0.0
  0
LINE
  5
685
330
22
100
AcDbEntity
  8
_2-7_ビス
  6
Continuous
 62
     7
100
AcDbLine
 10
902.9237096995087
 20
415.4246747340672
 30
0.0
 11
903.7482711025088
 21
415.9322968859108
 31
0.0
  0
LINE
  5
686
330
22
100
AcDbEntity
  8
_2-7_ビス
  6
Continuous
 62
     7
100
AcDbLine
 10
903.7482711025088
 20
415.9322968859108
 30
0.0
 11
904.2430079443089
 21
415.9322967337876
 31
0.0
  0
LINE
  5
687
330
22
100
AcDbEntity
  8
_2-7_ビス
  6
Continuous
 62
     7
100
AcDbLine
 10
896.4096746158087
 20
415.6617792337871
 30
0.0
 11
896.4096746158087
 21
415.7961379837884
 31
0.0
  0
LINE
  5
688
330
22
100
AcDbEntity
  8
_2-7_ビス
  6
Continuous
 62
     7
100
AcDbLine
 10
896.4096746158087
 20
415.7961379837884
 30
0.0
 11
895.6263412829583
 21
415.7961379837884
 31
0.0
  0
LINE
  5
689
330
22
100
AcDbEntity
  8
_2-7_ビス
  6
Continuous
 62
     7
100
AcDbLine
 10
895.6263412829583
 20
415.7961379837884
 30
0.0
 11
895.6263412829583
 21
415.6461379837876
 31
0.0
  0
LINE
  5
68A
330
22
100
AcDbEntity
  8
_2-7_ビス
  6
Continuous
 62
     7
100
AcDbLine
 10
895.6263412829583
 20
415.6461379837876
 30
0.0
 11
894.0184465471087
 21
415.6461379837876
 31
0.0
  0
LINE
  5
68B
330
22
100
AcDbEntity
  8
_2-7_ビス
  6
Continuous
 62
     7
100
AcDbLine
 10
894.0184465471087
 20
415.6461379837876
 30
0.0
 11
894.0184465471087
 21
415.6396711729868
 31
0.0
  0
LINE
  5
68C
330
22
100
AcDbEntity
  8
_2-7_ビス
  6
Continuous
 62
     7
100
AcDbLine
 10
893.6886219859093
 20
415.5893959837881
 30
0.0
 11
887.7381803930893
 21
415.5893958372493
 31
0.0
  0
LINE
  5
68D
330
22
100
AcDbEntity
  8
_2-7_ビス
  6
Continuous
 62
     7
100
AcDbLine
 10
887.7381803930893
 20
415.5893958372493
 30
0.0
 11
887.0867595689299
 21
415.1489584837882
 31
0.0
  0
LINE
  5
68E
330
22
100
AcDbEntity
  8
_2-7_ビス
  6
Continuous
 62
     7
100
AcDbLine
 10
887.0867595689299
 20
415.1489584837882
 30
0.0
 11
885.7728325171091
 21
414.1461379837878
 31
0.0
  0
LINE
  5
68F
330
22
100
AcDbEntity
  8
_2-7_ビス
  6
Continuous
 62
     7
100
AcDbLine
 10
885.7728325171091
 20
414.1461379837878
 30
0.0
 11
885.7728325171091
 21
413.9967595042931
 31
0.0
  0
LINE
  5
690
330
22
100
AcDbEntity
  8
_2-7_ビス
  6
Continuous
 62
     7
100
AcDbLine
 10
885.7728325171091
 20
413.9967595042931
 30
0.0
 11
887.7381803930893
 21
415.0818536136076
 31
0.0
  0
LINE
  5
691
330
22
100
AcDbEntity
  8
_2-7_ビス
  6
Continuous
 62
     7
100
AcDbLine
 10
887.7381803930893
 20
415.0818536136076
 30
0.0
 11
891.7096746187086
 21
415.0818537337883
 31
0.0
  0
LINE
  5
692
330
22
100
AcDbEntity
  8
_2-7_ビス
  6
Continuous
 62
     7
100
AcDbLine
 10
891.7096746187086
 20
414.4984902337885
 30
0.0
 11
887.7381805457877
 21
414.4984905072201
 31
0.0
  0
LINE
  5
693
330
22
100
AcDbEntity
  8
_2-7_ビス
  6
Continuous
 62
     7
100
AcDbLine
 10
887.7381805457877
 20
414.4984905072201
 30
0.0
 11
885.7728325171091
 21
413.4133961419863
 31
0.0
  0
LINE
  5
694
330
22
100
AcDbEntity
  8
_2-7_ビス
  6
Continuous
 62
     7
100
AcDbLine
 10
885.7728325171091
 20
413.4133961419863
 30
0.0
 11
885.7728325171091
 21
412.7961379837878
 31
0.0
  0
LINE
  5
695
330
22
100
AcDbEntity
  8
_2-7_ビス
  6
Continuous
 62
     7
100
AcDbLine
 10
918.3430079356083
 20
415.4930292337879
 30
0.0
 11
918.3430079356083
 21
415.4930292337879
 31
0.0
  0
LINE
  5
696
330
22
100
AcDbEntity
  8
_2-7_ビス
  6
Continuous
 62
     7
100
AcDbLine
 10
918.3430079356083
 20
415.4930292337879
 30
0.0
 11
918.3476617203233
 21
415.4660707828873
 31
0.0
  0
LINE
  5
697
330
22
100
AcDbEntity
  8
_2-7_ビス
  6
Continuous
 62
     7
100
AcDbLine
 10
918.3476617203233
 20
415.4660707828873
 30
0.0
 11
918.3573914804535
 21
415.4402569378743
 31
0.0
  0
LINE
  5
698
330
22
100
AcDbEntity
  8
_2-7_ビス
  6
Continuous
 62
     7
100
AcDbLine
 10
918.3573914804535
 20
415.4402569378743
 30
0.0
 11
918.3719015821599
 21
415.4163720393669
 31
0.0
  0
LINE
  5
699
330
22
100
AcDbEntity
  8
_2-7_ビス
  6
Continuous
 62
     7
100
AcDbLine
 10
918.3719015821599
 20
415.4163720393669
 30
0.0
 11
918.3907511433451
 21
415.3951418179201
 31
0.0
  0
LINE
  5
69A
330
22
100
AcDbEntity
  8
_2-7_ビス
  6
Continuous
 62
     7
100
AcDbLine
 10
918.3907511433451
 20
415.3951418179201
 30
0.0
 11
918.413367429631
 21
415.3772113430695
 31
0.0
  0
LINE
  5
69B
330
22
100
AcDbEntity
  8
_2-7_ビス
  6
Continuous
 62
     7
100
AcDbLine
 10
918.413367429631
 20
415.3772113430695
 30
0.0
 11
918.439063256603
 21
415.3631254232203
 31
0.0
  0
LINE
  5
69C
330
22
100
AcDbEntity
  8
_2-7_ビス
  6
Continuous
 62
     7
100
AcDbLine
 10
918.439063256603
 20
415.3631254232203
 30
0.0
 11
918.4670578695611
 21
415.3533120519191
 31
0.0
  0
LINE
  5
69D
330
22
100
AcDbEntity
  8
_2-7_ビス
  6
Continuous
 62
     7
100
AcDbLine
 10
918.4670578695611
 20
415.3533120519191
 30
0.0
 11
918.4965006663565
 21
415.3480694034871
 31
0.0
  0
LINE
  5
69E
330
22
100
AcDbEntity
  8
_2-7_ビス
  6
Continuous
 62
     7
100
AcDbLine
 10
918.4965006663565
 20
415.3480694034871
 30
0.0
 11
918.5264970425079
 21
415.3475567731441
 31
0.0
  0
LINE
  5
69F
330
22
100
AcDbEntity
  8
_2-7_ビス
  6
Continuous
 62
     7
100
AcDbLine
 10
918.5264970425079
 20
415.3475567731441
 30
0.0
 11
918.5561355733041
 21
415.3517897369037
 31
0.0
  0
LINE
  5
6A0
330
22
100
AcDbEntity
  8
_2-7_ビス
  6
Continuous
 62
     7
100
AcDbLine
 10
918.5561355733041
 20
415.3517897369037
 30
0.0
 11
918.5845157069854
 21
415.360639678304
 31
0.0
  0
LINE
  5
6A1
330
22
100
AcDbEntity
  8
_2-7_ビス
  6
Continuous
 62
     7
100
AcDbLine
 10
918.5845157069854
 20
415.360639678304
 30
0.0
 11
918.6107751275502
 21
415.3738376963536
 31
0.0
  0
LINE
  5
6A2
330
22
100
AcDbEntity
  8
_2-7_ビス
  6
Continuous
 62
     7
100
AcDbLine
 10
918.6107751275502
 20
415.3738376963536
 30
0.0
 11
918.6107757691743
 21
415.3738380888711
 31
0.0
  0
LINE
  5
6A3
330
22
100
AcDbEntity
  8
_2-7_ビス
  6
Continuous
 62
     7
100
AcDbLine
 10
916.7763412699086
 20
415.5842644837872
 30
0.0
 11
916.7763412699086
 21
415.5842644837872
 31
0.0
  0
LINE
  5
6A4
330
22
100
AcDbEntity
  8
_2-7_ビス
  6
Continuous
 62
     7
100
AcDbLine
 10
916.7763412699086
 20
415.5842644837872
 30
0.0
 11
916.7888548201677
 21
415.5497412554523
 31
0.0
  0
LINE
  5
6A5
330
22
100
AcDbEntity
  8
_2-7_ビス
  6
Continuous
 62
     7
100
AcDbLine
 10
916.7888548201677
 20
415.5497412554523
 30
0.0
 11
916.8077691409459
 21
415.5177189770991
 31
0.0
  0
LINE
  5
6A6
330
22
100
AcDbEntity
  8
_2-7_ビス
  6
Continuous
 62
     7
100
AcDbLine
 10
916.8077691409459
 20
415.5177189770991
 30
0.0
 11
916.8325095301774
 21
415.4891706294516
 31
0.0
  0
LINE
  5
6A7
330
22
100
AcDbEntity
  8
_2-7_ビス
  6
Continuous
 62
     7
100
AcDbLine
 10
916.8325095301774
 20
415.4891706294516
 30
0.0
 11
916.8623242636542
 21
415.4649636396067
 31
0.0
  0
LINE
  5
6A8
330
22
100
AcDbEntity
  8
_2-7_ビス
  6
Continuous
 62
     7
100
AcDbLine
 10
916.8623242636542
 20
415.4649636396067
 30
0.0
 11
916.8963074357876
 21
415.4458335247016
 31
0.0
  0
LINE
  5
6A9
330
22
100
AcDbEntity
  8
_2-7_ビス
  6
Continuous
 62
     7
100
AcDbLine
 10
916.8963074357876
 20
415.4458335247016
 30
0.0
 11
916.9334264850879
 21
415.4323615435974
 31
0.0
  0
LINE
  5
6AA
330
22
100
AcDbEntity
  8
_2-7_ビス
  6
Continuous
 62
     7
100
AcDbLine
 10
916.9334264850879
 20
415.4323615435974
 30
0.0
 11
916.9725535680257
 21
415.4249570356228
 31
0.0
  0
LINE
  5
6AB
330
22
100
AcDbEntity
  8
_2-7_ビス
  6
Continuous
 62
     7
100
AcDbLine
 10
916.9725535680257
 20
415.4249570356228
 30
0.0
 11
917.0124998279847
 21
415.4238449830057
 31
0.0
  0
LINE
  5
6AC
330
22
100
AcDbEntity
  8
_2-7_ビス
  6
Continuous
 62
     7
100
AcDbLine
 10
917.0124998279847
 20
415.4238449830057
 30
0.0
 11
917.0237096908087
 21
415.4246747340665
 31
0.0
  0
LINE
  5
6AD
330
22
100
AcDbEntity
  8
_2-7_ビス
  6
Continuous
 62
     7
100
AcDbLine
 10
915.2096746042087
 20
415.5842644837872
 30
0.0
 11
915.2096746042087
 21
415.5842644837872
 31
0.0
  0
LINE
  5
6AE
330
22
100
AcDbEntity
  8
_2-7_ビス
  6
Continuous
 62
     7
100
AcDbLine
 10
915.2096746042087
 20
415.5842644837872
 30
0.0
 11
915.2221881544674
 21
415.5497412554523
 31
0.0
  0
LINE
  5
6AF
330
22
100
AcDbEntity
  8
_2-7_ビス
  6
Continuous
 62
     7
100
AcDbLine
 10
915.2221881544674
 20
415.5497412554523
 30
0.0
 11
915.2411024752458
 21
415.5177189770991
 31
0.0
  0
LINE
  5
6B0
330
22
100
AcDbEntity
  8
_2-7_ビス
  6
Continuous
 62
     7
100
AcDbLine
 10
915.2411024752458
 20
415.5177189770991
 30
0.0
 11
915.2658428644771
 21
415.4891706294516
 31
0.0
  0
LINE
  5
6B1
330
22
100
AcDbEntity
  8
_2-7_ビス
  6
Continuous
 62
     7
100
AcDbLine
 10
915.2658428644771
 20
415.4891706294516
 30
0.0
 11
915.2956575979544
 21
415.4649636396067
 31
0.0
  0
LINE
  5
6B2
330
22
100
AcDbEntity
  8
_2-7_ビス
  6
Continuous
 62
     7
100
AcDbLine
 10
915.2956575979544
 20
415.4649636396067
 30
0.0
 11
915.3296407700876
 21
415.4458335247016
 31
0.0
  0
LINE
  5
6B3
330
22
100
AcDbEntity
  8
_2-7_ビス
  6
Continuous
 62
     7
100
AcDbLine
 10
915.3296407700876
 20
415.4458335247016
 30
0.0
 11
915.366759819388
 21
415.4323615435974
 31
0.0
  0
LINE
  5
6B4
330
22
100
AcDbEntity
  8
_2-7_ビス
  6
Continuous
 62
     7
100
AcDbLine
 10
915.366759819388
 20
415.4323615435974
 30
0.0
 11
915.4058869023256
 21
415.4249570356228
 31
0.0
  0
LINE
  5
6B5
330
22
100
AcDbEntity
  8
_2-7_ビス
  6
Continuous
 62
     7
100
AcDbLine
 10
915.4058869023256
 20
415.4249570356228
 30
0.0
 11
915.4458331622846
 21
415.4238449830057
 31
0.0
  0
LINE
  5
6B6
330
22
100
AcDbEntity
  8
_2-7_ビス
  6
Continuous
 62
     7
100
AcDbLine
 10
915.4458331622846
 20
415.4238449830057
 30
0.0
 11
915.4570430251085
 21
415.4246747340665
 31
0.0
  0
LINE
  5
6B7
330
22
100
AcDbEntity
  8
_2-7_ビス
  6
Continuous
 62
     7
100
AcDbLine
 10
913.6430079385085
 20
415.6412513431888
 30
0.0
 11
913.6430079385085
 21
415.6412513431888
 31
0.0
  0
LINE
  5
6B8
330
22
100
AcDbEntity
  8
_2-7_ビス
  6
Continuous
 62
     7
100
AcDbLine
 10
913.6430079385085
 20
415.6412513431888
 30
0.0
 11
913.6555214887676
 21
415.606728114854
 31
0.0
  0
LINE
  5
6B9
330
22
100
AcDbEntity
  8
_2-7_ビス
  6
Continuous
 62
     7
100
AcDbLine
 10
913.6555214887676
 20
415.606728114854
 30
0.0
 11
913.6744358095457
 21
415.5747058365007
 31
0.0
  0
LINE
  5
6BA
330
22
100
AcDbEntity
  8
_2-7_ビス
  6
Continuous
 62
     7
100
AcDbLine
 10
913.6744358095457
 20
415.5747058365007
 30
0.0
 11
913.6991761987772
 21
415.5461574888532
 31
0.0
  0
LINE
  5
6BB
330
22
100
AcDbEntity
  8
_2-7_ビス
  6
Continuous
 62
     7
100
AcDbLine
 10
913.6991761987772
 20
415.5461574888532
 30
0.0
 11
913.7289909322543
 21
415.5219504990084
 31
0.0
  0
LINE
  5
6BC
330
22
100
AcDbEntity
  8
_2-7_ビス
  6
Continuous
 62
     7
100
AcDbLine
 10
913.7289909322543
 20
415.5219504990084
 30
0.0
 11
913.7629741043877
 21
415.5028203841032
 31
0.0
  0
LINE
  5
6BD
330
22
100
AcDbEntity
  8
_2-7_ビス
  6
Continuous
 62
     7
100
AcDbLine
 10
913.7629741043877
 20
415.5028203841032
 30
0.0
 11
913.8000931536881
 21
415.489348402999
 31
0.0
  0
LINE
  5
6BE
330
22
100
AcDbEntity
  8
_2-7_ビス
  6
Continuous
 62
     7
100
AcDbLine
 10
913.8000931536881
 20
415.489348402999
 30
0.0
 11
913.8392202366256
 21
415.4819438950244
 31
0.0
  0
LINE
  5
6BF
330
22
100
AcDbEntity
  8
_2-7_ビス
  6
Continuous
 62
     7
100
AcDbLine
 10
913.8392202366256
 20
415.4819438950244
 30
0.0
 11
913.8791664965847
 21
415.4808318424073
 31
0.0
  0
LINE
  5
6C0
330
22
100
AcDbEntity
  8
_2-7_ビス
  6
Continuous
 62
     7
100
AcDbLine
 10
913.8791664965847
 20
415.4808318424073
 30
0.0
 11
913.8903763594086
 21
415.4816615934682
 31
0.0
  0
LINE
  5
6C1
330
22
100
AcDbEntity
  8
_2-7_ビス
  6
Continuous
 62
     7
100
AcDbLine
 10
910.5096746071083
 20
415.5842644837872
 30
0.0
 11
910.5096746071083
 21
415.5842644837872
 31
0.0
  0
LINE
  5
6C2
330
22
100
AcDbEntity
  8
_2-7_ビス
  6
Continuous
 62
     7
100
AcDbLine
 10
910.5096746071083
 20
415.5842644837872
 30
0.0
 11
910.5221881573674
 21
415.5497412554523
 31
0.0
  0
LINE
  5
6C3
330
22
100
AcDbEntity
  8
_2-7_ビス
  6
Continuous
 62
     7
100
AcDbLine
 10
910.5221881573674
 20
415.5497412554523
 30
0.0
 11
910.5411024781457
 21
415.5177189770991
 31
0.0
  0
LINE
  5
6C4
330
22
100
AcDbEntity
  8
_2-7_ビス
  6
Continuous
 62
     7
100
AcDbLine
 10
910.5411024781457
 20
415.5177189770991
 30
0.0
 11
910.5658428673773
 21
415.4891706294516
 31
0.0
  0
LINE
  5
6C5
330
22
100
AcDbEntity
  8
_2-7_ビス
  6
Continuous
 62
     7
100
AcDbLine
 10
910.5658428673773
 20
415.4891706294516
 30
0.0
 11
910.5956576008543
 21
415.4649636396067
 31
0.0
  0
LINE
  5
6C6
330
22
100
AcDbEntity
  8
_2-7_ビス
  6
Continuous
 62
     7
100
AcDbLine
 10
910.5956576008543
 20
415.4649636396067
 30
0.0
 11
910.6296407729875
 21
415.4458335247016
 31
0.0
  0
LINE
  5
6C7
330
22
100
AcDbEntity
  8
_2-7_ビス
  6
Continuous
 62
     7
100
AcDbLine
 10
910.6296407729875
 20
415.4458335247016
 30
0.0
 11
910.666759822288
 21
415.4323615435974
 31
0.0
  0
LINE
  5
6C8
330
22
100
AcDbEntity
  8
_2-7_ビス
  6
Continuous
 62
     7
100
AcDbLine
 10
910.666759822288
 20
415.4323615435974
 30
0.0
 11
910.7058869052258
 21
415.4249570356228
 31
0.0
  0
LINE
  5
6C9
330
22
100
AcDbEntity
  8
_2-7_ビス
  6
Continuous
 62
     7
100
AcDbLine
 10
910.7058869052258
 20
415.4249570356228
 30
0.0
 11
910.7458331651843
 21
415.4238449830057
 31
0.0
  0
LINE
  5
6CA
330
22
100
AcDbEntity
  8
_2-7_ビス
  6
Continuous
 62
     7
100
AcDbLine
 10
910.7458331651843
 20
415.4238449830057
 30
0.0
 11
910.7570430280084
 21
415.4246747340665
 31
0.0
  0
LINE
  5
6CB
330
22
100
AcDbEntity
  8
_2-7_ビス
  6
Continuous
 62
     7
100
AcDbLine
 10
908.9430079414084
 20
415.5842644837872
 30
0.0
 11
908.9430079414084
 21
415.5842644837872
 31
0.0
  0
LINE
  5
6CC
330
22
100
AcDbEntity
  8
_2-7_ビス
  6
Continuous
 62
     7
100
AcDbLine
 10
908.9430079414084
 20
415.5842644837872
 30
0.0
 11
908.9555214916675
 21
415.5497412554523
 31
0.0
  0
LINE
  5
6CD
330
22
100
AcDbEntity
  8
_2-7_ビス
  6
Continuous
 62
     7
100
AcDbLine
 10
908.9555214916675
 20
415.5497412554523
 30
0.0
 11
908.9744358124457
 21
415.5177189770991
 31
0.0
  0
LINE
  5
6CE
330
22
100
AcDbEntity
  8
_2-7_ビス
  6
Continuous
 62
     7
100
AcDbLine
 10
908.9744358124457
 20
415.5177189770991
 30
0.0
 11
908.9991762016772
 21
415.4891706294516
 31
0.0
  0
LINE
  5
6CF
330
22
100
AcDbEntity
  8
_2-7_ビス
  6
Continuous
 62
     7
100
AcDbLine
 10
908.9991762016772
 20
415.4891706294516
 30
0.0
 11
909.0289909351543
 21
415.4649636396067
 31
0.0
  0
LINE
  5
6D0
330
22
100
AcDbEntity
  8
_2-7_ビス
  6
Continuous
 62
     7
100
AcDbLine
 10
909.0289909351543
 20
415.4649636396067
 30
0.0
 11
909.0629741072875
 21
415.4458335247016
 31
0.0
  0
LINE
  5
6D1
330
22
100
AcDbEntity
  8
_2-7_ビス
  6
Continuous
 62
     7
100
AcDbLine
 10
909.0629741072875
 20
415.4458335247016
 30
0.0
 11
909.1000931565879
 21
415.4323615435974
 31
0.0
  0
LINE
  5
6D2
330
22
100
AcDbEntity
  8
_2-7_ビス
  6
Continuous
 62
     7
100
AcDbLine
 10
909.1000931565879
 20
415.4323615435974
 30
0.0
 11
909.1392202395255
 21
415.4249570356228
 31
0.0
  0
LINE
  5
6D3
330
22
100
AcDbEntity
  8
_2-7_ビス
  6
Continuous
 62
     7
100
AcDbLine
 10
909.1392202395255
 20
415.4249570356228
 30
0.0
 11
909.1791664994843
 21
415.4238449830057
 31
0.0
  0
LINE
  5
6D4
330
22
100
AcDbEntity
  8
_2-7_ビス
  6
Continuous
 62
     7
100
AcDbLine
 10
909.1791664994843
 20
415.4238449830057
 30
0.0
 11
909.1903763623085
 21
415.4246747340665
 31
0.0
  0
LINE
  5
6D5
330
22
100
AcDbEntity
  8
_2-7_ビス
  6
Continuous
 62
     7
100
AcDbLine
 10
907.3763412757084
 20
415.5842644837872
 30
0.0
 11
907.3763412757084
 21
415.5842644837872
 31
0.0
  0
LINE
  5
6D6
330
22
100
AcDbEntity
  8
_2-7_ビス
  6
Continuous
 62
     7
100
AcDbLine
 10
907.3763412757084
 20
415.5842644837872
 30
0.0
 11
907.3888548259676
 21
415.5497412554523
 31
0.0
  0
LINE
  5
6D7
330
22
100
AcDbEntity
  8
_2-7_ビス
  6
Continuous
 62
     7
100
AcDbLine
 10
907.3888548259676
 20
415.5497412554523
 30
0.0
 11
907.4077691467456
 21
415.5177189770991
 31
0.0
  0
LINE
  5
6D8
330
22
100
AcDbEntity
  8
_2-7_ビス
  6
Continuous
 62
     7
100
AcDbLine
 10
907.4077691467456
 20
415.5177189770991
 30
0.0
 11
907.4325095359773
 21
415.4891706294516
 31
0.0
  0
LINE
  5
6D9
330
22
100
AcDbEntity
  8
_2-7_ビス
  6
Continuous
 62
     7
100
AcDbLine
 10
907.4325095359773
 20
415.4891706294516
 30
0.0
 11
907.462324269454
 21
415.4649636396067
 31
0.0
  0
LINE
  5
6DA
330
22
100
AcDbEntity
  8
_2-7_ビス
  6
Continuous
 62
     7
100
AcDbLine
 10
907.462324269454
 20
415.4649636396067
 30
0.0
 11
907.4963074415874
 21
415.4458335247016
 31
0.0
  0
LINE
  5
6DB
330
22
100
AcDbEntity
  8
_2-7_ビス
  6
Continuous
 62
     7
100
AcDbLine
 10
907.4963074415874
 20
415.4458335247016
 30
0.0
 11
907.533426490888
 21
415.4323615435974
 31
0.0
  0
LINE
  5
6DC
330
22
100
AcDbEntity
  8
_2-7_ビス
  6
Continuous
 62
     7
100
AcDbLine
 10
907.533426490888
 20
415.4323615435974
 30
0.0
 11
907.5725535738255
 21
415.4249570356228
 31
0.0
  0
LINE
  5
6DD
330
22
100
AcDbEntity
  8
_2-7_ビス
  6
Continuous
 62
     7
100
AcDbLine
 10
907.5725535738255
 20
415.4249570356228
 30
0.0
 11
907.6124998337844
 21
415.4238449830057
 31
0.0
  0
LINE
  5
6DE
330
22
100
AcDbEntity
  8
_2-7_ビス
  6
Continuous
 62
     7
100
AcDbLine
 10
907.6124998337844
 20
415.4238449830057
 30
0.0
 11
907.6237096966083
 21
415.4246747340665
 31
0.0
  0
LINE
  5
6DF
330
22
100
AcDbEntity
  8
_2-7_ビス
  6
Continuous
 62
     7
100
AcDbLine
 10
905.8096746100083
 20
415.6415440553616
 30
0.0
 11
905.8096746100083
 21
415.6415440553616
 31
0.0
  0
LINE
  5
6E0
330
22
100
AcDbEntity
  8
_2-7_ビス
  6
Continuous
 62
     7
100
AcDbLine
 10
905.8096746100083
 20
415.6415440553616
 30
0.0
 11
905.8221881602676
 21
415.6070208270265
 31
0.0
  0
LINE
  5
6E1
330
22
100
AcDbEntity
  8
_2-7_ビス
  6
Continuous
 62
     7
100
AcDbLine
 10
905.8221881602676
 20
415.6070208270265
 30
0.0
 11
905.8411024810457
 21
415.5749985486735
 31
0.0
  0
LINE
  5
6E2
330
22
100
AcDbEntity
  8
_2-7_ビス
  6
Continuous
 62
     7
100
AcDbLine
 10
905.8411024810457
 20
415.5749985486735
 30
0.0
 11
905.865842870277
 21
415.546450201026
 31
0.0
  0
LINE
  5
6E3
330
22
100
AcDbEntity
  8
_2-7_ビス
  6
Continuous
 62
     7
100
AcDbLine
 10
905.865842870277
 20
415.546450201026
 30
0.0
 11
905.8956576037543
 21
415.522243211181
 31
0.0
  0
LINE
  5
6E4
330
22
100
AcDbEntity
  8
_2-7_ビス
  6
Continuous
 62
     7
100
AcDbLine
 10
905.8956576037543
 20
415.522243211181
 30
0.0
 11
905.9296407758875
 21
415.5031130962759
 31
0.0
  0
LINE
  5
6E5
330
22
100
AcDbEntity
  8
_2-7_ビス
  6
Continuous
 62
     7
100
AcDbLine
 10
905.9296407758875
 20
415.5031130962759
 30
0.0
 11
905.9667598251879
 21
415.4896411151717
 31
0.0
  0
LINE
  5
6E6
330
22
100
AcDbEntity
  8
_2-7_ビス
  6
Continuous
 62
     7
100
AcDbLine
 10
905.9667598251879
 20
415.4896411151717
 30
0.0
 11
906.0058869081251
 21
415.4822366071972
 31
0.0
  0
LINE
  5
6E7
330
22
100
AcDbEntity
  8
_2-7_ビス
  6
Continuous
 62
     7
100
AcDbLine
 10
906.0058869081251
 20
415.4822366071972
 30
0.0
 11
906.0458331680845
 21
415.4811245545801
 31
0.0
  0
LINE
  5
6E8
330
22
100
AcDbEntity
  8
_2-7_ビス
  6
Continuous
 62
     7
100
AcDbLine
 10
906.0458331680845
 20
415.4811245545801
 30
0.0
 11
906.0570430309084
 21
415.4819543056409
 31
0.0
  0
LINE
  5
6E9
330
22
100
AcDbEntity
  8
_2-7_ビス
  6
Continuous
 62
     7
100
AcDbLine
 10
902.6763412786085
 20
415.5842644837872
 30
0.0
 11
902.6763412786085
 21
415.5842644837872
 31
0.0
  0
LINE
  5
6EA
330
22
100
AcDbEntity
  8
_2-7_ビス
  6
Continuous
 62
     7
100
AcDbLine
 10
902.6763412786085
 20
415.5842644837872
 30
0.0
 11
902.6888548288672
 21
415.5497412554523
 31
0.0
  0
LINE
  5
6EB
330
22
100
AcDbEntity
  8
_2-7_ビス
  6
Continuous
 62
     7
100
AcDbLine
 10
902.6888548288672
 20
415.5497412554523
 30
0.0
 11
902.7077691496456
 21
415.5177189770991
 31
0.0
  0
LINE
  5
6EC
330
22
100
AcDbEntity
  8
_2-7_ビス
  6
Continuous
 62
     7
100
AcDbLine
 10
902.7077691496456
 20
415.5177189770991
 30
0.0
 11
902.732509538877
 21
415.4891706294516
 31
0.0
  0
LINE
  5
6ED
330
22
100
AcDbEntity
  8
_2-7_ビス
  6
Continuous
 62
     7
100
AcDbLine
 10
902.732509538877
 20
415.4891706294516
 30
0.0
 11
902.7623242723537
 21
415.4649636396067
 31
0.0
  0
LINE
  5
6EE
330
22
100
AcDbEntity
  8
_2-7_ビス
  6
Continuous
 62
     7
100
AcDbLine
 10
902.7623242723537
 20
415.4649636396067
 30
0.0
 11
902.7963074444873
 21
415.4458335247016
 31
0.0
  0
LINE
  5
6EF
330
22
100
AcDbEntity
  8
_2-7_ビス
  6
Continuous
 62
     7
100
AcDbLine
 10
902.7963074444873
 20
415.4458335247016
 30
0.0
 11
902.8334264937875
 21
415.4323615435974
 31
0.0
  0
LINE
  5
6F0
330
22
100
AcDbEntity
  8
_2-7_ビス
  6
Continuous
 62
     7
100
AcDbLine
 10
902.8334264937875
 20
415.4323615435974
 30
0.0
 11
902.8725535767252
 21
415.4249570356228
 31
0.0
  0
LINE
  5
6F1
330
22
100
AcDbEntity
  8
_2-7_ビス
  6
Continuous
 62
     7
100
AcDbLine
 10
902.8725535767252
 20
415.4249570356228
 30
0.0
 11
902.9124998366846
 21
415.4238449830057
 31
0.0
  0
LINE
  5
6F2
330
22
100
AcDbEntity
  8
_2-7_ビス
  6
Continuous
 62
     7
100
AcDbLine
 10
902.9124998366846
 20
415.4238449830057
 30
0.0
 11
902.9237096995085
 21
415.4246747340665
 31
0.0
  0
LINE
  5
6F3
330
22
100
AcDbEntity
  8
_2-7_ビス
  6
Continuous
 62
     7
100
AcDbLine
 10
901.1096746129082
 20
415.6165445348819
 30
0.0
 11
901.1096746129082
 21
415.6165445348819
 31
0.0
  0
LINE
  5
6F4
330
22
100
AcDbEntity
  8
_2-7_ビス
  6
Continuous
 62
     7
100
AcDbLine
 10
901.1096746129082
 20
415.6165445348819
 30
0.0
 11
901.1221881631673
 21
415.5820213065469
 31
0.0
  0
LINE
  5
6F5
330
22
100
AcDbEntity
  8
_2-7_ビス
  6
Continuous
 62
     7
100
AcDbLine
 10
901.1221881631673
 20
415.5820213065469
 30
0.0
 11
901.1411024839455
 21
415.5499990281937
 31
0.0
  0
LINE
  5
6F6
330
22
100
AcDbEntity
  8
_2-7_ビス
  6
Continuous
 62
     7
100
AcDbLine
 10
901.1411024839455
 20
415.5499990281937
 30
0.0
 11
901.165842873177
 21
415.5214506805463
 31
0.0
  0
LINE
  5
6F7
330
22
100
AcDbEntity
  8
_2-7_ビス
  6
Continuous
 62
     7
100
AcDbLine
 10
901.165842873177
 20
415.5214506805463
 30
0.0
 11
901.1956576066541
 21
415.4972436907014
 31
0.0
  0
LINE
  5
6F8
330
22
100
AcDbEntity
  8
_2-7_ビス
  6
Continuous
 62
     7
100
AcDbLine
 10
901.1956576066541
 20
415.4972436907014
 30
0.0
 11
901.2296407787871
 21
415.4781135757962
 31
0.0
  0
LINE
  5
6F9
330
22
100
AcDbEntity
  8
_2-7_ビス
  6
Continuous
 62
     7
100
AcDbLine
 10
901.2296407787871
 20
415.4781135757962
 30
0.0
 11
901.2667598280875
 21
415.464641594692
 31
0.0
  0
LINE
  5
6FA
330
22
100
AcDbEntity
  8
_2-7_ビス
  6
Continuous
 62
     7
100
AcDbLine
 10
901.2667598280875
 20
415.464641594692
 30
0.0
 11
901.3058869110253
 21
415.4572370867176
 31
0.0
  0
LINE
  5
6FB
330
22
100
AcDbEntity
  8
_2-7_ビス
  6
Continuous
 62
     7
100
AcDbLine
 10
901.3058869110253
 20
415.4572370867176
 30
0.0
 11
901.3458331709843
 21
415.4561250341003
 31
0.0
  0
LINE
  5
6FC
330
22
100
AcDbEntity
  8
_2-7_ビス
  6
Continuous
 62
     7
100
AcDbLine
 10
901.3458331709843
 20
415.4561250341003
 30
0.0
 11
901.3570430338084
 21
415.4569547851612
 31
0.0
  0
LINE
  5
6FD
330
22
100
AcDbEntity
  8
_2-7_ビス
  6
Continuous
 62
     7
100
AcDbLine
 10
899.5430079472081
 20
415.6486474876902
 30
0.0
 11
899.5430079472081
 21
415.6486474876902
 31
0.0
  0
LINE
  5
6FE
330
22
100
AcDbEntity
  8
_2-7_ビス
  6
Continuous
 62
     7
100
AcDbLine
 10
899.5430079472081
 20
415.6486474876902
 30
0.0
 11
899.5555214974674
 21
415.6141242593553
 31
0.0
  0
LINE
  5
6FF
330
22
100
AcDbEntity
  8
_2-7_ビス
  6
Continuous
 62
     7
100
AcDbLine
 10
899.5555214974674
 20
415.6141242593553
 30
0.0
 11
899.5744358182456
 21
415.5821019810022
 31
0.0
  0
LINE
  5
700
330
22
100
AcDbEntity
  8
_2-7_ビス
  6
Continuous
 62
     7
100
AcDbLine
 10
899.5744358182456
 20
415.5821019810022
 30
0.0
 11
899.5991762074769
 21
415.5535536333545
 31
0.0
  0
LINE
  5
701
330
22
100
AcDbEntity
  8
_2-7_ビス
  6
Continuous
 62
     7
100
AcDbLine
 10
899.5991762074769
 20
415.5535536333545
 30
0.0
 11
899.6289909409538
 21
415.5293466435098
 31
0.0
  0
LINE
  5
702
330
22
100
AcDbEntity
  8
_2-7_ビス
  6
Continuous
 62
     7
100
AcDbLine
 10
899.6289909409538
 20
415.5293466435098
 30
0.0
 11
899.6629741130872
 21
415.5102165286046
 31
0.0
  0
LINE
  5
703
330
22
100
AcDbEntity
  8
_2-7_ビス
  6
Continuous
 62
     7
100
AcDbLine
 10
899.6629741130872
 20
415.5102165286046
 30
0.0
 11
899.7000931623876
 21
415.4967445475005
 31
0.0
  0
LINE
  5
704
330
22
100
AcDbEntity
  8
_2-7_ビス
  6
Continuous
 62
     7
100
AcDbLine
 10
899.7000931623876
 20
415.4967445475005
 30
0.0
 11
899.7392202453251
 21
415.4893400395257
 31
0.0
  0
LINE
  5
705
330
22
100
AcDbEntity
  8
_2-7_ビス
  6
Continuous
 62
     7
100
AcDbLine
 10
899.7392202453251
 20
415.4893400395257
 30
0.0
 11
899.7791665052842
 21
415.4882279869087
 31
0.0
  0
LINE
  5
706
330
22
100
AcDbEntity
  8
_2-7_ビス
  6
Continuous
 62
     7
100
AcDbLine
 10
899.7791665052842
 20
415.4882279869087
 30
0.0
 11
899.790376368108
 21
415.4890577379696
 31
0.0
  0
LINE
  5
707
330
22
100
AcDbEntity
  8
_2-7_ビス
  6
Continuous
 62
     7
100
AcDbLine
 10
897.9763412815092
 20
415.6709624187199
 30
0.0
 11
897.9763412815092
 21
415.6709624187199
 31
0.0
  0
LINE
  5
708
330
22
100
AcDbEntity
  8
_2-7_ビス
  6
Continuous
 62
     7
100
AcDbLine
 10
897.9763412815092
 20
415.6709624187199
 30
0.0
 11
897.9888548317683
 21
415.6364391903848
 31
0.0
  0
LINE
  5
709
330
22
100
AcDbEntity
  8
_2-7_ビス
  6
Continuous
 62
     7
100
AcDbLine
 10
897.9888548317683
 20
415.6364391903848
 30
0.0
 11
898.0077691525465
 21
415.6044169120318
 31
0.0
  0
LINE
  5
70A
330
22
100
AcDbEntity
  8
_2-7_ビス
  6
Continuous
 62
     7
100
AcDbLine
 10
898.0077691525465
 20
415.6044169120318
 30
0.0
 11
898.0325095417779
 21
415.5758685643841
 31
0.0
  0
LINE
  5
70B
330
22
100
AcDbEntity
  8
_2-7_ビス
  6
Continuous
 62
     7
100
AcDbLine
 10
898.0325095417779
 20
415.5758685643841
 30
0.0
 11
898.062324275255
 21
415.5516615745392
 31
0.0
  0
LINE
  5
70C
330
22
100
AcDbEntity
  8
_2-7_ビス
  6
Continuous
 62
     7
100
AcDbLine
 10
898.062324275255
 20
415.5516615745392
 30
0.0
 11
898.0963074473883
 21
415.5325314596342
 31
0.0
  0
LINE
  5
70D
330
22
100
AcDbEntity
  8
_2-7_ビス
  6
Continuous
 62
     7
100
AcDbLine
 10
898.0963074473883
 20
415.5325314596342
 30
0.0
 11
898.1334264966887
 21
415.51905947853
 31
0.0
  0
LINE
  5
70E
330
22
100
AcDbEntity
  8
_2-7_ビス
  6
Continuous
 62
     7
100
AcDbLine
 10
898.1334264966887
 20
415.51905947853
 30
0.0
 11
898.1725535796263
 21
415.5116549705553
 31
0.0
  0
LINE
  5
70F
330
22
100
AcDbEntity
  8
_2-7_ビス
  6
Continuous
 62
     7
100
AcDbLine
 10
898.1725535796263
 20
415.5116549705553
 30
0.0
 11
898.2124998395851
 21
415.5105429179383
 31
0.0
  0
LINE
  5
710
330
22
100
AcDbEntity
  8
_2-7_ビス
  6
Continuous
 62
     7
100
AcDbLine
 10
898.2124998395851
 20
415.5105429179383
 30
0.0
 11
898.2237097024093
 21
415.5113726689991
 31
0.0
  0
LINE
  5
711
330
22
100
AcDbEntity
  8
_2-7_ビス
  6
Continuous
 62
     7
100
AcDbLine
 10
896.4096746158093
 20
415.6617792337879
 30
0.0
 11
896.4096746158093
 21
415.6617792337879
 31
0.0
  0
LINE
  5
712
330
22
100
AcDbEntity
  8
_2-7_ビス
  6
Continuous
 62
     7
100
AcDbLine
 10
896.4096746158093
 20
415.6617792337879
 30
0.0
 11
896.4147704346579
 21
415.6346332978489
 31
0.0
  0
LINE
  5
713
330
22
100
AcDbEntity
  8
_2-7_ビス
  6
Continuous
 62
     7
100
AcDbLine
 10
896.4147704346579
 20
415.6346332978489
 30
0.0
 11
896.4249713064695
 21
415.608704633617
 31
0.0
  0
LINE
  5
714
330
22
100
AcDbEntity
  8
_2-7_ビス
  6
Continuous
 62
     7
100
AcDbLine
 10
896.4249713064695
 20
415.608704633617
 30
0.0
 11
896.4399672829157
 21
415.5847810704345
 31
0.0
  0
LINE
  5
715
330
22
100
AcDbEntity
  8
_2-7_ビス
  6
Continuous
 62
     7
100
AcDbLine
 10
896.4399672829157
 20
415.5847810704345
 30
0.0
 11
896.459302718841
 21
415.5635895136628
 31
0.0
  0
LINE
  5
716
330
22
100
AcDbEntity
  8
_2-7_ビス
  6
Continuous
 62
     7
100
AcDbLine
 10
896.459302718841
 20
415.5635895136628
 30
0.0
 11
896.4823901168083
 21
415.5457738580308
 31
0.0
  0
LINE
  5
717
330
22
100
AcDbEntity
  8
_2-7_ビス
  6
Continuous
 62
     7
100
AcDbLine
 10
896.4823901168083
 20
415.5457738580308
 30
0.0
 11
896.5085279779138
 21
415.5318754232196
 31
0.0
  0
LINE
  5
718
330
22
100
AcDbEntity
  8
_2-7_ビス
  6
Continuous
 62
     7
100
AcDbLine
 10
896.5085279779138
 20
415.5318754232196
 30
0.0
 11
896.536922116474
 21
415.5223165061384
 31
0.0
  0
LINE
  5
719
330
22
100
AcDbEntity
  8
_2-7_ビス
  6
Continuous
 62
     7
100
AcDbLine
 10
896.536922116474
 20
415.5223165061384
 30
0.0
 11
896.5667097909566
 21
415.5173875496451
 31
0.0
  0
LINE
  5
71A
330
22
100
AcDbEntity
  8
_2-7_ビス
  6
Continuous
 62
     7
100
AcDbLine
 10
896.5667097909566
 20
415.5173875496451
 30
0.0
 11
896.5969859179462
 21
415.5172383175893
 31
0.0
  0
LINE
  5
71B
330
22
100
AcDbEntity
  8
_2-7_ビス
  6
Continuous
 62
     7
100
AcDbLine
 10
896.5969859179462
 20
415.5172383175893
 30
0.0
 11
896.6268305726442
 21
415.5218733443109
 31
0.0
  0
LINE
  5
71C
330
22
100
AcDbEntity
  8
_2-7_ビス
  6
Continuous
 62
     7
100
AcDbLine
 10
896.6268305726442
 20
415.5218733443109
 30
0.0
 11
896.65533694032
 21
415.5311517968685
 31
0.0
  0
LINE
  5
71D
330
22
100
AcDbEntity
  8
_2-7_ビス
  6
Continuous
 62
     7
100
AcDbLine
 10
896.65533694032
 20
415.5311517968685
 30
0.0
 11
896.6816388694168
 21
415.5447917541766
 31
0.0
  0
LINE
  5
71E
330
22
100
AcDbEntity
  8
_2-7_ビス
  6
Continuous
 62
     7
100
AcDbLine
 10
896.6816388694168
 20
415.5447917541766
 30
0.0
 11
896.6817713576787
 21
415.5448752479336
 31
0.0
  0
LINE
  5
71F
330
22
100
AcDbEntity
  8
_2-7_ビス
  6
Continuous
 62
     7
100
AcDbLine
 10
904.2430079443088
 20
415.9648879837876
 30
0.0
 11
904.2430079443088
 21
415.9648879837876
 31
0.0
  0
LINE
  5
720
330
22
100
AcDbEntity
  8
_2-7_ビス
  6
Continuous
 62
     7
100
AcDbLine
 10
904.2430079443088
 20
415.9648879837876
 30
0.0
 11
904.2552679009565
 21
415.8805621529937
 31
0.0
  0
LINE
  5
721
330
22
100
AcDbEntity
  8
_2-7_ビス
  6
Continuous
 62
     7
100
AcDbLine
 10
904.2552679009565
 20
415.8805621529937
 30
0.0
 11
904.2834403676636
 21
415.7994538315354
 31
0.0
  0
LINE
  5
722
330
22
100
AcDbEntity
  8
_2-7_ビス
  6
Continuous
 62
     7
100
AcDbLine
 10
904.2834403676636
 20
415.7994538315354
 30
0.0
 11
904.326669338285
 21
415.7240274547174
 31
0.0
  0
LINE
  5
723
330
22
100
AcDbEntity
  8
_2-7_ビス
  6
Continuous
 62
     7
100
AcDbLine
 10
904.326669338285
 20
415.7240274547174
 30
0.0
 11
904.3836413224235
 21
415.6565748148314
 31
0.0
  0
LINE
  5
724
330
22
100
AcDbEntity
  8
_2-7_ビス
  6
Continuous
 62
     7
100
AcDbLine
 10
904.3836413224235
 20
415.6565748148314
 30
0.0
 11
904.4526252551705
 21
415.599145426208
 31
0.0
  0
LINE
  5
725
330
22
100
AcDbEntity
  8
_2-7_ビス
  6
Continuous
 62
     7
100
AcDbLine
 10
904.4526252551705
 20
415.599145426208
 30
0.0
 11
904.5315250946366
 21
415.5534842517597
 31
0.0
  0
LINE
  5
726
330
22
100
AcDbEntity
  8
_2-7_ビス
  6
Continuous
 62
     7
100
AcDbLine
 10
904.5315250946366
 20
415.5534842517597
 30
0.0
 11
904.6179435091245
 21
415.5209786831665
 31
0.0
  0
LINE
  5
727
330
22
100
AcDbEntity
  8
_2-7_ビス
  6
Continuous
 62
     7
100
AcDbLine
 10
904.6179435091245
 20
415.5209786831665
 30
0.0
 11
904.7092547188405
 21
415.5026163856815
 31
0.0
  0
LINE
  5
728
330
22
100
AcDbEntity
  8
_2-7_ビス
  6
Continuous
 62
     7
100
AcDbLine
 10
904.7092547188405
 20
415.5026163856815
 30
0.0
 11
904.8026842788832
 21
415.4989552884218
 31
0.0
  0
LINE
  5
729
330
22
100
AcDbEntity
  8
_2-7_ビス
  6
Continuous
 62
     7
100
AcDbLine
 10
904.8026842788832
 20
415.4989552884218
 30
0.0
 11
904.8953933793475
 21
415.5101066319753
 31
0.0
  0
LINE
  5
72A
330
22
100
AcDbEntity
  8
_2-7_ビス
  6
Continuous
 62
     7
100
AcDbLine
 10
904.8953933793475
 20
415.5101066319753
 30
0.0
 11
904.9845651011297
 21
415.5357315884108
 31
0.0
  0
LINE
  5
72B
330
22
100
AcDbEntity
  8
_2-7_ビス
  6
Continuous
 62
     7
100
AcDbLine
 10
904.9845651011297
 20
415.5357315884108
 30
0.0
 11
905.0674900065864
 21
415.5750515563941
 31
0.0
  0
LINE
  5
72C
330
22
100
AcDbEntity
  8
_2-7_ビス
  6
Continuous
 62
     7
100
AcDbLine
 10
905.0674900065864
 20
415.5750515563941
 30
0.0
 11
905.1416484644271
 21
415.6268718185946
 31
0.0
  0
LINE
  5
72D
330
22
100
AcDbEntity
  8
_2-7_ビス
  6
Continuous
 62
     7
100
AcDbLine
 10
905.1416484644271
 20
415.6268718185946
 30
0.0
 11
905.2047872074359
 21
415.6896178425678
 31
0.0
  0
LINE
  5
72E
330
22
100
AcDbEntity
  8
_2-7_ビス
  6
Continuous
 62
     7
100
AcDbLine
 10
905.2047872074359
 20
415.6896178425678
 30
0.0
 11
905.2549877968566
 21
415.7613831221262
 31
0.0
  0
LINE
  5
72F
330
22
100
AcDbEntity
  8
_2-7_ビス
  6
Continuous
 62
     7
100
AcDbLine
 10
905.2549877968566
 20
415.7613831221262
 30
0.0
 11
905.2907249131827
 21
415.8399871055657
 31
0.0
  0
LINE
  5
730
330
22
100
AcDbEntity
  8
_2-7_ビス
  6
Continuous
 62
     7
100
AcDbLine
 10
905.2907249131827
 20
415.8399871055657
 30
0.0
 11
905.3109127022182
 21
415.9230414506246
 31
0.0
  0
LINE
  5
731
330
22
100
AcDbEntity
  8
_2-7_ビス
  6
Continuous
 62
     7
100
AcDbLine
 10
905.3109127022182
 20
415.9230414506246
 30
0.0
 11
905.3149377682091
 21
415.9648879837876
 31
0.0
  0
LINE
  5
732
330
22
100
AcDbEntity
  8
_2-7_ビス
  6
Continuous
 62
     7
100
AcDbLine
 10
912.076341272809
 20
415.9648879837876
 30
0.0
 11
912.076341272809
 21
415.9648879837876
 31
0.0
  0
LINE
  5
733
330
22
100
AcDbEntity
  8
_2-7_ビス
  6
Continuous
 62
     7
100
AcDbLine
 10
912.076341272809
 20
415.9648879837876
 30
0.0
 11
912.0886012294567
 21
415.8805621529937
 31
0.0
  0
LINE
  5
734
330
22
100
AcDbEntity
  8
_2-7_ビス
  6
Continuous
 62
     7
100
AcDbLine
 10
912.0886012294567
 20
415.8805621529937
 30
0.0
 11
912.1167736961639
 21
415.7994538315354
 31
0.0
  0
LINE
  5
735
330
22
100
AcDbEntity
  8
_2-7_ビス
  6
Continuous
 62
     7
100
AcDbLine
 10
912.1167736961639
 20
415.7994538315354
 30
0.0
 11
912.1600026667854
 21
415.7240274547174
 31
0.0
  0
LINE
  5
736
330
22
100
AcDbEntity
  8
_2-7_ビス
  6
Continuous
 62
     7
100
AcDbLine
 10
912.1600026667854
 20
415.7240274547174
 30
0.0
 11
912.2169746509241
 21
415.6565748148314
 31
0.0
  0
LINE
  5
737
330
22
100
AcDbEntity
  8
_2-7_ビス
  6
Continuous
 62
     7
100
AcDbLine
 10
912.2169746509241
 20
415.6565748148314
 30
0.0
 11
912.2859585836705
 21
415.599145426208
 31
0.0
  0
LINE
  5
738
330
22
100
AcDbEntity
  8
_2-7_ビス
  6
Continuous
 62
     7
100
AcDbLine
 10
912.2859585836705
 20
415.599145426208
 30
0.0
 11
912.3648584231364
 21
415.5534842517597
 31
0.0
  0
LINE
  5
739
330
22
100
AcDbEntity
  8
_2-7_ビス
  6
Continuous
 62
     7
100
AcDbLine
 10
912.3648584231364
 20
415.5534842517597
 30
0.0
 11
912.4512768376249
 21
415.5209786831665
 31
0.0
  0
LINE
  5
73A
330
22
100
AcDbEntity
  8
_2-7_ビス
  6
Continuous
 62
     7
100
AcDbLine
 10
912.4512768376249
 20
415.5209786831665
 30
0.0
 11
912.5425880473407
 21
415.5026163856815
 31
0.0
  0
LINE
  5
73B
330
22
100
AcDbEntity
  8
_2-7_ビス
  6
Continuous
 62
     7
100
AcDbLine
 10
912.5425880473407
 20
415.5026163856815
 30
0.0
 11
912.6360176073832
 21
415.4989552884218
 31
0.0
  0
LINE
  5
73C
330
22
100
AcDbEntity
  8
_2-7_ビス
  6
Continuous
 62
     7
100
AcDbLine
 10
912.6360176073832
 20
415.4989552884218
 30
0.0
 11
912.7287267078481
 21
415.5101066319753
 31
0.0
  0
LINE
  5
73D
330
22
100
AcDbEntity
  8
_2-7_ビス
  6
Continuous
 62
     7
100
AcDbLine
 10
912.7287267078481
 20
415.5101066319753
 30
0.0
 11
912.8178984296301
 21
415.5357315884108
 31
0.0
  0
LINE
  5
73E
330
22
100
AcDbEntity
  8
_2-7_ビス
  6
Continuous
 62
     7
100
AcDbLine
 10
912.8178984296301
 20
415.5357315884108
 30
0.0
 11
912.9008233350862
 21
415.5750515563941
 31
0.0
  0
LINE
  5
73F
330
22
100
AcDbEntity
  8
_2-7_ビス
  6
Continuous
 62
     7
100
AcDbLine
 10
912.9008233350862
 20
415.5750515563941
 30
0.0
 11
912.9749817929269
 21
415.6268718185946
 31
0.0
  0
LINE
  5
740
330
22
100
AcDbEntity
  8
_2-7_ビス
  6
Continuous
 62
     7
100
AcDbLine
 10
912.9749817929269
 20
415.6268718185946
 30
0.0
 11
913.0381205359359
 21
415.6896178425678
 31
0.0
  0
LINE
  5
741
330
22
100
AcDbEntity
  8
_2-7_ビス
  6
Continuous
 62
     7
100
AcDbLine
 10
913.0381205359359
 20
415.6896178425678
 30
0.0
 11
913.0883211253568
 21
415.7613831221262
 31
0.0
  0
LINE
  5
742
330
22
100
AcDbEntity
  8
_2-7_ビス
  6
Continuous
 62
     7
100
AcDbLine
 10
913.0883211253568
 20
415.7613831221262
 30
0.0
 11
913.1240582416833
 21
415.8399871055657
 31
0.0
  0
LINE
  5
743
330
22
100
AcDbEntity
  8
_2-7_ビス
  6
Continuous
 62
     7
100
AcDbLine
 10
913.1240582416833
 20
415.8399871055657
 30
0.0
 11
913.1442460307184
 21
415.9230414506246
 31
0.0
  0
LINE
  5
744
330
22
100
AcDbEntity
  8
_2-7_ビス
  6
Continuous
 62
     7
100
AcDbLine
 10
913.1442460307184
 20
415.9230414506246
 30
0.0
 11
913.1482710967093
 21
415.9648879837876
 31
0.0
  0
LINE
  5
745
330
22
100
AcDbEntity
  8
_2-7_ビス
  6
Continuous
 62
     7
100
AcDbLine
 10
893.6886219859085
 20
415.5893958398979
 30
0.0
 11
893.6886219859085
 21
415.5893958398979
 31
0.0
  0
LINE
  5
746
330
22
100
AcDbEntity
  8
_2-7_ビス
  6
Continuous
 62
     7
100
AcDbLine
 10
893.6886219859085
 20
415.5893958398979
 30
0.0
 11
893.8278776078236
 21
415.5947997643243
 31
0.0
  0
LINE
  5
747
330
22
100
AcDbEntity
  8
_2-7_ビス
  6
Continuous
 62
     7
100
AcDbLine
 10
893.8278776078236
 20
415.5947997643243
 30
0.0
 11
893.9639859529064
 21
415.6221164523437
 31
0.0
  0
LINE
  5
748
330
22
100
AcDbEntity
  8
_2-7_ビス
  6
Continuous
 62
     7
100
AcDbLine
 10
893.9639859529064
 20
415.6221164523437
 30
0.0
 11
894.0184465471086
 21
415.639671172986
 31
0.0
  0
LINE
  5
749
330
22
100
AcDbEntity
  8
_2-7_ビス
  6
Continuous
 62
     7
100
AcDbLine
 10
891.6892945283562
 20
414.4984902337884
 30
0.0
 11
891.6892945283562
 21
414.4984902337884
 31
0.0
  0
LINE
  5
74A
330
22
100
AcDbEntity
  8
_2-7_ビス
  6
Continuous
 62
     7
100
AcDbLine
 10
891.6892945283562
 20
414.4984902337884
 30
0.0
 11
891.7451347229
 21
414.5013120586212
 31
0.0
  0
LINE
  5
74B
330
22
100
AcDbEntity
  8
_2-7_ビス
  6
Continuous
 62
     7
100
AcDbLine
 10
891.7451347229
 20
414.5013120586212
 30
0.0
 11
891.7995878607555
 21
414.51291074611
 31
0.0
  0
LINE
  5
74C
330
22
100
AcDbEntity
  8
_2-7_ビス
  6
Continuous
 62
     7
100
AcDbLine
 10
891.7995878607555
 20
414.51291074611
 30
0.0
 11
891.8509994108839
 21
414.5329338760047
 31
0.0
  0
LINE
  5
74D
330
22
100
AcDbEntity
  8
_2-7_ビス
  6
Continuous
 62
     7
100
AcDbLine
 10
891.8509994108839
 20
414.5329338760047
 30
0.0
 11
891.8978072593491
 21
414.5607730556356
 31
0.0
  0
LINE
  5
74E
330
22
100
AcDbEntity
  8
_2-7_ビス
  6
Continuous
 62
     7
100
AcDbLine
 10
891.8978072593491
 20
414.5607730556356
 30
0.0
 11
891.9385891733618
 21
414.595582405617
 31
0.0
  0
LINE
  5
74F
330
22
100
AcDbEntity
  8
_2-7_ビス
  6
Continuous
 62
     7
100
AcDbLine
 10
891.9385891733618
 20
414.595582405617
 30
0.0
 11
891.9721060151017
 21
414.6363042614641
 31
0.0
  0
LINE
  5
750
330
22
100
AcDbEntity
  8
_2-7_ビス
  6
Continuous
 62
     7
100
AcDbLine
 10
891.9721060151017
 20
414.6363042614641
 30
0.0
 11
891.9973393922926
 21
414.6817013101931
 31
0.0
  0
LINE
  5
751
330
22
100
AcDbEntity
  8
_2-7_ビス
  6
Continuous
 62
     7
100
AcDbLine
 10
891.9973393922926
 20
414.6817013101931
 30
0.0
 11
892.0135226015373
 21
414.7303941854505
 31
0.0
  0
LINE
  5
752
330
22
100
AcDbEntity
  8
_2-7_ビス
  6
Continuous
 62
     7
100
AcDbLine
 10
892.0135226015373
 20
414.7303941854505
 30
0.0
 11
892.0201639242119
 21
414.7809033788616
 31
0.0
  0
LINE
  5
753
330
22
100
AcDbEntity
  8
_2-7_ビス
  6
Continuous
 62
     7
100
AcDbLine
 10
892.0201639242119
 20
414.7809033788616
 30
0.0
 11
892.0170615670878
 21
414.8316941941431
 31
0.0
  0
LINE
  5
754
330
22
100
AcDbEntity
  8
_2-7_ビス
  6
Continuous
 62
     7
100
AcDbLine
 10
892.0170615670878
 20
414.8316941941431
 30
0.0
 11
892.004309793716
 21
414.8812233780741
 31
0.0
  0
LINE
  5
755
330
22
100
AcDbEntity
  8
_2-7_ビス
  6
Continuous
 62
     7
100
AcDbLine
 10
892.004309793716
 20
414.8812233780741
 30
0.0
 11
891.9822960602781
 21
414.9279860114641
 31
0.0
  0
LINE
  5
756
330
22
100
AcDbEntity
  8
_2-7_ビス
  6
Continuous
 62
     7
100
AcDbLine
 10
891.9822960602781
 20
414.9279860114641
 30
0.0
 11
891.951689242925
 21
414.9705612353605
 31
0.0
  0
LINE
  5
757
330
22
100
AcDbEntity
  8
_2-7_ビス
  6
Continuous
 62
     7
100
AcDbLine
 10
891.951689242925
 20
414.9705612353605
 30
0.0
 11
891.9134193143138
 21
415.0076554231291
 31
0.0
  0
LINE
  5
758
330
22
100
AcDbEntity
  8
_2-7_ビス
  6
Continuous
 62
     7
100
AcDbLine
 10
891.9134193143138
 20
415.0076554231291
 30
0.0
 11
891.8686490868607
 21
415.0381414866452
 31
0.0
  0
LINE
  5
759
330
22
100
AcDbEntity
  8
_2-7_ビス
  6
Continuous
 62
     7
100
AcDbLine
 10
891.8686490868607
 20
415.0381414866452
 30
0.0
 11
891.8187388812711
 21
415.0610931222959
 31
0.0
  0
LINE
  5
75A
330
22
100
AcDbEntity
  8
_2-7_ビス
  6
Continuous
 62
     7
100
AcDbLine
 10
891.8187388812711
 20
415.0610931222959
 30
0.0
 11
891.7652051938867
 21
415.0758129562454
 31
0.0
  0
LINE
  5
75B
330
22
100
AcDbEntity
  8
_2-7_ビス
  6
Continuous
 62
     7
100
AcDbLine
 10
891.7652051938867
 20
415.0758129562454
 30
0.0
 11
891.7096746187089
 21
415.0818537337883
 31
0.0
  0
LINE
  5
75C
330
22
100
AcDbEntity
  8
_2-7_ビス
  6
Continuous
 62
     7
100
AcDbLine
 10
891.7096746187089
 20
415.0818537337883
 30
0.0
 11
891.7096746187088
 21
415.0818537337883
 31
0.0
  0
LINE
  5
75D
330
22
100
AcDbEntity
  8
_F-7_
  6
Continuous
 62
     1
100
AcDbLine
 10
627.1979888417706
 20
727.1393234736942
 30
0.0
 11
1427.19798884177
 21
727.1393234736942
 31
0.0
  0
ENDSEC
  0
SECTION
  2
OBJECTS
  0
DICTIONARY
  5
C
330
0
100
AcDbDictionary
281
     1
  3
ACAD_COLOR
350
1B
  3
ACAD_GROUP
350
D
  3
ACAD_LAYOUT
350
19
  3
ACAD_MATERIAL
350
1A
  3
ACAD_MLINESTYLE
350
16
  3
ACAD_PLOTSETTINGS
350
18
  3
ACAD_PLOTSTYLENAME
350
E
  3
ACAD_TABLESTYLE
350
1C
  3
ACDBHEADERROUNDTRIPXREC
350
765
  3
AcDbVariableDictionary
350
760
  0
DICTIONARY
  5
1B
102
{ACAD_REACTORS
330
C
102
}
330
C
100
AcDbDictionary
281
     1
  0
DICTIONARY
  5
D
102
{ACAD_REACTORS
330
C
102
}
330
C
100
AcDbDictionary
281
     1
  0
DICTIONARY
  5
19
102
{ACAD_REACTORS
330
C
102
}
330
C
100
AcDbDictionary
281
     1
  3
Model
350
25
  3
レイアウト1
350
21
  0
DICTIONARY
  5
1A
102
{ACAD_REACTORS
330
C
102
}
330
C
100
AcDbDictionary
281
     1
  0
DICTIONARY
  5
16
102
{ACAD_REACTORS
330
C
102
}
330
C
100
AcDbDictionary
281
     1
  3
Standard
350
17
  0
DICTIONARY
  5
18
102
{ACAD_REACTORS
330
C
102
}
330
C
100
AcDbDictionary
281
     1
  0
ACDBDICTIONARYWDFLT
  5
E
102
{ACAD_REACTORS
330
C
102
}
330
C
100
AcDbDictionary
281
     1
  3
Normal
350
F
100
AcDbDictionaryWithDefault
340
F
  0
DICTIONARY
  5
1C
102
{ACAD_REACTORS
330
C
102
}
330
C
100
AcDbDictionary
281
     1
  3
Standard
350
1D
  0
DICTIONARY
  5
765
102
{ACAD_REACTORS
330
C
102
}
330
C
100
AcDbDictionary
281
     1
  0
DICTIONARY
  5
760
102
{ACAD_REACTORS
330
C
102
}
330
C
100
AcDbDictionary
281
     1
  3
CTABLESTYLE
350
761
  3
DIMASSOC
350
762
  3
PROJECTNAME
350
763
  0
LAYOUT
  5
25
102
{ACAD_XDICTIONARY
360
768
102
}
102
{ACAD_REACTORS
330
19
102
}
330
19
100
AcDbPlotSettings
  1

  2
PC1665
  4

  6

 40
0.0
 41
0.0
 42
0.0
 43
0.0
 44
0.0
 45
0.0
 46
0.0
 47
0.0
 48
0.0
 49
0.0
140
0.0
141
0.0
142
1.0
143
1.0
 70
  1712
 72
     0
 73
     0
 74
     0
  7

 75
     0
147
1.0
148
0.0
149
0.0
100
AcDbLayout
  1
Model
 70
     1
 71
     0
 10
0.0
 20
0.0
 11
12.0
 21
9.0
 12
0.0
 22
0.0
 32
0.0
 14
0.0
 24
0.0
 34
0.0
 15
0.0
 25
0.0
 35
0.0
146
0.0
 13
0.0
 23
0.0
 33
0.0
 16
1.0
 26
0.0
 36
0.0
 17
0.0
 27
1.0
 37
0.0
 76
     0
330
22
  0
LAYOUT
  5
21
102
{ACAD_XDICTIONARY
360
766
102
}
102
{ACAD_REACTORS
330
19
102
}
330
19
100
AcDbPlotSettings
  1

  2
PC1665
  4

  6

 40
0.0
 41
0.0
 42
0.0
 43
0.0
 44
0.0
 45
0.0
 46
0.0
 47
0.0
 48
0.0
 49
0.0
140
0.0
141
0.0
142
1.0
143
1.0
 70
   688
 72
     0
 73
     0
 74
     5
  7

 75
    16
147
1.0
148
0.0
149
0.0
100
AcDbLayout
  1
レイアウト1
 70
     1
 71
     1
 10
0.0
 20
0.0
 11
12.0
 21
9.0
 12
0.0
 22
0.0
 32
0.0
 14
1.000000000000000E+20
 24
1.000000000000000E+20
 34
1.000000000000000E+20
 15
-1.000000000000000E+20
 25
-1.000000000000000E+20
 35
-1.000000000000000E+20
146
0.0
 13
0.0
 23
0.0
 33
0.0
 16
1.0
 26
0.0
 36
0.0
 17
0.0
 27
1.0
 37
0.0
 76
     0
330
1E
  0
MLINESTYLE
  5
17
102
{ACAD_REACTORS
330
16
102
}
330
16
100
AcDbMlineStyle
  2
STANDARD
 70
     0
  3

 62
   256
 51
90.0
 52
90.0
 71
     2
 49
0.5
 62
   256
  6
BYLAYER
 49
-0.5
 62
   256
  6
BYLAYER
  0
ACDBPLACEHOLDER
  5
F
102
{ACAD_REACTORS
330
E
102
}
330
E
  0
TABLESTYLE
  5
1D
102
{ACAD_REACTORS
330
1C
102
}
330
1C
100
AcDbTableStyle
  3
Standard
 70
     0
 71
     0
 40
0.06
 41
0.06
280
     0
281
     0
  7
STANDARD
140
0.18
170
     2
 62
     0
 63
     7
283
     0
274
    -2
284
     1
 64
     0
275
    -2
285
     1
 65
     0
276
    -2
286
     1
 66
     0
277
    -2
287
     1
 67
     0
278
    -2
288
     1
 68
     0
279
    -2
289
     1
 69
     0
  7
STANDARD
140
0.25
170
     5
 62
     0
 63
     7
283
     0
274
    -2
284
     1
 64
     0
275
    -2
285
     1
 65
     0
276
    -2
286
     1
 66
     0
277
    -2
287
     1
 67
     0
278
    -2
288
     1
 68
     0
279
    -2
289
     1
 69
     0
  7
STANDARD
140
0.18
170
     5
 62
     0
 63
     7
283
     0
274
    -2
284
     1
 64
     0
275
    -2
285
     1
 65
     0
276
    -2
286
     1
 66
     0
277
    -2
287
     1
 67
     0
278
    -2
288
     1
 68
     0
279
    -2
289
     1
 69
     0
  0
DICTIONARYVAR
  5
761
102
{ACAD_REACTORS
330
760
102
}
330
760
100
DictionaryVariables
280
     0
  1
STANDARD
  0
DICTIONARYVAR
  5
762
102
{ACAD_REACTORS
330
760
102
}
330
760
100
DictionaryVariables
280
     0
  1
1
  0
DICTIONARYVAR
  5
763
102
{ACAD_REACTORS
330
760
102
}
330
760
100
DictionaryVariables
280
     0
  1

  0
DICTIONARY
  5
768
330
25
100
AcDbDictionary
280
     1
281
     1
  3
ACAD_XREC_ROUNDTRIP
360
769
  0
DICTIONARY
  5
766
330
21
100
AcDbDictionary
280
     1
281
     1
  3
ACAD_XREC_ROUNDTRIP
360
767
  0
XRECORD
  5
769
102
{ACAD_REACTORS
330
768
102
}
330
768
100
AcDbXrecord
280
     1
102
SHADEPLOT
 70
     0
102
SHADEPLOTRESLEVEL
 70
     2
102
SHADEPLOTCUSTOMDPI
 70
   300
  0
XRECORD
  5
767
102
{ACAD_REACTORS
330
766
102
}
330
766
100
AcDbXrecord
280
     1
102
SHADEPLOT
 70
     0
102
SHADEPLOTRESLEVEL
 70
     2
102
SHADEPLOTCUSTOMDPI
 70
   300
  0
ENDSEC
  0
EOF
