  0
SECTION
  2
HEADER
  9
$ACADVER
  1
AC1015
  9
$ACADMAINTVER
 70
    20
  9
$DWGCODEPAGE
  3
ANSI_932
  9
$INSBASE
 10
0.0
 20
0.0
 30
0.0
  9
$EXTMIN
 10
528.8131768917819
 20
14.45663799584872
 30
-0.0015258207003583
  9
$EXTMAX
 10
1529.049686841957
 20
1444.598468376321
 30
0.0000000349246037
  9
$LIMMIN
 10
0.0
 20
0.0
  9
$LIMMAX
 10
2100.0
 20
1485.0
  9
$ORTHOMODE
 70
     0
  9
$REGENMODE
 70
     1
  9
$FILLMODE
 70
     1
  9
$QTEXTMODE
 70
     0
  9
$MIRRTEXT
 70
     0
  9
$LTSCALE
 40
5.0
  9
$ATTMODE
 70
     1
  9
$TEXTSIZE
 40
0.2
  9
$TRACEWID
 40
0.05
  9
$TEXTSTYLE
  7
STANDARD
  9
$CLAYER
  8
0
  9
$CELTYPE
  6
CONTINUOUS
  9
$CECOLOR
 62
   256
  9
$CELTSCALE
 40
1.0
  9
$DISPSILH
 70
     0
  9
$DIMSCALE
 40
1.0
  9
$DIMASZ
 40
0.18
  9
$DIMEXO
 40
0.0625
  9
$DIMDLI
 40
0.38
  9
$DIMRND
 40
0.0
  9
$DIMDLE
 40
0.0
  9
$DIMEXE
 40
0.18
  9
$DIMTP
 40
0.0
  9
$DIMTM
 40
0.0
  9
$DIMTXT
 40
0.18
  9
$DIMCEN
 40
0.09
  9
$DIMTSZ
 40
0.0
  9
$DIMTOL
 70
     0
  9
$DIMLIM
 70
     0
  9
$DIMTIH
 70
     1
  9
$DIMTOH
 70
     1
  9
$DIMSE1
 70
     0
  9
$DIMSE2
 70
     0
  9
$DIMTAD
 70
     0
  9
$DIMZIN
 70
     0
  9
$DIMBLK
  1

  9
$DIMASO
 70
     1
  9
$DIMSHO
 70
     1
  9
$DIMPOST
  1

  9
$DIMAPOST
  1

  9
$DIMALT
 70
     0
  9
$DIMALTD
 70
     2
  9
$DIMALTF
 40
25.4
  9
$DIMLFAC
 40
1.0
  9
$DIMTOFL
 70
     0
  9
$DIMTVP
 40
0.0
  9
$DIMTIX
 70
     0
  9
$DIMSOXD
 70
     0
  9
$DIMSAH
 70
     0
  9
$DIMBLK1
  1

  9
$DIMBLK2
  1

  9
$DIMSTYLE
  2
Standard
  9
$DIMCLRD
 70
     0
  9
$DIMCLRE
 70
     0
  9
$DIMCLRT
 70
     0
  9
$DIMTFAC
 40
1.0
  9
$DIMGAP
 40
0.09
  9
$DIMJUST
 70
     0
  9
$DIMSD1
 70
     0
  9
$DIMSD2
 70
     0
  9
$DIMTOLJ
 70
     1
  9
$DIMTZIN
 70
     0
  9
$DIMALTZ
 70
     0
  9
$DIMALTTZ
 70
     0
  9
$DIMUPT
 70
     0
  9
$DIMDEC
 70
     4
  9
$DIMTDEC
 70
     4
  9
$DIMALTU
 70
     2
  9
$DIMALTTD
 70
     2
  9
$DIMTXSTY
  7
STANDARD
  9
$DIMAUNIT
 70
     0
  9
$DIMADEC
 70
     0
  9
$DIMALTRND
 40
0.0
  9
$DIMAZIN
 70
     0
  9
$DIMDSEP
 70
    46
  9
$DIMATFIT
 70
     3
  9
$DIMFRAC
 70
     0
  9
$DIMLDRBLK
  1

  9
$DIMLUNIT
 70
     2
  9
$DIMLWD
 70
    -2
  9
$DIMLWE
 70
    -2
  9
$DIMTMOVE
 70
     0
  9
$LUNITS
 70
     2
  9
$LUPREC
 70
     4
  9
$SKETCHINC
 40
0.1
  9
$FILLETRAD
 40
0.0
  9
$AUNITS
 70
     0
  9
$AUPREC
 70
     0
  9
$MENU
  1
.
  9
$ELEVATION
 40
0.0
  9
$PELEVATION
 40
0.0
  9
$THICKNESS
 40
0.0
  9
$LIMCHECK
 70
     0
  9
$CHAMFERA
 40
0.0
  9
$CHAMFERB
 40
0.0
  9
$CHAMFERC
 40
0.0
  9
$CHAMFERD
 40
0.0
  9
$SKPOLY
 70
     0
  9
$TDCREATE
 40
2454846.609663843
  9
$TDUCREATE
 40
2454846.234663843
  9
$TDUPDATE
 40
2454846.610154468
  9
$TDUUPDATE
 40
2454846.235154468
  9
$TDINDWG
 40
0.0004927894
  9
$TDUSRTIMER
 40
0.0004927894
  9
$USRTIMER
 70
     1
  9
$ANGBASE
 50
0.0
  9
$ANGDIR
 70
     0
  9
$PDMODE
 70
     0
  9
$PDSIZE
 40
0.0
  9
$PLINEWID
 40
0.0
  9
$SPLFRAME
 70
     0
  9
$SPLINETYPE
 70
     6
  9
$SPLINESEGS
 70
     8
  9
$HANDSEED
  5
43A
  9
$SURFTAB1
 70
     6
  9
$SURFTAB2
 70
     6
  9
$SURFTYPE
 70
     6
  9
$SURFU
 70
     6
  9
$SURFV
 70
     6
  9
$UCSBASE
  2

  9
$UCSNAME
  2

  9
$UCSORG
 10
0.0
 20
0.0
 30
0.0
  9
$UCSXDIR
 10
1.0
 20
0.0
 30
0.0
  9
$UCSYDIR
 10
0.0
 20
1.0
 30
0.0
  9
$UCSORTHOREF
  2

  9
$UCSORTHOVIEW
 70
     0
  9
$UCSORGTOP
 10
0.0
 20
0.0
 30
0.0
  9
$UCSORGBOTTOM
 10
0.0
 20
0.0
 30
0.0
  9
$UCSORGLEFT
 10
0.0
 20
0.0
 30
0.0
  9
$UCSORGRIGHT
 10
0.0
 20
0.0
 30
0.0
  9
$UCSORGFRONT
 10
0.0
 20
0.0
 30
0.0
  9
$UCSORGBACK
 10
0.0
 20
0.0
 30
0.0
  9
$PUCSBASE
  2

  9
$PUCSNAME
  2

  9
$PUCSORG
 10
0.0
 20
0.0
 30
0.0
  9
$PUCSXDIR
 10
1.0
 20
0.0
 30
0.0
  9
$PUCSYDIR
 10
0.0
 20
1.0
 30
0.0
  9
$PUCSORTHOREF
  2

  9
$PUCSORTHOVIEW
 70
     0
  9
$PUCSORGTOP
 10
0.0
 20
0.0
 30
0.0
  9
$PUCSORGBOTTOM
 10
0.0
 20
0.0
 30
0.0
  9
$PUCSORGLEFT
 10
0.0
 20
0.0
 30
0.0
  9
$PUCSORGRIGHT
 10
0.0
 20
0.0
 30
0.0
  9
$PUCSORGFRONT
 10
0.0
 20
0.0
 30
0.0
  9
$PUCSORGBACK
 10
0.0
 20
0.0
 30
0.0
  9
$USERI1
 70
     0
  9
$USERI2
 70
     0
  9
$USERI3
 70
     0
  9
$USERI4
 70
     0
  9
$USERI5
 70
     0
  9
$USERR1
 40
0.0
  9
$USERR2
 40
0.0
  9
$USERR3
 40
0.0
  9
$USERR4
 40
0.0
  9
$USERR5
 40
0.0
  9
$WORLDVIEW
 70
     1
  9
$SHADEDGE
 70
     3
  9
$SHADEDIF
 70
    70
  9
$TILEMODE
 70
     1
  9
$MAXACTVP
 70
    64
  9
$PINSBASE
 10
0.0
 20
0.0
 30
0.0
  9
$PLIMCHECK
 70
     0
  9
$PEXTMIN
 10
1.000000000000000E+20
 20
1.000000000000000E+20
 30
1.000000000000000E+20
  9
$PEXTMAX
 10
-1.000000000000000E+20
 20
-1.000000000000000E+20
 30
-1.000000000000000E+20
  9
$PLIMMIN
 10
0.0
 20
0.0
  9
$PLIMMAX
 10
12.0
 20
9.0
  9
$UNITMODE
 70
     0
  9
$VISRETAIN
 70
     1
  9
$PLINEGEN
 70
     0
  9
$PSLTSCALE
 70
     1
  9
$TREEDEPTH
 70
  3020
  9
$CMLSTYLE
  2
Standard
  9
$CMLJUST
 70
     0
  9
$CMLSCALE
 40
1.0
  9
$PROXYGRAPHICS
 70
     1
  9
$MEASUREMENT
 70
     0
  9
$CELWEIGHT
370
    -1
  9
$ENDCAPS
280
     0
  9
$JOINSTYLE
280
     0
  9
$LWDISPLAY
290
     0
  9
$INSUNITS
 70
     0
  9
$HYPERLINKBASE
  1

  9
$STYLESHEET
  1

  9
$XEDIT
290
     1
  9
$CEPSNTYPE
380
     0
  9
$PSTYLEMODE
290
     1
  9
$FINGERPRINTGUID
  2
{7D32262A-600B-458C-AA20-4DCACF90A888}
  9
$VERSIONGUID
  2
{ACB0E0EE-A27D-4B0D-BCF7-65FA33E632A2}
  9
$EXTNAMES
290
     1
  9
$PSVPSCALE
 40
0.0
  9
$OLESTARTUP
290
     0
  0
ENDSEC
  0
SECTION
  2
CLASSES
  0
CLASS
  1
ACDBDICTIONARYWDFLT
  2
AcDbDictionaryWithDefault
  3
ObjectDBX Classes
 90
        0
280
     0
281
     0
  0
CLASS
  1
TABLESTYLE
  2
AcDbTableStyle
  3
ObjectDBX Classes
 90
     2047
280
     0
281
     0
  0
CLASS
  1
DICTIONARYVAR
  2
AcDbDictionaryVar
  3
ObjectDBX Classes
 90
        0
280
     0
281
     0
  0
CLASS
  1
ACDBPLACEHOLDER
  2
AcDbPlaceHolder
  3
ObjectDBX Classes
 90
        0
280
     0
281
     0
  0
CLASS
  1
LAYOUT
  2
AcDbLayout
  3
ObjectDBX Classes
 90
        0
280
     0
281
     0
  0
ENDSEC
  0
SECTION
  2
TABLES
  0
TABLE
  2
VPORT
  5
8
330
0
100
AcDbSymbolTable
 70
     2
  0
VPORT
  5
434
330
8
100
AcDbSymbolTableRecord
100
AcDbViewportTableRecord
  2
*Active
 70
     0
 10
0.0
 20
0.0
 11
1.0
 21
1.0
 12
1028.931431866869
 22
729.5275531860853
 13
0.0
 23
0.0
 14
1.0
 24
1.0
 15
0.0
 25
0.0
 16
0.0
 26
0.0
 36
1.0
 17
0.0
 27
0.0
 37
0.0
 40
1443.123450625984
 41
2.069696969696969
 42
50.0
 43
0.0
 44
0.0
 50
0.0
 51
0.0
 71
     0
 72
   100
 73
     1
 74
     1
 75
     0
 76
     0
 77
     0
 78
     0
281
     0
 65
     1
110
0.0
120
0.0
130
0.0
111
1.0
121
0.0
131
0.0
112
0.0
122
1.0
132
0.0
 79
     0
146
0.0
  0
ENDTAB
  0
TABLE
  2
LTYPE
  5
5
330
0
100
AcDbSymbolTable
 70
    35
  0
LTYPE
  5
13
330
5
100
AcDbSymbolTableRecord
100
AcDbLinetypeTableRecord
  2
ByBlock
 70
     0
  3

 72
    65
 73
     0
 40
0.0
  0
LTYPE
  5
14
330
5
100
AcDbSymbolTableRecord
100
AcDbLinetypeTableRecord
  2
ByLayer
 70
     0
  3

 72
    65
 73
     0
 40
0.0
  0
LTYPE
  5
15
330
5
100
AcDbSymbolTableRecord
100
AcDbLinetypeTableRecord
  2
CONTINUOUS
 70
     0
  3
実線
 72
    65
 73
     0
 40
0.0
  0
LTYPE
  5
26
330
5
100
AcDbSymbolTableRecord
100
AcDbLinetypeTableRecord
  2
DASHED1
 70
     0
  3
--  --  --  --  --  --  --  --  
 72
    65
 73
     2
 40
2.5
 49
1.25
 74
     0
 49
-1.25
 74
     0
  0
LTYPE
  5
27
330
5
100
AcDbSymbolTableRecord
100
AcDbLinetypeTableRecord
  2
DASHED2
 70
     0
  3
----    ----    ----    ----    
 72
    65
 73
     2
 40
5.0
 49
2.5
 74
     0
 49
-2.5
 74
     0
  0
LTYPE
  5
28
330
5
100
AcDbSymbolTableRecord
100
AcDbLinetypeTableRecord
  2
DASHED3
 70
     0
  3
------  ------  ------  ------  
 72
    65
 73
     2
 40
5.0
 49
3.75
 74
     0
 49
-1.25
 74
     0
  0
LTYPE
  5
29
330
5
100
AcDbSymbolTableRecord
100
AcDbLinetypeTableRecord
  2
CENTER1
 70
     0
  3
----- - ----- - ----- - ----- - 
 72
    65
 73
     4
 40
10.0
 49
6.25
 74
     0
 49
-1.25
 74
     0
 49
1.25
 74
     0
 49
-1.25
 74
     0
  0
LTYPE
  5
2A
330
5
100
AcDbSymbolTableRecord
100
AcDbLinetypeTableRecord
  2
CENTER2
 70
     0
  3
----------  --  ----------  --  
 72
    65
 73
     4
 40
20.0
 49
12.5
 74
     0
 49
-2.5
 74
     0
 49
2.5
 74
     0
 49
-2.5
 74
     0
  0
LTYPE
  5
2B
330
5
100
AcDbSymbolTableRecord
100
AcDbLinetypeTableRecord
  2
PHANTOM1
 70
     0
  3
--- - - --- - - --- - - --- - - 
 72
    65
 73
     6
 40
10.0
 49
3.25
 74
     0
 49
-1.25
 74
     0
 49
1.25
 74
     0
 49
-1.25
 74
     0
 49
1.25
 74
     0
 49
-1.25
 74
     0
  0
LTYPE
  5
2C
330
5
100
AcDbSymbolTableRecord
100
AcDbLinetypeTableRecord
  2
PHANTOM2
 70
     0
  3
--------  -  -  --------  -  -  
 72
    65
 73
     6
 40
20.0
 49
10.0
 74
     0
 49
-2.5
 74
     0
 49
1.25
 74
     0
 49
-2.5
 74
     0
 49
1.25
 74
     0
 49
-2.5
 74
     0
  0
LTYPE
  5
2D
330
5
100
AcDbSymbolTableRecord
100
AcDbLinetypeTableRecord
  2
DOT
 70
     0
  3
-   -   -   -   -   -   -   -   
 72
    65
 73
     2
 40
2.5
 49
0.625
 74
     0
 49
-1.875
 74
     0
  0
LTYPE
  5
2E
330
5
100
AcDbSymbolTableRecord
100
AcDbLinetypeTableRecord
  2
DUMMY
 70
     0
  3
ダミー
 72
    65
 73
     0
 40
0.0
  0
LTYPE
  5
2F
330
5
100
AcDbSymbolTableRecord
100
AcDbLinetypeTableRecord
  2
RAND1
 70
     0
  3
ランダム線1
 72
    65
 73
     4
 40
10.0
 49
1.0
 74
     0
 49
-2.0
 74
     0
 49
3.0
 74
     0
 49
-4.0
 74
     0
  0
LTYPE
  5
30
330
5
100
AcDbSymbolTableRecord
100
AcDbLinetypeTableRecord
  2
RAND2
 70
     0
  3
ランダム線2
 72
    65
 73
     4
 40
14.0
 49
2.0
 74
     0
 49
-3.0
 74
     0
 49
4.0
 74
     0
 49
-5.0
 74
     0
  0
LTYPE
  5
31
330
5
100
AcDbSymbolTableRecord
100
AcDbLinetypeTableRecord
  2
RAND3
 70
     0
  3
ランダム線3
 72
    65
 73
     4
 40
18.0
 49
3.0
 74
     0
 49
-4.0
 74
     0
 49
5.0
 74
     0
 49
-6.0
 74
     0
  0
LTYPE
  5
32
330
5
100
AcDbSymbolTableRecord
100
AcDbLinetypeTableRecord
  2
RAND4
 70
     0
  3
ランダム線4
 72
    65
 73
     4
 40
22.0
 49
4.0
 74
     0
 49
-5.0
 74
     0
 49
6.0
 74
     0
 49
-7.0
 74
     0
  0
LTYPE
  5
33
330
5
100
AcDbSymbolTableRecord
100
AcDbLinetypeTableRecord
  2
RAND5
 70
     0
  3
ランダム線5
 72
    65
 73
     4
 40
26.0
 49
5.0
 74
     0
 49
-6.0
 74
     0
 49
7.0
 74
     0
 49
-8.0
 74
     0
  0
LTYPE
  5
34
330
5
100
AcDbSymbolTableRecord
100
AcDbLinetypeTableRecord
  2
LONG1
 70
     0
  3
----------  --  ----------  --  
 72
    65
 73
     4
 40
40.0
 49
32.5
 74
     0
 49
-2.5
 74
     0
 49
2.5
 74
     0
 49
-2.5
 74
     0
  0
LTYPE
  5
35
330
5
100
AcDbSymbolTableRecord
100
AcDbLinetypeTableRecord
  2
LONG2
 70
     0
  3
--------  -  -  --------  -  -  
 72
    65
 73
     6
 40
40.0
 49
30.0
 74
     0
 49
-2.5
 74
     0
 49
1.25
 74
     0
 49
-2.5
 74
     0
 49
1.25
 74
     0
 49
-2.5
 74
     0
  0
LTYPE
  5
36
330
5
100
AcDbSymbolTableRecord
100
AcDbLinetypeTableRecord
  2
LONG3
 70
     0
  3
+++++++++++++++..+++++++++++++++
 72
    65
 73
     2
 40
40.0
 49
37.5
 74
     0
 49
-2.5
 74
     0
  0
LTYPE
  5
37
330
5
100
AcDbSymbolTableRecord
100
AcDbLinetypeTableRecord
  2
LONG4
 70
     0
  3
+++++++++++++++..+++++++++++++++
 72
    65
 73
     2
 40
80.0
 49
75.0
 74
     0
 49
-5.0
 74
     0
  0
LTYPE
  5
38
330
5
100
AcDbSymbolTableRecord
100
AcDbLinetypeTableRecord
  2
LONG5
 70
     0
  3
----------  --  ----------  --  
 72
    65
 73
     4
 40
60.0
 49
37.5
 74
     0
 49
-7.5
 74
     0
 49
7.5
 74
     0
 49
-7.5
 74
     0
  0
LTYPE
  5
39
330
5
100
AcDbSymbolTableRecord
100
AcDbLinetypeTableRecord
  2
DASHED
 70
     0
  3
-------   -------------   ------
 72
    65
 73
     2
 40
7.5
 49
6.0
 74
     0
 49
-1.5
 74
     0
  0
LTYPE
  5
3A
330
5
100
AcDbSymbolTableRecord
100
AcDbLinetypeTableRecord
  2
DASHED_SPACED
 70
     0
  3
----        --------        ----
 72
    65
 73
     2
 40
12.0
 49
6.0
 74
     0
 49
-6.0
 74
     0
  0
LTYPE
  5
3B
330
5
100
AcDbSymbolTableRecord
100
AcDbLinetypeTableRecord
  2
LONG_DASHED_DOTTED
 70
     0
  3
------------- --- --------------
 72
    65
 73
     4
 40
15.25
 49
12.0
 74
     0
 49
-1.5
 74
     0
 49
0.25
 74
     0
 49
-1.5
 74
     0
  0
LTYPE
  5
3C
330
5
100
AcDbSymbolTableRecord
100
AcDbLinetypeTableRecord
  2
LONG_DASHED_DOUBLE-DOTTED
 70
     0
  3
----------- --- --- ------------
 72
    65
 73
     6
 40
17.0
 49
12.0
 74
     0
 49
-1.5
 74
     0
 49
0.25
 74
     0
 49
-1.5
 74
     0
 49
0.25
 74
     0
 49
-1.5
 74
     0
  0
LTYPE
  5
3D
330
5
100
AcDbSymbolTableRecord
100
AcDbLinetypeTableRecord
  2
LONG_DASHED_TRIPLICATE-DOTTED
 70
     0
  3
--------- --- --- --- ----------
 72
    65
 73
     8
 40
18.75
 49
12.0
 74
     0
 49
-1.5
 74
     0
 49
0.25
 74
     0
 49
-1.5
 74
     0
 49
0.25
 74
     0
 49
-1.5
 74
     0
 49
0.25
 74
     0
 49
-1.5
 74
     0
  0
LTYPE
  5
3E
330
5
100
AcDbSymbolTableRecord
100
AcDbLinetypeTableRecord
  2
DOTTED
 70
     0
  3
   -       -       -       -    
 72
    65
 73
     2
 40
1.75
 49
0.25
 74
     0
 49
-1.5
 74
     0
  0
LTYPE
  5
3F
330
5
100
AcDbSymbolTableRecord
100
AcDbLinetypeTableRecord
  2
CHAIN
 70
     0
  3
-------------- -- --------------
 72
    65
 73
     4
 40
18.5
 49
12.0
 74
     0
 49
-1.5
 74
     0
 49
3.5
 74
     0
 49
-1.5
 74
     0
  0
LTYPE
  5
40
330
5
100
AcDbSymbolTableRecord
100
AcDbLinetypeTableRecord
  2
CHAIN_DOUBLE_DASH
 70
     0
  3
------------ -- -- -------------
 72
    65
 73
     6
 40
23.5
 49
12.0
 74
     0
 49
-1.5
 74
     0
 49
3.5
 74
     0
 49
-1.5
 74
     0
 49
3.5
 74
     0
 49
-1.5
 74
     0
  0
LTYPE
  5
41
330
5
100
AcDbSymbolTableRecord
100
AcDbLinetypeTableRecord
  2
DASHED_DOTTED
 70
     0
  3
-----------     -     ----------
 72
    65
 73
     4
 40
9.25
 49
6.0
 74
     0
 49
-1.5
 74
     0
 49
0.25
 74
     0
 49
-1.5
 74
     0
  0
LTYPE
  5
42
330
5
100
AcDbSymbolTableRecord
100
AcDbLinetypeTableRecord
  2
DOUBLE-DASHED_DOTTED
 70
     0
  3
------   -----------   -   -----
 72
    65
 73
     6
 40
16.75
 49
6.0
 74
     0
 49
-1.5
 74
     0
 49
6.0
 74
     0
 49
-1.5
 74
     0
 49
0.25
 74
     0
 49
-1.5
 74
     0
  0
LTYPE
  5
43
330
5
100
AcDbSymbolTableRecord
100
AcDbLinetypeTableRecord
  2
DASHED_DOUBLE-DOTTED
 70
     0
  3
---------    -    -    ---------
 72
    65
 73
     6
 40
11.0
 49
6.0
 74
     0
 49
-1.5
 74
     0
 49
0.25
 74
     0
 49
-1.5
 74
     0
 49
0.25
 74
     0
 49
-1.5
 74
     0
  0
LTYPE
  5
44
330
5
100
AcDbSymbolTableRecord
100
AcDbLinetypeTableRecord
  2
DOUBLE-DASHED_DOUBLE-DOTTED
 70
     0
  3
-----   ---------   -   -   ----
 72
    65
 73
     8
 40
18.5
 49
6.0
 74
     0
 49
-1.5
 74
     0
 49
6.0
 74
     0
 49
-1.5
 74
     0
 49
0.25
 74
     0
 49
-1.5
 74
     0
 49
0.25
 74
     0
 49
-1.5
 74
     0
  0
LTYPE
  5
45
330
5
100
AcDbSymbolTableRecord
100
AcDbLinetypeTableRecord
  2
DASHED_TRIPLICATE-DOTTED
 70
     0
  3
-------    -    -    -    ------
 72
    65
 73
     8
 40
12.75
 49
6.0
 74
     0
 49
-1.5
 74
     0
 49
0.25
 74
     0
 49
-1.5
 74
     0
 49
0.25
 74
     0
 49
-1.5
 74
     0
 49
0.25
 74
     0
 49
-1.5
 74
     0
  0
LTYPE
  5
46
330
5
100
AcDbSymbolTableRecord
100
AcDbLinetypeTableRecord
  2
DOUBLE-DASHED_TRIPLICATE-DOTTED
 70
     0
  3
-----  ---------  -  -  -  -----
 72
    65
 73
    10
 40
20.25
 49
6.0
 74
     0
 49
-1.5
 74
     0
 49
6.0
 74
     0
 49
-1.5
 74
     0
 49
0.25
 74
     0
 49
-1.5
 74
     0
 49
0.25
 74
     0
 49
-1.5
 74
     0
 49
0.25
 74
     0
 49
-1.5
 74
     0
  0
LTYPE
  5
47
330
5
100
AcDbSymbolTableRecord
100
AcDbLinetypeTableRecord
  2
UNDEFINED
 70
     0
  3
--------------------------------
 72
    65
 73
     0
 40
0.0
  0
ENDTAB
  0
TABLE
  2
LAYER
  5
2
330
0
100
AcDbSymbolTable
 70
    16
  0
LAYER
  5
10
330
2
100
AcDbSymbolTableRecord
100
AcDbLayerTableRecord
  2
0
 70
     0
 62
     7
  6
CONTINUOUS
370
    -3
390
F
  0
LAYER
  5
49
330
2
100
AcDbSymbolTableRecord
100
AcDbLayerTableRecord
  2
_2-2_IN_LINE
 70
     0
 62
     7
  6
CONTINUOUS
370
    -3
390
F
  0
LAYER
  5
4A
330
2
100
AcDbSymbolTableRecord
100
AcDbLayerTableRecord
  2
_2-3_
 70
     0
 62
     7
  6
CONTINUOUS
370
    -3
390
F
  0
LAYER
  5
4B
330
2
100
AcDbSymbolTableRecord
100
AcDbLayerTableRecord
  2
_2-4_OUT_LINE
 70
     0
 62
     7
  6
CONTINUOUS
370
    -3
390
F
  0
LAYER
  5
4C
330
2
100
AcDbSymbolTableRecord
100
AcDbLayerTableRecord
  2
_2-6_鋼板__アングル
 70
     0
 62
     7
  6
CONTINUOUS
370
    -3
390
F
  0
LAYER
  5
4D
330
2
100
AcDbSymbolTableRecord
100
AcDbLayerTableRecord
  2
_2-7_ビス
 70
     0
 62
     7
  6
CONTINUOUS
370
    -3
390
F
  0
LAYER
  5
4E
330
2
100
AcDbSymbolTableRecord
100
AcDbLayerTableRecord
  2
_2-A_MOJI
 70
     0
 62
     7
  6
CONTINUOUS
370
    -3
390
F
  0
LAYER
  5
4F
330
2
100
AcDbSymbolTableRecord
100
AcDbLayerTableRecord
  2
_2-B_DIM
 70
     0
 62
     7
  6
CONTINUOUS
370
    -3
390
F
  0
LAYER
  5
50
330
2
100
AcDbSymbolTableRecord
100
AcDbLayerTableRecord
  2
_2-D_ハッチ他
 70
     0
 62
     7
  6
CONTINUOUS
370
    -3
390
F
  0
LAYER
  5
51
330
2
100
AcDbSymbolTableRecord
100
AcDbLayerTableRecord
  2
_2-E_CON他
 70
     0
 62
     7
  6
CONTINUOUS
370
    -3
390
F
  0
LAYER
  5
52
330
2
100
AcDbSymbolTableRecord
100
AcDbLayerTableRecord
  2
_F-2_
 70
     0
 62
     7
  6
CONTINUOUS
370
    -3
390
F
  0
LAYER
  5
53
330
2
100
AcDbSymbolTableRecord
100
AcDbLayerTableRecord
  2
_F-5_
 70
     0
 62
     7
  6
CONTINUOUS
370
    -3
390
F
  0
LAYER
  5
54
330
2
100
AcDbSymbolTableRecord
100
AcDbLayerTableRecord
  2
_F-7_
 70
     0
 62
     7
  6
CONTINUOUS
370
    -3
390
F
  0
LAYER
  5
55
330
2
100
AcDbSymbolTableRecord
100
AcDbLayerTableRecord
  2
_F-8_
 70
     0
 62
     7
  6
CONTINUOUS
370
    -3
390
F
  0
LAYER
  5
56
330
2
100
AcDbSymbolTableRecord
100
AcDbLayerTableRecord
  2
_F-A_
 70
     0
 62
     7
  6
CONTINUOUS
370
    -3
390
F
  0
LAYER
  5
57
330
2
100
AcDbSymbolTableRecord
100
AcDbLayerTableRecord
  2
ADD_LINE
 70
     0
 62
     7
  6
CONTINUOUS
370
    -3
390
F
  0
ENDTAB
  0
TABLE
  2
STYLE
  5
3
330
0
100
AcDbSymbolTable
 70
     2
  0
STYLE
  5
11
330
3
100
AcDbSymbolTableRecord
100
AcDbTextStyleTableRecord
  2
STANDARD
 70
     0
 40
0.0
 41
1.0
 50
0.0
 71
     0
 42
0.2
  3
txt
  4
bigfont.shx
  0
STYLE
  5
48
330
3
100
AcDbSymbolTableRecord
100
AcDbTextStyleTableRecord
  2
TATEGAKI
 70
     4
 40
0.0
 41
1.0
 50
0.0
 71
     0
 42
1.0
  3
txt
  4
bigfont.shx
  0
ENDTAB
  0
TABLE
  2
VIEW
  5
6
330
0
100
AcDbSymbolTable
 70
     0
  0
ENDTAB
  0
TABLE
  2
UCS
  5
7
330
0
100
AcDbSymbolTable
 70
     0
  0
ENDTAB
  0
TABLE
  2
APPID
  5
9
330
0
100
AcDbSymbolTable
 70
     1
  0
APPID
  5
12
330
9
100
AcDbSymbolTableRecord
100
AcDbRegAppTableRecord
  2
ACAD
 70
     0
  0
ENDTAB
  0
TABLE
  2
DIMSTYLE
  5
A
330
0
100
AcDbSymbolTable
 70
     1
100
AcDbDimStyleTable
 71
     0
  0
DIMSTYLE
105
42E
330
A
100
AcDbSymbolTableRecord
100
AcDbDimStyleTableRecord
  2
Standard
 70
     0
340
11
  0
ENDTAB
  0
TABLE
  2
BLOCK_RECORD
  5
1
330
0
100
AcDbSymbolTable
 70
     0
  0
BLOCK_RECORD
  5
22
330
1
100
AcDbSymbolTableRecord
100
AcDbBlockTableRecord
  2
*Model_Space
340
25
  0
BLOCK_RECORD
  5
1E
330
1
100
AcDbSymbolTableRecord
100
AcDbBlockTableRecord
  2
*Paper_Space
340
21
  0
ENDTAB
  0
ENDSEC
  0
SECTION
  2
BLOCKS
  0
BLOCK
  5
23
330
22
100
AcDbEntity
  8
0
100
AcDbBlockBegin
  2
*Model_Space
 70
     0
 10
0.0
 20
0.0
 30
0.0
  3
*Model_Space
  1

  0
ENDBLK
  5
24
330
22
100
AcDbEntity
  8
0
100
AcDbBlockEnd
  0
BLOCK
  5
1F
330
1E
100
AcDbEntity
 67
     1
  8
0
100
AcDbBlockBegin
  2
*Paper_Space
 70
     0
 10
0.0
 20
0.0
 30
0.0
  3
*Paper_Space
  1

  0
ENDBLK
  5
20
330
1E
100
AcDbEntity
 67
     1
  8
0
100
AcDbBlockEnd
  0
ENDSEC
  0
SECTION
  2
ENTITIES
  0
LINE
  5
5B
330
22
100
AcDbEntity
  8
ADD_LINE
  6
DOT
 62
   136
100
AcDbLine
 10
1528.914094916031
 20
14.56031342097787
 30
0.0
 11
528.9140949160289
 21
14.56031342097787
 31
0.0
  0
LINE
  5
5C
330
22
100
AcDbEntity
  8
ADD_LINE
  6
DOT
 62
   136
100
AcDbLine
 10
1528.914094916031
 20
1444.560313420978
 30
0.0
 11
1528.914094916031
 21
14.56031342097787
 31
0.0
  0
LINE
  5
5D
330
22
100
AcDbEntity
  8
ADD_LINE
  6
DOT
 62
   136
100
AcDbLine
 10
528.9140949160311
 20
1444.560313420978
 30
0.0
 11
1528.914094916031
 21
1444.560313420978
 31
0.0
  0
LINE
  5
5E
330
22
100
AcDbEntity
  8
ADD_LINE
  6
DOT
 62
   136
100
AcDbLine
 10
528.9140949160311
 20
1444.560313420978
 30
0.0
 11
528.9140949160311
 21
14.56031342097787
 31
0.0
  0
LINE
  5
5F
330
22
100
AcDbEntity
  8
ADD_LINE
  6
DOT
 62
   136
100
AcDbLine
 10
628.9140949160323
 20
774.5603134209756
 30
0.0
 11
1428.914094916032
 21
774.5603134209756
 31
0.0
  0
LINE
  5
60
330
22
100
AcDbEntity
  8
ADD_LINE
  6
DOT
 62
   136
100
AcDbLine
 10
648.9140949160323
 20
794.5603134209756
 30
0.0
 11
648.9140949160323
 21
754.5603134209756
 31
0.0
  0
LINE
  5
61
330
22
100
AcDbEntity
  8
ADD_LINE
  6
DOT
 62
   136
100
AcDbLine
 10
933.9140949160324
 20
794.5603134209756
 30
0.0
 11
933.9140949160324
 21
754.5603134209756
 31
0.0
  0
LINE
  5
62
330
22
100
AcDbEntity
  8
ADD_LINE
  6
DOT
 62
   136
100
AcDbLine
 10
783.9140949160324
 20
794.5603134209756
 30
0.0
 11
783.9140949160324
 21
754.5603134209756
 31
0.0
  0
LINE
  5
63
330
22
100
AcDbEntity
  8
ADD_LINE
  6
DOT
 62
   136
100
AcDbLine
 10
1313.914094916033
 20
794.5603134209756
 30
0.0
 11
1313.914094916033
 21
754.5603134209756
 31
0.0
  0
LINE
  5
64
330
22
100
AcDbEntity
  8
ADD_LINE
  6
DOT
 62
   136
100
AcDbLine
 10
1208.914094916032
 20
794.5603134209756
 30
0.0
 11
1208.914094916032
 21
754.5603134209756
 31
0.0
  0
LINE
  5
65
330
22
100
AcDbEntity
  8
_F-7_
  6
Continuous
 62
     1
100
AcDbLine
 10
628.9140949160323
 20
754.5603134209756
 30
0.0
 11
1428.914094916032
 21
754.5603134209756
 31
0.0
  0
LINE
  5
66
330
22
100
AcDbEntity
  8
_F-5_
  6
Continuous
 62
     6
100
AcDbLine
 10
628.9140949160323
 20
794.5603134209756
 30
0.0
 11
1428.914094916032
 21
794.5603134209756
 31
0.0
  0
LINE
  5
67
330
22
100
AcDbEntity
  8
_F-2_
  6
Continuous
 62
     7
100
AcDbLine
 10
918.9140949160323
 20
794.5603134209756
 30
0.0
 11
918.9140949160323
 21
754.5603134209756
 31
0.0
  0
TEXT
  5
68
330
22
100
AcDbEntity
  8
_F-A_
 62
     7
100
AcDbText
 10
648.9140949160323
 20
764.5603134209756
 30
0.0
 40
20.0
  1
１１０仕様
100
AcDbText
  0
LINE
  5
69
330
22
100
AcDbEntity
  8
_F-5_
  6
Continuous
 62
     6
100
AcDbLine
 10
768.9140949160323
 20
794.5603134209756
 30
0.0
 11
768.9140949160323
 21
754.5603134209756
 31
0.0
  0
LINE
  5
6A
330
22
100
AcDbEntity
  8
_F-7_
  6
Continuous
 62
     1
100
AcDbLine
 10
1428.914094916032
 20
1344.560313420975
 30
0.0
 11
1428.914094916032
 21
754.5603134209756
 31
0.0
  0
LINE
  5
6B
330
22
100
AcDbEntity
  8
_F-7_
  6
Continuous
 62
     1
100
AcDbLine
 10
628.9140949160323
 20
1344.560313420975
 30
0.0
 11
1428.914094916032
 21
1344.560313420975
 31
0.0
  0
LINE
  5
6C
330
22
100
AcDbEntity
  8
_F-7_
  6
Continuous
 62
     1
100
AcDbLine
 10
628.9140949160323
 20
1344.560313420975
 30
0.0
 11
628.9140949160323
 21
754.5603134209756
 31
0.0
  0
TEXT
  5
6D
330
22
100
AcDbEntity
  8
_F-A_
 62
     7
100
AcDbText
 10
783.9140949160324
 20
764.5603134209756
 30
0.0
 40
17.5
  1
下地：ＲＣ
100
AcDbText
  0
TEXT
  5
6E
330
22
100
AcDbEntity
  8
_F-A_
 62
     7
100
AcDbText
 10
933.9140949160324
 20
764.5603134209756
 30
0.0
 40
17.5
  1
部位：側溝
100
AcDbText
  0
LINE
  5
6F
330
22
100
AcDbEntity
  8
_F-2_
  6
Continuous
 62
     7
100
AcDbLine
 10
1298.914094916032
 20
794.5603134209756
 30
0.0
 11
1298.914094916032
 21
754.5603134209756
 31
0.0
  0
LINE
  5
70
330
22
100
AcDbEntity
  8
_F-2_
  6
Continuous
 62
     7
100
AcDbLine
 10
1193.914094916032
 20
794.5603134209756
 30
0.0
 11
1193.914094916032
 21
754.5603134209756
 31
0.0
  0
TEXT
  5
71
330
22
100
AcDbEntity
  8
_F-A_
 62
     7
100
AcDbText
 10
1313.914094916033
 20
764.5603134209756
 30
0.0
 40
15.0
  1
図番
100
AcDbText
  0
TEXT
  5
72
330
22
100
AcDbEntity
  8
_F-A_
 62
     7
100
AcDbText
 10
1208.914094916032
 20
764.5603134209756
 30
0.0
 40
15.0
  1
Ｓ＝１：５
100
AcDbText
  0
TEXT
  5
73
330
22
100
AcDbEntity
  8
_F-A_
 62
     7
100
AcDbText
 10
1360.331763640139
 20
764.5603134209732
 30
0.0
 40
15.0
  1
１－２５
100
AcDbText
  0
ARC
  5
74
330
22
100
AcDbEntity
  8
_2-4_OUT_LINE
  6
Continuous
 62
     2
100
AcDbCircle
 10
822.2344677688639
 20
1024.400773828091
 30
0.0
 40
3.0
100
AcDbArc
 50
180.0
 51
270.0
  0
LINE
  5
75
330
22
100
AcDbEntity
  8
_2-4_OUT_LINE
  6
Continuous
 62
     2
100
AcDbLine
 10
822.2344677688639
 20
1021.400773828093
 30
0.0
 11
872.2344677688639
 21
1021.400773828093
 31
0.0
  0
LINE
  5
76
330
22
100
AcDbEntity
  8
_2-4_OUT_LINE
  6
Continuous
 62
     2
100
AcDbLine
 10
872.2344677688639
 20
1021.400773828093
 30
0.0
 11
872.2344677688639
 21
1016.400773828093
 31
0.0
  0
POINT
  5
77
330
22
100
AcDbEntity
  8
_2-B_DIM
 62
     1
100
AcDbPoint
 10
872.2344677688639
 20
971.6202900213993
 30
0.0
  0
LINE
  5
78
330
22
100
AcDbEntity
  8
_2-B_DIM
  6
Continuous
 62
     7
100
AcDbLine
 10
872.2344677688639
 20
1000.695120744233
 30
0.0
 11
872.2344677688639
 21
971.6202900213993
 31
0.0
  0
POINT
  5
79
330
22
100
AcDbEntity
  8
_2-B_DIM
 62
     1
100
AcDbPoint
 10
819.2344677688645
 20
971.6202900213993
 30
0.0
  0
LINE
  5
7A
330
22
100
AcDbEntity
  8
_2-B_DIM
  6
Continuous
 62
     7
100
AcDbLine
 10
819.2344677688645
 20
1000.695120744233
 30
0.0
 11
819.2344677688645
 21
971.6202900213993
 31
0.0
  0
LINE
  5
7B
330
22
100
AcDbEntity
  8
_2-B_DIM
  6
Continuous
 62
     7
100
AcDbLine
 10
819.2344677688645
 20
971.6202900213993
 30
0.0
 11
872.2344677688639
 21
971.6202900213993
 31
0.0
  0
ARC
  5
7C
330
22
100
AcDbEntity
  8
_2-4_OUT_LINE
  6
Continuous
 62
     2
100
AcDbCircle
 10
804.2344677688644
 20
1251.400773828093
 30
0.0
 40
15.0
100
AcDbArc
 50
0.0
 51
90.00000000000003
  0
LINE
  5
7D
330
22
100
AcDbEntity
  8
_2-4_OUT_LINE
  6
Continuous
 62
     2
100
AcDbLine
 10
804.2344677688644
 20
1266.400773828094
 30
0.0
 11
723.7761344355308
 21
1266.400773828094
 31
0.0
  0
LINE
  5
7E
330
22
100
AcDbEntity
  8
_2-4_OUT_LINE
  6
Continuous
 62
     2
100
AcDbLine
 10
819.2344677688645
 20
1024.400773828091
 30
0.0
 11
819.2344677688645
 21
1251.400773828093
 31
0.0
  0
TEXT
  5
7F
330
22
100
AcDbEntity
  8
_2-A_MOJI
 62
     7
100
AcDbText
 10
1255.93468405623
 20
1217.127398795785
 30
0.0
 40
15.0
  1
塩ビシート 接着工法
100
AcDbText
  0
LINE
  5
80
330
22
100
AcDbEntity
  8
_2-A_MOJI
  6
Continuous
 62
     7
100
AcDbLine
 10
1245.93468405623
 20
1224.627398795785
 30
0.0
 11
1224.909701333389
 21
1224.627398795785
 31
0.0
  0
LINE
  5
81
330
22
100
AcDbEntity
  8
_2-A_MOJI
  6
Continuous
 62
     7
100
AcDbLine
 10
1191.292543734288
 20
1166.400773828093
 30
0.0
 11
1224.909701333389
 21
1224.627398795785
 31
0.0
  0
TEXT
  5
82
330
22
100
AcDbEntity
  8
_2-A_MOJI
 62
     7
100
AcDbText
 10
1055.254430447827
 20
813.2554177849401
 30
0.0
 40
15.0
  1
※１：側溝の幅・深さによって、接合位置は調整する。
100
AcDbText
  0
ARC
  5
83
330
22
100
AcDbEntity
  8
_2-4_OUT_LINE
  6
Continuous
 62
     2
100
AcDbCircle
 10
1156.234467768864
 20
1024.400773828091
 30
0.0
 40
3.0
100
AcDbArc
 50
270.0
 51
0.0
  0
LINE
  5
84
330
22
100
AcDbEntity
  8
_2-4_OUT_LINE
  6
Continuous
 62
     2
100
AcDbLine
 10
872.2344677688639
 20
1016.400773828093
 30
0.0
 11
1106.234467768865
 21
1016.400773828093
 31
0.0
  0
LINE
  5
85
330
22
100
AcDbEntity
  8
_2-4_OUT_LINE
  6
Continuous
 62
     2
100
AcDbLine
 10
1106.234467768865
 20
1021.400773828093
 30
0.0
 11
1106.234467768865
 21
1016.400773828093
 31
0.0
  0
LINE
  5
86
330
22
100
AcDbEntity
  8
_2-4_OUT_LINE
  6
Continuous
 62
     2
100
AcDbLine
 10
1156.234467768864
 20
1021.400773828093
 30
0.0
 11
1106.234467768865
 21
1021.400773828093
 31
0.0
  0
LINE
  5
87
330
22
100
AcDbEntity
  8
_2-4_OUT_LINE
  6
Continuous
 62
     2
100
AcDbLine
 10
664.2344677688644
 20
861.4007738280935
 30
0.0
 11
1164.234467768864
 21
861.4007738280935
 31
0.0
  0
POINT
  5
88
330
22
100
AcDbEntity
  8
_2-B_DIM
 62
     1
100
AcDbPoint
 10
1106.234467768865
 20
971.6202900213993
 30
0.0
  0
LINE
  5
89
330
22
100
AcDbEntity
  8
_2-B_DIM
  6
Continuous
 62
     7
100
AcDbLine
 10
1106.234467768865
 20
1000.695120744233
 30
0.0
 11
1106.234467768865
 21
971.6202900213993
 31
0.0
  0
LINE
  5
8A
330
22
100
AcDbEntity
  8
_2-3_
  6
Continuous
 62
     3
100
AcDbLine
 10
1314.234467768864
 20
961.4007738280935
 30
0.0
 11
1403.914094916032
 21
961.4007738280935
 31
0.0
  0
POINT
  5
8B
330
22
100
AcDbEntity
  8
_2-B_DIM
 62
     1
100
AcDbPoint
 10
1159.234467768864
 20
971.6202900213993
 30
0.0
  0
LINE
  5
8C
330
22
100
AcDbEntity
  8
_2-B_DIM
  6
Continuous
 62
     7
100
AcDbLine
 10
1159.234467768864
 20
1000.695120744233
 30
0.0
 11
1159.234467768864
 21
971.6202900213993
 31
0.0
  0
LINE
  5
8D
330
22
100
AcDbEntity
  8
_2-B_DIM
  6
Continuous
 62
     7
100
AcDbLine
 10
1106.234467768865
 20
971.6202900213993
 30
0.0
 11
1159.234467768864
 21
971.6202900213993
 31
0.0
  0
LINE
  5
8E
330
22
100
AcDbEntity
  8
_2-4_OUT_LINE
  6
Continuous
 62
     2
100
AcDbLine
 10
1159.234467768864
 20
1024.400773828091
 30
0.0
 11
1159.234467768864
 21
1153.400773828094
 31
0.0
  0
LINE
  5
8F
330
22
100
AcDbEntity
  8
_2-4_OUT_LINE
  6
Continuous
 62
     2
100
AcDbLine
 10
1171.913925568148
 20
1166.400773828093
 30
0.0
 11
1403.914094916032
 21
1166.400773828093
 31
0.0
  0
LINE
  5
90
330
22
100
AcDbEntity
  8
_2-4_OUT_LINE
  6
Continuous
 62
     2
100
AcDbLine
 10
1164.234467768864
 20
861.4007738280935
 30
0.0
 11
1164.234467768864
 21
840.4805436245357
 31
0.0
  0
LINE
  5
91
330
22
100
AcDbEntity
  8
_2-3_
  6
Continuous
 62
     3
100
AcDbLine
 10
1314.234467768864
 20
961.4007738280935
 30
0.0
 11
1314.234467768864
 21
840.4805436245357
 31
0.0
  0
ARC
  5
92
330
22
100
AcDbEntity
  8
_2-4_OUT_LINE
  6
Continuous
 62
     2
100
AcDbCircle
 10
1172.234467768864
 20
1153.400773828094
 30
0.0
 40
13.0
100
AcDbArc
 50
90.0
 51
180.0
  0
TEXT
  5
93
330
22
100
AcDbEntity
  8
_2-A_MOJI
 62
     7
100
AcDbText
 10
1042.386938109058
 20
1059.874582564196
 30
0.0
 40
15.0
  1
※１
100
AcDbText
  0
LINE
  5
94
330
22
100
AcDbEntity
  8
_2-A_MOJI
  6
Continuous
 62
     7
100
AcDbLine
 10
1082.386938109058
 20
1067.374582564196
 30
0.0
 11
1104.691476919403
 21
1067.374582564196
 31
0.0
  0
LINE
  5
95
330
22
100
AcDbEntity
  8
_2-A_MOJI
  6
Continuous
 62
     7
100
AcDbLine
 10
1131.234467768865
 20
1021.400773828093
 30
0.0
 11
1104.691476919403
 21
1067.374582564196
 31
0.0
  0
LINE
  5
96
330
22
100
AcDbEntity
  8
_2-A_MOJI
  6
Continuous
 62
     7
100
AcDbLine
 10
819.2344677688645
 20
1124.860263000142
 30
0.0
 11
858.2138783433256
 21
1192.374582564196
 31
0.0
  0
TEXT
  5
97
330
22
100
AcDbEntity
  8
_2-A_MOJI
 62
     7
100
AcDbText
 10
998.5059781668079
 20
1142.127398795785
 30
0.0
 40
15.0
  1
プルーフシーラー
100
AcDbText
  0
TEXT
  5
98
330
22
100
AcDbEntity
  8
_2-A_MOJI
 62
     7
100
AcDbText
 10
998.5059781668079
 20
1117.127398795785
 30
0.0
 40
15.0
  1
塩ビシート 接着工法
100
AcDbText
  0
LINE
  5
99
330
22
100
AcDbEntity
  8
_2-A_MOJI
  6
Continuous
 62
     7
100
AcDbLine
 10
895.0885504695103
 20
1016.400773828093
 30
0.0
 11
957.5732215280904
 21
1124.627398795785
 31
0.0
  0
LINE
  5
9A
330
22
100
AcDbEntity
  8
_2-A_MOJI
  6
Continuous
 62
     7
100
AcDbLine
 10
988.5059781668077
 20
1124.627398795785
 30
0.0
 11
957.5732215280904
 21
1124.627398795785
 31
0.0
  0
LINE
  5
9B
330
22
100
AcDbEntity
  8
_2-A_MOJI
  6
Continuous
 62
     7
100
AcDbLine
 10
988.5059781668077
 20
1149.627398795785
 30
0.0
 11
944.7891456325432
 21
1149.627398795785
 31
0.0
  0
LINE
  5
9C
330
22
100
AcDbEntity
  8
_2-A_MOJI
  6
Continuous
 62
     7
100
AcDbLine
 10
872.8288743831958
 20
1024.98855286547
 30
0.0
 11
944.7891456325432
 21
1149.627398795785
 31
0.0
  0
TEXT
  5
9D
330
22
100
AcDbEntity
  8
_2-A_MOJI
 62
     7
100
AcDbText
 10
895.0276358173267
 20
1184.874582564196
 30
0.0
 40
15.0
  1
塩ビシート 接着工法
100
AcDbText
  0
LINE
  5
9E
330
22
100
AcDbEntity
  8
_2-A_MOJI
  6
Continuous
 62
     7
100
AcDbLine
 10
885.0276358173267
 20
1192.374582564196
 30
0.0
 11
858.2138783433256
 21
1192.374582564196
 31
0.0
  0
LINE
  5
9F
330
22
100
AcDbEntity
  8
_2-E_CON他
  6
Continuous
 62
     4
100
AcDbLine
 10
767.2464194028805
 20
861.4007738280935
 30
0.0
 11
917.2464194028785
 21
1011.400773828093
 31
0.0
  0
LINE
  5
A0
330
22
100
AcDbEntity
  8
_2-E_CON他
  6
Continuous
 62
     4
100
AcDbLine
 10
781.3885550266119
 20
861.4007738280935
 30
0.0
 11
931.3885550266096
 21
1011.400773828093
 31
0.0
  0
LINE
  5
A1
330
22
100
AcDbEntity
  8
_2-E_CON他
  6
Continuous
 62
     4
100
AcDbLine
 10
774.3174872147473
 20
861.4007738280935
 30
0.0
 11
924.317487214745
 21
1011.400773828093
 31
0.0
  0
LINE
  5
A2
330
22
100
AcDbEntity
  8
_2-E_CON他
  6
Continuous
 62
     4
100
AcDbLine
 10
981.3885550266119
 20
861.4007738280935
 30
0.0
 11
1131.388555026609
 21
1011.400773828093
 31
0.0
  0
LINE
  5
A3
330
22
100
AcDbEntity
  8
_2-E_CON他
  6
Continuous
 62
     4
100
AcDbLine
 10
967.2464194028806
 20
861.4007738280935
 30
0.0
 11
1117.246419402881
 21
1011.400773828093
 31
0.0
  0
LINE
  5
A4
330
22
100
AcDbEntity
  8
_2-E_CON他
  6
Continuous
 62
     4
100
AcDbLine
 10
974.3174872147474
 20
861.4007738280935
 30
0.0
 11
1124.317487214745
 21
1011.400773828093
 31
0.0
  0
LINE
  5
A5
330
22
100
AcDbEntity
  8
_2-E_CON他
  6
Continuous
 62
     4
100
AcDbLine
 10
664.2344677688644
 20
1158.388822194077
 30
0.0
 11
767.2464194028805
 21
1261.400773828093
 31
0.0
  0
LINE
  5
A6
330
22
100
AcDbEntity
  8
_2-E_CON他
  6
Continuous
 62
     4
100
AcDbLine
 10
664.2344677688644
 20
1144.246686570346
 30
0.0
 11
781.3885550266119
 21
1261.400773828093
 31
0.0
  0
LINE
  5
A7
330
22
100
AcDbEntity
  8
_2-E_CON他
  6
Continuous
 62
     4
100
AcDbLine
 10
664.2344677688644
 20
1151.31775438221
 30
0.0
 11
774.3174872147473
 21
1261.400773828093
 31
0.0
  0
LINE
  5
A8
330
22
100
AcDbEntity
  8
_2-E_CON他
  6
Continuous
 62
     4
100
AcDbLine
 10
664.2344677688644
 20
958.3888221940771
 30
0.0
 11
814.2344677688644
 21
1108.388822194077
 31
0.0
  0
LINE
  5
A9
330
22
100
AcDbEntity
  8
_2-E_CON他
  6
Continuous
 62
     4
100
AcDbLine
 10
664.2344677688644
 20
944.2466865703458
 30
0.0
 11
814.2344677688644
 21
1094.246686570346
 31
0.0
  0
LINE
  5
AA
330
22
100
AcDbEntity
  8
_2-E_CON他
  6
Continuous
 62
     4
100
AcDbLine
 10
664.2344677688644
 20
951.3177543822104
 30
0.0
 11
814.2344677688644
 21
1101.31775438221
 31
0.0
  0
LINE
  5
AB
330
22
100
AcDbEntity
  8
_2-E_CON他
  6
Continuous
 62
     4
100
AcDbLine
 10
1164.234467768864
 20
1058.388822194077
 30
0.0
 11
1267.24641940288
 21
1161.400773828093
 31
0.0
  0
LINE
  5
AC
330
22
100
AcDbEntity
  8
_2-E_CON他
  6
Continuous
 62
     4
100
AcDbLine
 10
1164.234467768864
 20
1044.24668657035
 30
0.0
 11
1281.388555026605
 21
1161.400773828093
 31
0.0
  0
LINE
  5
AD
330
22
100
AcDbEntity
  8
_2-E_CON他
  6
Continuous
 62
     4
100
AcDbLine
 10
1164.234467768864
 20
1051.317754382215
 30
0.0
 11
1274.31748721474
 21
1161.400773828093
 31
0.0
  0
LINE
  5
AE
330
22
100
AcDbEntity
  8
_2-E_CON他
  6
Continuous
 62
     4
100
AcDbLine
 10
1164.234467768864
 20
844.2466865703458
 30
0.0
 11
1403.914094916032
 21
1083.926313717514
 31
0.0
  0
LINE
  5
AF
330
22
100
AcDbEntity
  8
_2-E_CON他
  6
Continuous
 62
     4
100
AcDbLine
 10
1164.234467768864
 20
858.3888221940748
 30
0.0
 11
1403.914094916032
 21
1098.068449341251
 31
0.0
  0
LINE
  5
B0
330
22
100
AcDbEntity
  8
_2-E_CON他
  6
Continuous
 62
     4
100
AcDbLine
 10
1164.234467768864
 20
851.3177543822104
 30
0.0
 11
1403.914094916032
 21
1090.997381529383
 31
0.0
  0
ARC
  5
B1
330
22
100
AcDbEntity
  8
_2-2_IN_LINE
  6
Continuous
 62
     7
100
AcDbCircle
 10
822.2344677688639
 20
1024.400773828091
 30
0.0
 40
8.0
100
AcDbArc
 50
180.0
 51
270.0
  0
LINE
  5
B2
330
22
100
AcDbEntity
  8
_2-2_IN_LINE
  6
Continuous
 62
     7
100
AcDbLine
 10
866.2373357019319
 20
1021.400773828093
 30
0.0
 11
866.2555544894543
 21
1021.531678774773
 31
0.0
  0
LINE
  5
B3
330
22
100
AcDbEntity
  8
_2-2_IN_LINE
  6
Continuous
 62
     7
100
AcDbLine
 10
866.2555544894543
 20
1021.531678774773
 30
0.0
 11
866.2886212691153
 21
1021.756752709789
 31
0.0
  0
LINE
  5
B4
330
22
100
AcDbEntity
  8
_2-2_IN_LINE
  6
Continuous
 62
     7
100
AcDbLine
 10
866.2886212691153
 20
1021.756752709789
 30
0.0
 11
866.3262854849827
 21
1021.980092620049
 31
0.0
  0
LINE
  5
B5
330
22
100
AcDbEntity
  8
_2-2_IN_LINE
  6
Continuous
 62
     7
100
AcDbLine
 10
866.3262854849827
 20
1021.980092620049
 30
0.0
 11
866.3714569068055
 21
1022.200601021521
 31
0.0
  0
LINE
  5
B6
330
22
100
AcDbEntity
  8
_2-2_IN_LINE
  6
Continuous
 62
     7
100
AcDbLine
 10
866.3714569068055
 20
1022.200601021521
 30
0.0
 11
866.4270453043368
 21
1022.417180430178
 31
0.0
  0
LINE
  5
B7
330
22
100
AcDbEntity
  8
_2-2_IN_LINE
  6
Continuous
 62
     7
100
AcDbLine
 10
866.4270453043368
 20
1022.417180430178
 30
0.0
 11
866.4959604473247
 21
1022.628733361996
 31
0.0
  0
LINE
  5
B8
330
22
100
AcDbEntity
  8
_2-2_IN_LINE
  6
Continuous
 62
     7
100
AcDbLine
 10
866.4959604473247
 20
1022.628733361996
 30
0.0
 11
866.5431841456179
 21
1022.748698464989
 31
0.0
  0
LINE
  5
B9
330
22
100
AcDbEntity
  8
_2-2_IN_LINE
  6
Continuous
 62
     7
100
AcDbLine
 10
866.5431841456179
 20
1022.748698464989
 30
0.0
 11
866.5841252068812
 21
1022.840815304583
 31
0.0
  0
LINE
  5
BA
330
22
100
AcDbEntity
  8
_2-2_IN_LINE
  6
Continuous
 62
     7
100
AcDbLine
 10
866.5841252068812
 20
1022.840815304583
 30
0.0
 11
866.6625403795629
 21
1022.99652960759
 31
0.0
  0
LINE
  5
BB
330
22
100
AcDbEntity
  8
_2-2_IN_LINE
  6
Continuous
 62
     7
100
AcDbLine
 10
866.6625403795629
 20
1022.99652960759
 30
0.0
 11
866.7496473938891
 21
1023.148533210474
 31
0.0
  0
LINE
  5
BC
330
22
100
AcDbEntity
  8
_2-2_IN_LINE
  6
Continuous
 62
     7
100
AcDbLine
 10
866.7496473938891
 20
1023.148533210474
 30
0.0
 11
866.8440323830385
 21
1023.297085726274
 31
0.0
  0
LINE
  5
BD
330
22
100
AcDbEntity
  8
_2-2_IN_LINE
  6
Continuous
 62
     7
100
AcDbLine
 10
866.8440323830385
 20
1023.297085726274
 30
0.0
 11
866.9442814801813
 21
1023.44244676805
 31
0.0
  0
LINE
  5
BE
330
22
100
AcDbEntity
  8
_2-2_IN_LINE
  6
Continuous
 62
     7
100
AcDbLine
 10
866.9442814801813
 20
1023.44244676805
 30
0.0
 11
867.0489808184983
 21
1023.584875948846
 31
0.0
  0
LINE
  5
BF
330
22
100
AcDbEntity
  8
_2-2_IN_LINE
  6
Continuous
 62
     7
100
AcDbLine
 10
867.0489808184983
 20
1023.584875948846
 30
0.0
 11
867.1111883981772
 21
1023.666243796047
 31
0.0
  0
LINE
  5
C0
330
22
100
AcDbEntity
  8
_2-2_IN_LINE
  6
Continuous
 62
     7
100
AcDbLine
 10
867.1111883981772
 20
1023.666243796047
 30
0.0
 11
867.1854046721151
 21
1023.760927388849
 31
0.0
  0
LINE
  5
C1
330
22
100
AcDbEntity
  8
_2-2_IN_LINE
  6
Continuous
 62
     7
100
AcDbLine
 10
867.1854046721151
 20
1023.760927388849
 30
0.0
 11
867.3156296122183
 21
1023.92164618271
 31
0.0
  0
LINE
  5
C2
330
22
100
AcDbEntity
  8
_2-2_IN_LINE
  6
Continuous
 62
     7
100
AcDbLine
 10
867.3156296122183
 20
1023.92164618271
 30
0.0
 11
867.4484814314372
 21
1024.0795129451
 31
0.0
  0
LINE
  5
C3
330
22
100
AcDbEntity
  8
_2-2_IN_LINE
  6
Continuous
 62
     7
100
AcDbLine
 10
867.4484814314372
 20
1024.0795129451
 30
0.0
 11
867.5836795695673
 21
1024.234933438565
 31
0.0
  0
LINE
  5
C4
330
22
100
AcDbEntity
  8
_2-2_IN_LINE
  6
Continuous
 62
     7
100
AcDbLine
 10
867.5836795695673
 20
1024.234933438565
 30
0.0
 11
867.7209434663895
 21
1024.388313425655
 31
0.0
  0
LINE
  5
C5
330
22
100
AcDbEntity
  8
_2-2_IN_LINE
  6
Continuous
 62
     7
100
AcDbLine
 10
867.7209434663895
 20
1024.388313425655
 30
0.0
 11
867.8599925616973
 21
1024.540058668911
 31
0.0
  0
LINE
  5
C6
330
22
100
AcDbEntity
  8
_2-2_IN_LINE
  6
Continuous
 62
     7
100
AcDbLine
 10
867.8599925616973
 20
1024.540058668911
 30
0.0
 11
867.9413484596093
 21
1024.627481761918
 31
0.0
  0
LINE
  5
C7
330
22
100
AcDbEntity
  8
_2-2_IN_LINE
  6
Continuous
 62
     7
100
AcDbLine
 10
867.9413484596093
 20
1024.627481761918
 30
0.0
 11
868.0269835330241
 21
1024.718551936312
 31
0.0
  0
LINE
  5
C8
330
22
100
AcDbEntity
  8
_2-2_IN_LINE
  6
Continuous
 62
     7
100
AcDbLine
 10
868.0269835330241
 20
1024.718551936312
 30
0.0
 11
868.1761808913314
 21
1024.87425368515
 31
0.0
  0
LINE
  5
C9
330
22
100
AcDbEntity
  8
_2-2_IN_LINE
  6
Continuous
 62
     7
100
AcDbLine
 10
868.1761808913314
 20
1024.87425368515
 30
0.0
 11
868.3279311049014
 21
1025.027599663547
 31
0.0
  0
LINE
  5
CA
330
22
100
AcDbEntity
  8
_2-2_IN_LINE
  6
Continuous
 62
     7
100
AcDbLine
 10
868.3279311049014
 20
1025.027599663547
 30
0.0
 11
868.4829201844051
 21
1025.177787302469
 31
0.0
  0
LINE
  5
CB
330
22
100
AcDbEntity
  8
_2-2_IN_LINE
  6
Continuous
 62
     7
100
AcDbLine
 10
868.4829201844051
 20
1025.177787302469
 30
0.0
 11
868.6418341405138
 21
1025.324014032865
 31
0.0
  0
LINE
  5
CC
330
22
100
AcDbEntity
  8
_2-2_IN_LINE
  6
Continuous
 62
     7
100
AcDbLine
 10
868.6418341405138
 20
1025.324014032865
 30
0.0
 11
868.8053589838924
 21
1025.465477285693
 31
0.0
  0
LINE
  5
CD
330
22
100
AcDbEntity
  8
_2-2_IN_LINE
  6
Continuous
 62
     7
100
AcDbLine
 10
868.8053589838924
 20
1025.465477285693
 30
0.0
 11
868.9025864254803
 21
1025.545027092974
 31
0.0
  0
LINE
  5
CE
330
22
100
AcDbEntity
  8
_2-2_IN_LINE
  6
Continuous
 62
     7
100
AcDbLine
 10
868.9025864254803
 20
1025.545027092974
 30
0.0
 11
868.9902401250233
 21
1025.613752445472
 31
0.0
  0
LINE
  5
CF
330
22
100
AcDbEntity
  8
_2-2_IN_LINE
  6
Continuous
 62
     7
100
AcDbLine
 10
868.9902401250233
 20
1025.613752445472
 30
0.0
 11
869.1448532249422
 21
1025.727965213273
 31
0.0
  0
LINE
  5
D0
330
22
100
AcDbEntity
  8
_2-2_IN_LINE
  6
Continuous
 62
     7
100
AcDbLine
 10
869.1448532249422
 20
1025.727965213273
 30
0.0
 11
869.3038183681316
 21
1025.835937902205
 31
0.0
  0
LINE
  5
D1
330
22
100
AcDbEntity
  8
_2-2_IN_LINE
  6
Continuous
 62
     7
100
AcDbLine
 10
869.3038183681316
 20
1025.835937902205
 30
0.0
 11
869.4670650253614
 21
1025.936713133628
 31
0.0
  0
LINE
  5
D2
330
22
100
AcDbEntity
  8
_2-2_IN_LINE
  6
Continuous
 62
     7
100
AcDbLine
 10
869.4670650253614
 20
1025.936713133628
 30
0.0
 11
869.6345226673896
 21
1026.029333528914
 31
0.0
  0
LINE
  5
D3
330
22
100
AcDbEntity
  8
_2-2_IN_LINE
  6
Continuous
 62
     7
100
AcDbLine
 10
869.6345226673896
 20
1026.029333528914
 30
0.0
 11
869.8061207649939
 21
1026.112841709428
 31
0.0
  0
LINE
  5
D4
330
22
100
AcDbEntity
  8
_2-2_IN_LINE
  6
Continuous
 62
     7
100
AcDbLine
 10
869.8061207649939
 20
1026.112841709428
 30
0.0
 11
869.9075170261645
 21
1026.156723980346
 31
0.0
  0
LINE
  5
D5
330
22
100
AcDbEntity
  8
_2-2_IN_LINE
  6
Continuous
 62
     7
100
AcDbLine
 10
869.9075170261645
 20
1026.156723980346
 30
0.0
 11
870.021422518902
 21
1026.201252693609
 31
0.0
  0
LINE
  5
D6
330
22
100
AcDbEntity
  8
_2-2_IN_LINE
  6
Continuous
 62
     7
100
AcDbLine
 10
870.021422518902
 20
1026.201252693609
 30
0.0
 11
870.2213109767571
 21
1026.268563322024
 31
0.0
  0
LINE
  5
D7
330
22
100
AcDbEntity
  8
_2-2_IN_LINE
  6
Continuous
 62
     7
100
AcDbLine
 10
870.2213109767571
 20
1026.268563322024
 30
0.0
 11
870.4250130756159
 21
1026.325166873521
 31
0.0
  0
LINE
  5
D8
330
22
100
AcDbEntity
  8
_2-2_IN_LINE
  6
Continuous
 62
     7
100
AcDbLine
 10
870.4250130756159
 20
1026.325166873521
 30
0.0
 11
870.6318121524228
 21
1026.372541747253
 31
0.0
  0
LINE
  5
D9
330
22
100
AcDbEntity
  8
_2-2_IN_LINE
  6
Continuous
 62
     7
100
AcDbLine
 10
870.6318121524228
 20
1026.372541747253
 30
0.0
 11
870.8409915441338
 21
1026.412166342361
 31
0.0
  0
LINE
  5
DA
330
22
100
AcDbEntity
  8
_2-2_IN_LINE
  6
Continuous
 62
     7
100
AcDbLine
 10
870.8409915441338
 20
1026.412166342361
 30
0.0
 11
871.051834587687
 21
1026.445519057998
 31
0.0
  0
LINE
  5
DB
330
22
100
AcDbEntity
  8
_2-2_IN_LINE
  6
Continuous
 62
     7
100
AcDbLine
 10
871.051834587687
 20
1026.445519057998
 30
0.0
 11
871.1746034357171
 21
1026.462572424034
 31
0.0
  0
LINE
  5
DC
330
22
100
AcDbEntity
  8
_2-2_IN_LINE
  6
Continuous
 62
     7
100
AcDbLine
 10
871.1746034357171
 20
1026.462572424034
 30
0.0
 11
871.3230604058017
 21
1026.481289423298
 31
0.0
  0
LINE
  5
DD
330
22
100
AcDbEntity
  8
_2-2_IN_LINE
  6
Continuous
 62
     7
100
AcDbLine
 10
871.3230604058017
 20
1026.481289423298
 30
0.0
 11
871.5793806710886
 21
1026.508196184386
 31
0.0
  0
LINE
  5
DE
330
22
100
AcDbEntity
  8
_2-2_IN_LINE
  6
Continuous
 62
     7
100
AcDbLine
 10
871.5793806710886
 20
1026.508196184386
 30
0.0
 11
871.8357759996674
 21
1026.52705443169
 31
0.0
  0
LINE
  5
DF
330
22
100
AcDbEntity
  8
_2-2_IN_LINE
  6
Continuous
 62
     7
100
AcDbLine
 10
871.8357759996674
 20
1026.52705443169
 30
0.0
 11
872.0918038362983
 21
1026.536400522873
 31
0.0
  0
LINE
  5
E0
330
22
100
AcDbEntity
  8
_2-2_IN_LINE
  6
Continuous
 62
     7
100
AcDbLine
 10
872.0918038362983
 20
1026.536400522873
 30
0.0
 11
872.3470216257341
 21
1026.534770815626
 31
0.0
  0
LINE
  5
E1
330
22
100
AcDbEntity
  8
_2-2_IN_LINE
  6
Continuous
 62
     7
100
AcDbLine
 10
872.3470216257341
 20
1026.534770815626
 30
0.0
 11
872.6009868127235
 21
1026.520701667626
 31
0.0
  0
LINE
  5
E2
330
22
100
AcDbEntity
  8
_2-2_IN_LINE
  6
Continuous
 62
     7
100
AcDbLine
 10
872.6009868127235
 20
1026.520701667626
 30
0.0
 11
872.7475382889604
 21
1026.506265058845
 31
0.0
  0
LINE
  5
E3
330
22
100
AcDbEntity
  8
_2-2_IN_LINE
  6
Continuous
 62
     7
100
AcDbLine
 10
872.7475382889604
 20
1026.506265058845
 30
0.0
 11
872.8548824805249
 21
1026.492575272762
 31
0.0
  0
LINE
  5
E4
330
22
100
AcDbEntity
  8
_2-2_IN_LINE
  6
Continuous
 62
     7
100
AcDbLine
 10
872.8548824805249
 20
1026.492575272762
 30
0.0
 11
873.0393325412947
 21
1026.463615641515
 31
0.0
  0
LINE
  5
E5
330
22
100
AcDbEntity
  8
_2-2_IN_LINE
  6
Continuous
 62
     7
100
AcDbLine
 10
873.0393325412947
 20
1026.463615641515
 30
0.0
 11
873.2233033987371
 21
1026.42930015998
 31
0.0
  0
LINE
  5
E6
330
22
100
AcDbEntity
  8
_2-2_IN_LINE
  6
Continuous
 62
     7
100
AcDbLine
 10
873.2233033987371
 20
1026.42930015998
 30
0.0
 11
873.4071594345973
 21
1026.391285333953
 31
0.0
  0
LINE
  5
E7
330
22
100
AcDbEntity
  8
_2-2_IN_LINE
  6
Continuous
 62
     7
100
AcDbLine
 10
873.4071594345973
 20
1026.391285333953
 30
0.0
 11
873.5912650306149
 21
1026.351227669247
 31
0.0
  0
LINE
  5
E8
330
22
100
AcDbEntity
  8
_2-2_IN_LINE
  6
Continuous
 62
     7
100
AcDbLine
 10
873.5912650306149
 20
1026.351227669247
 30
0.0
 11
873.7759845685436
 21
1026.31078367167
 31
0.0
  0
LINE
  5
E9
330
22
100
AcDbEntity
  8
_2-2_IN_LINE
  6
Continuous
 62
     7
100
AcDbLine
 10
873.7759845685436
 20
1026.31078367167
 30
0.0
 11
873.8835467940784
 21
1026.287801884785
 31
0.0
  0
LINE
  5
EA
330
22
100
AcDbEntity
  8
_2-2_IN_LINE
  6
Continuous
 62
     7
100
AcDbLine
 10
873.8835467940784
 20
1026.287801884785
 30
0.0
 11
874.0056580254067
 21
1026.262528163288
 31
0.0
  0
LINE
  5
EB
330
22
100
AcDbEntity
  8
_2-2_IN_LINE
  6
Continuous
 62
     7
100
AcDbLine
 10
874.0056580254067
 20
1026.262528163288
 30
0.0
 11
874.2164560489699
 21
1026.219178647052
 31
0.0
  0
LINE
  5
EC
330
22
100
AcDbEntity
  8
_2-2_IN_LINE
  6
Continuous
 62
     7
100
AcDbLine
 10
874.2164560489699
 20
1026.219178647052
 30
0.0
 11
874.4261612728099
 21
1026.173045488902
 31
0.0
  0
LINE
  5
ED
330
22
100
AcDbEntity
  8
_2-2_IN_LINE
  6
Continuous
 62
     7
100
AcDbLine
 10
874.4261612728099
 20
1026.173045488902
 30
0.0
 11
874.6331182220789
 21
1026.1205594472
 31
0.0
  0
LINE
  5
EE
330
22
100
AcDbEntity
  8
_2-2_IN_LINE
  6
Continuous
 62
     7
100
AcDbLine
 10
874.6331182220789
 20
1026.1205594472
 30
0.0
 11
874.8356714219301
 21
1026.058151280299
 31
0.0
  0
LINE
  5
EF
330
22
100
AcDbEntity
  8
_2-2_IN_LINE
  6
Continuous
 62
     7
100
AcDbLine
 10
874.8356714219301
 20
1026.058151280299
 30
0.0
 11
875.0321653975301
 21
1025.982251746566
 31
0.0
  0
LINE
  5
F0
330
22
100
AcDbEntity
  8
_2-2_IN_LINE
  6
Continuous
 62
     7
100
AcDbLine
 10
875.0321653975301
 20
1025.982251746566
 30
0.0
 11
875.142703223652
 21
1025.93064180591
 31
0.0
  0
LINE
  5
F1
330
22
100
AcDbEntity
  8
_2-2_IN_LINE
  6
Continuous
 62
     7
100
AcDbLine
 10
875.142703223652
 20
1025.93064180591
 30
0.0
 11
875.2420254548328
 21
1025.877556333985
 31
0.0
  0
LINE
  5
F2
330
22
100
AcDbEntity
  8
_2-2_IN_LINE
  6
Continuous
 62
     7
100
AcDbLine
 10
875.2420254548328
 20
1025.877556333985
 30
0.0
 11
875.4074493700196
 21
1025.774270052889
 31
0.0
  0
LINE
  5
F3
330
22
100
AcDbEntity
  8
_2-2_IN_LINE
  6
Continuous
 62
     7
100
AcDbLine
 10
875.4074493700196
 20
1025.774270052889
 30
0.0
 11
875.5655009413807
 21
1025.657720421155
 31
0.0
  0
LINE
  5
F4
330
22
100
AcDbEntity
  8
_2-2_IN_LINE
  6
Continuous
 62
     7
100
AcDbLine
 10
875.5655009413807
 20
1025.657720421155
 30
0.0
 11
875.7161759877966
 21
1025.52979374784
 31
0.0
  0
LINE
  5
F5
330
22
100
AcDbEntity
  8
_2-2_IN_LINE
  6
Continuous
 62
     7
100
AcDbLine
 10
875.7161759877966
 20
1025.52979374784
 30
0.0
 11
875.8594703281655
 21
1025.392376341993
 31
0.0
  0
LINE
  5
F6
330
22
100
AcDbEntity
  8
_2-2_IN_LINE
  6
Continuous
 62
     7
100
AcDbLine
 10
875.8594703281655
 20
1025.392376341993
 30
0.0
 11
875.9953797813674
 21
1025.247354512663
 31
0.0
  0
LINE
  5
F7
330
22
100
AcDbEntity
  8
_2-2_IN_LINE
  6
Continuous
 62
     7
100
AcDbLine
 10
875.9953797813674
 20
1025.247354512663
 30
0.0
 11
876.0708218613547
 21
1025.160500808666
 31
0.0
  0
LINE
  5
F8
330
22
100
AcDbEntity
  8
_2-2_IN_LINE
  6
Continuous
 62
     7
100
AcDbLine
 10
876.0708218613547
 20
1025.160500808666
 30
0.0
 11
876.1551168857263
 21
1025.057933420676
 31
0.0
  0
LINE
  5
F9
330
22
100
AcDbEntity
  8
_2-2_IN_LINE
  6
Continuous
 62
     7
100
AcDbLine
 10
876.1551168857263
 20
1025.057933420676
 30
0.0
 11
876.2932887449929
 21
1024.876648410937
 31
0.0
  0
LINE
  5
FA
330
22
100
AcDbEntity
  8
_2-2_IN_LINE
  6
Continuous
 62
     7
100
AcDbLine
 10
876.2932887449929
 20
1024.876648410937
 30
0.0
 11
876.4233990120116
 21
1024.690423736318
 31
0.0
  0
LINE
  5
FB
330
22
100
AcDbEntity
  8
_2-2_IN_LINE
  6
Continuous
 62
     7
100
AcDbLine
 10
876.4233990120116
 20
1024.690423736318
 30
0.0
 11
876.5466189139978
 21
1024.50005767523
 31
0.0
  0
LINE
  5
FC
330
22
100
AcDbEntity
  8
_2-2_IN_LINE
  6
Continuous
 62
     7
100
AcDbLine
 10
876.5466189139978
 20
1024.50005767523
 30
0.0
 11
876.6641196781678
 21
1024.306348506086
 31
0.0
  0
LINE
  5
FD
330
22
100
AcDbEntity
  8
_2-2_IN_LINE
  6
Continuous
 62
     7
100
AcDbLine
 10
876.6641196781678
 20
1024.306348506086
 30
0.0
 11
876.7770725317372
 21
1024.110094507303
 31
0.0
  0
LINE
  5
FE
330
22
100
AcDbEntity
  8
_2-2_IN_LINE
  6
Continuous
 62
     7
100
AcDbLine
 10
876.7770725317372
 20
1024.110094507303
 30
0.0
 11
876.8409628585949
 21
1023.995415710274
 31
0.0
  0
LINE
  5
FF
330
22
100
AcDbEntity
  8
_2-2_IN_LINE
  6
Continuous
 62
     7
100
AcDbLine
 10
876.8409628585949
 20
1023.995415710274
 30
0.0
 11
876.9082302261008
 21
1023.872349118138
 31
0.0
  0
LINE
  5
100
330
22
100
AcDbEntity
  8
_2-2_IN_LINE
  6
Continuous
 62
     7
100
AcDbLine
 10
876.9082302261008
 20
1023.872349118138
 30
0.0
 11
877.0222114673098
 21
1023.659142361769
 31
0.0
  0
LINE
  5
101
330
22
100
AcDbEntity
  8
_2-2_IN_LINE
  6
Continuous
 62
     7
100
AcDbLine
 10
877.0222114673098
 20
1023.659142361769
 30
0.0
 11
877.1343260156744
 21
1023.444845362233
 31
0.0
  0
LINE
  5
102
330
22
100
AcDbEntity
  8
_2-2_IN_LINE
  6
Continuous
 62
     7
100
AcDbLine
 10
877.1343260156744
 20
1023.444845362233
 30
0.0
 11
877.2453426249208
 21
1023.229696101157
 31
0.0
  0
LINE
  5
103
330
22
100
AcDbEntity
  8
_2-2_IN_LINE
  6
Continuous
 62
     7
100
AcDbLine
 10
877.2453426249208
 20
1023.229696101157
 30
0.0
 11
877.3560300487828
 21
1023.01393256018
 31
0.0
  0
LINE
  5
104
330
22
100
AcDbEntity
  8
_2-2_IN_LINE
  6
Continuous
 62
     7
100
AcDbLine
 10
877.3560300487828
 20
1023.01393256018
 30
0.0
 11
877.4671570409795
 21
1022.797792720921
 31
0.0
  0
LINE
  5
105
330
22
100
AcDbEntity
  8
_2-2_IN_LINE
  6
Continuous
 62
     7
100
AcDbLine
 10
877.4671570409795
 20
1022.797792720921
 30
0.0
 11
877.5321150356093
 21
1022.67235297142
 31
0.0
  0
LINE
  5
106
330
22
100
AcDbEntity
  8
_2-2_IN_LINE
  6
Continuous
 62
     7
100
AcDbLine
 10
877.5321150356093
 20
1022.67235297142
 30
0.0
 11
877.6205284897846
 21
1022.503524788417
 31
0.0
  0
LINE
  5
107
330
22
100
AcDbEntity
  8
_2-2_IN_LINE
  6
Continuous
 62
     7
100
AcDbLine
 10
877.6205284897846
 20
1022.503524788417
 30
0.0
 11
877.7770333057166
 21
1022.214129022528
 31
0.0
  0
LINE
  5
108
330
22
100
AcDbEntity
  8
_2-2_IN_LINE
  6
Continuous
 62
     7
100
AcDbLine
 10
877.7770333057166
 20
1022.214129022528
 30
0.0
 11
877.9412548989412
 21
1021.929420846275
 31
0.0
  0
LINE
  5
109
330
22
100
AcDbEntity
  8
_2-2_IN_LINE
  6
Continuous
 62
     7
100
AcDbLine
 10
877.9412548989412
 20
1021.929420846275
 30
0.0
 11
878.1161788863268
 21
1021.652367418258
 31
0.0
  0
LINE
  5
10A
330
22
100
AcDbEntity
  8
_2-2_IN_LINE
  6
Continuous
 62
     7
100
AcDbLine
 10
878.1161788863268
 20
1021.652367418258
 30
0.0
 11
878.3047908847279
 21
1021.38593589707
 31
0.0
  0
LINE
  5
10B
330
22
100
AcDbEntity
  8
_2-2_IN_LINE
  6
Continuous
 62
     7
100
AcDbLine
 10
878.3047908847279
 20
1021.38593589707
 30
0.0
 11
878.5100765110032
 21
1021.133093441313
 31
0.0
  0
LINE
  5
10C
330
22
100
AcDbEntity
  8
_2-2_IN_LINE
  6
Continuous
 62
     7
100
AcDbLine
 10
878.5100765110032
 20
1021.133093441313
 30
0.0
 11
878.6379585188287
 21
1020.993840541535
 31
0.0
  0
LINE
  5
10D
330
22
100
AcDbEntity
  8
_2-2_IN_LINE
  6
Continuous
 62
     7
100
AcDbLine
 10
878.6379585188287
 20
1020.993840541535
 30
0.0
 11
878.6841736911323
 21
1020.946735535622
 31
0.0
  0
LINE
  5
10E
330
22
100
AcDbEntity
  8
_2-2_IN_LINE
  6
Continuous
 62
     7
100
AcDbLine
 10
878.6841736911323
 20
1020.946735535622
 30
0.0
 11
878.765872952673
 21
1020.86739044059
 31
0.0
  0
LINE
  5
10F
330
22
100
AcDbEntity
  8
_2-2_IN_LINE
  6
Continuous
 62
     7
100
AcDbLine
 10
878.765872952673
 20
1020.86739044059
 30
0.0
 11
878.8500753450048
 21
1020.790590331144
 31
0.0
  0
LINE
  5
110
330
22
100
AcDbEntity
  8
_2-2_IN_LINE
  6
Continuous
 62
     7
100
AcDbLine
 10
878.8500753450048
 20
1020.790590331144
 30
0.0
 11
878.9367213204982
 21
1020.716541427821
 31
0.0
  0
LINE
  5
111
330
22
100
AcDbEntity
  8
_2-2_IN_LINE
  6
Continuous
 62
     7
100
AcDbLine
 10
878.9367213204982
 20
1020.716541427821
 30
0.0
 11
879.025751331534
 21
1020.645449951131
 31
0.0
  0
LINE
  5
112
330
22
100
AcDbEntity
  8
_2-2_IN_LINE
  6
Continuous
 62
     7
100
AcDbLine
 10
879.025751331534
 20
1020.645449951131
 30
0.0
 11
879.1171058304884
 21
1020.577522121601
 31
0.0
  0
LINE
  5
113
330
22
100
AcDbEntity
  8
_2-2_IN_LINE
  6
Continuous
 62
     7
100
AcDbLine
 10
879.1171058304884
 20
1020.577522121601
 30
0.0
 11
879.1711330553804
 21
1020.539654825207
 31
0.0
  0
LINE
  5
114
330
22
100
AcDbEntity
  8
_2-2_IN_LINE
  6
Continuous
 62
     7
100
AcDbLine
 10
879.1711330553804
 20
1020.539654825207
 30
0.0
 11
879.2607344664691
 21
1020.480362134834
 31
0.0
  0
LINE
  5
115
330
22
100
AcDbEntity
  8
_2-2_IN_LINE
  6
Continuous
 62
     7
100
AcDbLine
 10
879.2607344664691
 20
1020.480362134834
 30
0.0
 11
879.4189259106397
 21
1020.383948870638
 31
0.0
  0
LINE
  5
116
330
22
100
AcDbEntity
  8
_2-2_IN_LINE
  6
Continuous
 62
     7
100
AcDbLine
 10
879.4189259106397
 20
1020.383948870638
 30
0.0
 11
879.5803371976731
 21
1020.292620461567
 31
0.0
  0
LINE
  5
117
330
22
100
AcDbEntity
  8
_2-2_IN_LINE
  6
Continuous
 62
     7
100
AcDbLine
 10
879.5803371976731
 20
1020.292620461567
 30
0.0
 11
879.7432571459662
 21
1020.203729753117
 31
0.0
  0
LINE
  5
118
330
22
100
AcDbEntity
  8
_2-2_IN_LINE
  6
Continuous
 62
     7
100
AcDbLine
 10
879.7432571459662
 20
1020.203729753117
 30
0.0
 11
879.9059745739183
 21
1020.114629590783
 31
0.0
  0
LINE
  5
119
330
22
100
AcDbEntity
  8
_2-2_IN_LINE
  6
Continuous
 62
     7
100
AcDbLine
 10
879.9059745739183
 20
1020.114629590783
 30
0.0
 11
880.0667782999303
 21
1020.022672820051
 31
0.0
  0
LINE
  5
11A
330
22
100
AcDbEntity
  8
_2-2_IN_LINE
  6
Continuous
 62
     7
100
AcDbLine
 10
880.0667782999303
 20
1020.022672820051
 30
0.0
 11
880.1584933082553
 21
1019.966985878544
 31
0.0
  0
LINE
  5
11B
330
22
100
AcDbEntity
  8
_2-2_IN_LINE
  6
Continuous
 62
     7
100
AcDbLine
 10
880.1584933082553
 20
1019.966985878544
 30
0.0
 11
880.2509043006548
 21
1019.907621108669
 31
0.0
  0
LINE
  5
11C
330
22
100
AcDbEntity
  8
_2-2_IN_LINE
  6
Continuous
 62
     7
100
AcDbLine
 10
880.2509043006548
 20
1019.907621108669
 30
0.0
 11
880.4068473028101
 21
1019.800119346903
 31
0.0
  0
LINE
  5
11D
330
22
100
AcDbEntity
  8
_2-2_IN_LINE
  6
Continuous
 62
     7
100
AcDbLine
 10
880.4068473028101
 20
1019.800119346903
 30
0.0
 11
880.5591698450339
 21
1019.687136156934
 31
0.0
  0
LINE
  5
11E
330
22
100
AcDbEntity
  8
_2-2_IN_LINE
  6
Continuous
 62
     7
100
AcDbLine
 10
880.5591698450339
 20
1019.687136156934
 30
0.0
 11
880.7086463337657
 21
1019.569876104538
 31
0.0
  0
LINE
  5
11F
330
22
100
AcDbEntity
  8
_2-2_IN_LINE
  6
Continuous
 62
     7
100
AcDbLine
 10
880.7086463337657
 20
1019.569876104538
 30
0.0
 11
880.8560511754594
 21
1019.449543755491
 31
0.0
  0
LINE
  5
120
330
22
100
AcDbEntity
  8
_2-2_IN_LINE
  6
Continuous
 62
     7
100
AcDbLine
 10
880.8560511754594
 20
1019.449543755491
 30
0.0
 11
881.0021587765563
 21
1019.327343675568
 31
0.0
  0
LINE
  5
121
330
22
100
AcDbEntity
  8
_2-2_IN_LINE
  6
Continuous
 62
     7
100
AcDbLine
 10
881.0021587765563
 20
1019.327343675568
 30
0.0
 11
881.0866119459582
 21
1019.256086496473
 31
0.0
  0
LINE
  5
122
330
22
100
AcDbEntity
  8
_2-2_IN_LINE
  6
Continuous
 62
     7
100
AcDbLine
 10
881.0866119459582
 20
1019.256086496473
 30
0.0
 11
881.1924538095778
 21
1019.166605912572
 31
0.0
  0
LINE
  5
123
330
22
100
AcDbEntity
  8
_2-2_IN_LINE
  6
Continuous
 62
     7
100
AcDbLine
 10
881.1924538095778
 20
1019.166605912572
 30
0.0
 11
881.3740265878882
 21
1019.011522858778
 31
0.0
  0
LINE
  5
124
330
22
100
AcDbEntity
  8
_2-2_IN_LINE
  6
Continuous
 62
     7
100
AcDbLine
 10
881.3740265878882
 20
1019.011522858778
 30
0.0
 11
881.5532012405119
 21
1018.854133690539
 31
0.0
  0
LINE
  5
125
330
22
100
AcDbEntity
  8
_2-2_IN_LINE
  6
Continuous
 62
     7
100
AcDbLine
 10
881.5532012405119
 20
1018.854133690539
 30
0.0
 11
881.7285333667372
 21
1018.692943492607
 31
0.0
  0
LINE
  5
126
330
22
100
AcDbEntity
  8
_2-2_IN_LINE
  6
Continuous
 62
     7
100
AcDbLine
 10
881.7285333667372
 20
1018.692943492607
 30
0.0
 11
881.8985785658483
 21
1018.526457349761
 31
0.0
  0
LINE
  5
127
330
22
100
AcDbEntity
  8
_2-2_IN_LINE
  6
Continuous
 62
     7
100
AcDbLine
 10
881.8985785658483
 20
1018.526457349761
 30
0.0
 11
882.0618924371242
 21
1018.353180346749
 31
0.0
  0
LINE
  5
128
330
22
100
AcDbEntity
  8
_2-2_IN_LINE
  6
Continuous
 62
     7
100
AcDbLine
 10
882.0618924371242
 20
1018.353180346749
 30
0.0
 11
882.1529610190637
 21
1018.24897903854
 31
0.0
  0
LINE
  5
129
330
22
100
AcDbEntity
  8
_2-2_IN_LINE
  6
Continuous
 62
     7
100
AcDbLine
 10
882.1529610190637
 20
1018.24897903854
 30
0.0
 11
882.2046202917011
 21
1018.186891763017
 31
0.0
  0
LINE
  5
12A
330
22
100
AcDbEntity
  8
_2-2_IN_LINE
  6
Continuous
 62
     7
100
AcDbLine
 10
882.2046202917011
 20
1018.186891763017
 30
0.0
 11
882.2909454020066
 21
1018.07741902318
 31
0.0
  0
LINE
  5
12B
330
22
100
AcDbEntity
  8
_2-2_IN_LINE
  6
Continuous
 62
     7
100
AcDbLine
 10
882.2909454020066
 20
1018.07741902318
 30
0.0
 11
882.3733052741376
 21
1017.964917765419
 31
0.0
  0
LINE
  5
12C
330
22
100
AcDbEntity
  8
_2-2_IN_LINE
  6
Continuous
 62
     7
100
AcDbLine
 10
882.3733052741376
 20
1017.964917765419
 30
0.0
 11
882.4511259648865
 21
1017.84943683271
 31
0.0
  0
LINE
  5
12D
330
22
100
AcDbEntity
  8
_2-2_IN_LINE
  6
Continuous
 62
     7
100
AcDbLine
 10
882.4511259648865
 20
1017.84943683271
 30
0.0
 11
882.5238335310281
 21
1017.731025068018
 31
0.0
  0
LINE
  5
12E
330
22
100
AcDbEntity
  8
_2-2_IN_LINE
  6
Continuous
 62
     7
100
AcDbLine
 10
882.5238335310281
 20
1017.731025068018
 30
0.0
 11
882.5908540293577
 21
1017.609731314313
 31
0.0
  0
LINE
  5
12F
330
22
100
AcDbEntity
  8
_2-2_IN_LINE
  6
Continuous
 62
     7
100
AcDbLine
 10
882.5908540293577
 20
1017.609731314313
 30
0.0
 11
882.626893940443
 21
1017.538079656472
 31
0.0
  0
LINE
  5
130
330
22
100
AcDbEntity
  8
_2-2_IN_LINE
  6
Continuous
 62
     7
100
AcDbLine
 10
882.626893940443
 20
1017.538079656472
 30
0.0
 11
882.6735457938015
 21
1017.436603765419
 31
0.0
  0
LINE
  5
131
330
22
100
AcDbEntity
  8
_2-2_IN_LINE
  6
Continuous
 62
     7
100
AcDbLine
 10
882.6735457938015
 20
1017.436603765419
 30
0.0
 11
882.7450325521535
 21
1017.257839386366
 31
0.0
  0
LINE
  5
132
330
22
100
AcDbEntity
  8
_2-2_IN_LINE
  6
Continuous
 62
     7
100
AcDbLine
 10
882.7450325521535
 20
1017.257839386366
 30
0.0
 11
882.8069838907767
 21
1017.075018968221
 31
0.0
  0
LINE
  5
133
330
22
100
AcDbEntity
  8
_2-2_IN_LINE
  6
Continuous
 62
     7
100
AcDbLine
 10
882.8069838907767
 20
1017.075018968221
 30
0.0
 11
882.8614817790448
 21
1016.889028109031
 31
0.0
  0
LINE
  5
134
330
22
100
AcDbEntity
  8
_2-2_IN_LINE
  6
Continuous
 62
     7
100
AcDbLine
 10
882.8614817790448
 20
1016.889028109031
 30
0.0
 11
882.9106081863315
 21
1016.700752406855
 31
0.0
  0
LINE
  5
135
330
22
100
AcDbEntity
  8
_2-2_IN_LINE
  6
Continuous
 62
     7
100
AcDbLine
 10
882.9106081863315
 20
1016.700752406855
 30
0.0
 11
882.9564450820102
 21
1016.511077459755
 31
0.0
  0
LINE
  5
136
330
22
100
AcDbEntity
  8
_2-2_IN_LINE
  6
Continuous
 62
     7
100
AcDbLine
 10
882.9564450820102
 20
1016.511077459755
 30
0.0
 11
882.9823436314805
 21
1016.400773828093
 31
0.0
  0
LINE
  5
137
330
22
100
AcDbEntity
  8
_2-2_IN_LINE
  6
Continuous
 62
     7
100
AcDbLine
 10
814.2344677688644
 20
1016.400773828093
 30
0.0
 11
872.2344677688639
 21
1016.400773828093
 31
0.0
  0
ARC
  5
138
330
22
100
AcDbEntity
  8
_2-2_IN_LINE
  6
Continuous
 62
     7
100
AcDbCircle
 10
804.2344677688644
 20
1251.400773828093
 30
0.0
 40
10.0
100
AcDbArc
 50
0.0
 51
90.00000000000003
  0
LINE
  5
139
330
22
100
AcDbEntity
  8
_2-2_IN_LINE
  6
Continuous
 62
     7
100
AcDbLine
 10
814.2344677688644
 20
1251.400773828093
 30
0.0
 11
814.2344677688644
 21
1011.400773828093
 31
0.0
  0
LINE
  5
13A
330
22
100
AcDbEntity
  8
_2-2_IN_LINE
  6
Continuous
 62
     7
100
AcDbLine
 10
814.2344677688644
 20
1011.400773828093
 30
0.0
 11
1164.234467768864
 21
1011.400773828093
 31
0.0
  0
ARC
  5
13B
330
22
100
AcDbEntity
  8
_2-2_IN_LINE
  6
Continuous
 62
     7
100
AcDbCircle
 10
1156.234467768864
 20
1024.400773828091
 30
0.0
 40
8.0
100
AcDbArc
 50
270.0
 51
0.0
  0
LINE
  5
13C
330
22
100
AcDbEntity
  8
_2-2_IN_LINE
  6
Continuous
 62
     7
100
AcDbLine
 10
1112.231599835797
 20
1021.400773828093
 30
0.0
 11
1112.213381048274
 21
1021.531678774773
 31
0.0
  0
LINE
  5
13D
330
22
100
AcDbEntity
  8
_2-2_IN_LINE
  6
Continuous
 62
     7
100
AcDbLine
 10
1112.213381048274
 20
1021.531678774773
 30
0.0
 11
1112.180314268613
 21
1021.756752709789
 31
0.0
  0
LINE
  5
13E
330
22
100
AcDbEntity
  8
_2-2_IN_LINE
  6
Continuous
 62
     7
100
AcDbLine
 10
1112.180314268613
 20
1021.756752709789
 30
0.0
 11
1112.142650052746
 21
1021.980092620049
 31
0.0
  0
LINE
  5
13F
330
22
100
AcDbEntity
  8
_2-2_IN_LINE
  6
Continuous
 62
     7
100
AcDbLine
 10
1112.142650052746
 20
1021.980092620049
 30
0.0
 11
1112.097478630923
 21
1022.200601021521
 31
0.0
  0
LINE
  5
140
330
22
100
AcDbEntity
  8
_2-2_IN_LINE
  6
Continuous
 62
     7
100
AcDbLine
 10
1112.097478630923
 20
1022.200601021521
 30
0.0
 11
1112.041890233392
 21
1022.417180430178
 31
0.0
  0
LINE
  5
141
330
22
100
AcDbEntity
  8
_2-2_IN_LINE
  6
Continuous
 62
     7
100
AcDbLine
 10
1112.041890233392
 20
1022.417180430178
 30
0.0
 11
1111.972975090404
 21
1022.628733361996
 31
0.0
  0
LINE
  5
142
330
22
100
AcDbEntity
  8
_2-2_IN_LINE
  6
Continuous
 62
     7
100
AcDbLine
 10
1111.972975090404
 20
1022.628733361996
 30
0.0
 11
1111.925751392111
 21
1022.748698464989
 31
0.0
  0
LINE
  5
143
330
22
100
AcDbEntity
  8
_2-2_IN_LINE
  6
Continuous
 62
     7
100
AcDbLine
 10
1111.925751392111
 20
1022.748698464989
 30
0.0
 11
1111.884810330847
 21
1022.840815304583
 31
0.0
  0
LINE
  5
144
330
22
100
AcDbEntity
  8
_2-2_IN_LINE
  6
Continuous
 62
     7
100
AcDbLine
 10
1111.884810330847
 20
1022.840815304583
 30
0.0
 11
1111.806395158165
 21
1022.99652960759
 31
0.0
  0
LINE
  5
145
330
22
100
AcDbEntity
  8
_2-2_IN_LINE
  6
Continuous
 62
     7
100
AcDbLine
 10
1111.806395158165
 20
1022.99652960759
 30
0.0
 11
1111.719288143839
 21
1023.148533210474
 31
0.0
  0
LINE
  5
146
330
22
100
AcDbEntity
  8
_2-2_IN_LINE
  6
Continuous
 62
     7
100
AcDbLine
 10
1111.719288143839
 20
1023.148533210474
 30
0.0
 11
1111.62490315469
 21
1023.297085726274
 31
0.0
  0
LINE
  5
147
330
22
100
AcDbEntity
  8
_2-2_IN_LINE
  6
Continuous
 62
     7
100
AcDbLine
 10
1111.62490315469
 20
1023.297085726274
 30
0.0
 11
1111.524654057547
 21
1023.44244676805
 31
0.0
  0
LINE
  5
148
330
22
100
AcDbEntity
  8
_2-2_IN_LINE
  6
Continuous
 62
     7
100
AcDbLine
 10
1111.524654057547
 20
1023.44244676805
 30
0.0
 11
1111.41995471923
 21
1023.584875948846
 31
0.0
  0
LINE
  5
149
330
22
100
AcDbEntity
  8
_2-2_IN_LINE
  6
Continuous
 62
     7
100
AcDbLine
 10
1111.41995471923
 20
1023.584875948846
 30
0.0
 11
1111.357747139551
 21
1023.666243796047
 31
0.0
  0
LINE
  5
14A
330
22
100
AcDbEntity
  8
_2-2_IN_LINE
  6
Continuous
 62
     7
100
AcDbLine
 10
1111.357747139551
 20
1023.666243796047
 30
0.0
 11
1111.283530865613
 21
1023.760927388849
 31
0.0
  0
LINE
  5
14B
330
22
100
AcDbEntity
  8
_2-2_IN_LINE
  6
Continuous
 62
     7
100
AcDbLine
 10
1111.283530865613
 20
1023.760927388849
 30
0.0
 11
1111.15330592551
 21
1023.92164618271
 31
0.0
  0
LINE
  5
14C
330
22
100
AcDbEntity
  8
_2-2_IN_LINE
  6
Continuous
 62
     7
100
AcDbLine
 10
1111.15330592551
 20
1023.92164618271
 30
0.0
 11
1111.020454106291
 21
1024.0795129451
 31
0.0
  0
LINE
  5
14D
330
22
100
AcDbEntity
  8
_2-2_IN_LINE
  6
Continuous
 62
     7
100
AcDbLine
 10
1111.020454106291
 20
1024.0795129451
 30
0.0
 11
1110.885255968161
 21
1024.234933438565
 31
0.0
  0
LINE
  5
14E
330
22
100
AcDbEntity
  8
_2-2_IN_LINE
  6
Continuous
 62
     7
100
AcDbLine
 10
1110.885255968161
 20
1024.234933438565
 30
0.0
 11
1110.747992071339
 21
1024.388313425655
 31
0.0
  0
LINE
  5
14F
330
22
100
AcDbEntity
  8
_2-2_IN_LINE
  6
Continuous
 62
     7
100
AcDbLine
 10
1110.747992071339
 20
1024.388313425655
 30
0.0
 11
1110.608942976031
 21
1024.540058668911
 31
0.0
  0
LINE
  5
150
330
22
100
AcDbEntity
  8
_2-2_IN_LINE
  6
Continuous
 62
     7
100
AcDbLine
 10
1110.608942976031
 20
1024.540058668911
 30
0.0
 11
1110.527587078119
 21
1024.627481761918
 31
0.0
  0
LINE
  5
151
330
22
100
AcDbEntity
  8
_2-2_IN_LINE
  6
Continuous
 62
     7
100
AcDbLine
 10
1110.527587078119
 20
1024.627481761918
 30
0.0
 11
1110.441952004704
 21
1024.718551936312
 31
0.0
  0
LINE
  5
152
330
22
100
AcDbEntity
  8
_2-2_IN_LINE
  6
Continuous
 62
     7
100
AcDbLine
 10
1110.441952004704
 20
1024.718551936312
 30
0.0
 11
1110.292754646397
 21
1024.87425368515
 31
0.0
  0
LINE
  5
153
330
22
100
AcDbEntity
  8
_2-2_IN_LINE
  6
Continuous
 62
     7
100
AcDbLine
 10
1110.292754646397
 20
1024.87425368515
 30
0.0
 11
1110.141004432827
 21
1025.027599663547
 31
0.0
  0
LINE
  5
154
330
22
100
AcDbEntity
  8
_2-2_IN_LINE
  6
Continuous
 62
     7
100
AcDbLine
 10
1110.141004432827
 20
1025.027599663547
 30
0.0
 11
1109.986015353324
 21
1025.177787302469
 31
0.0
  0
LINE
  5
155
330
22
100
AcDbEntity
  8
_2-2_IN_LINE
  6
Continuous
 62
     7
100
AcDbLine
 10
1109.986015353324
 20
1025.177787302469
 30
0.0
 11
1109.827101397215
 21
1025.324014032865
 31
0.0
  0
LINE
  5
156
330
22
100
AcDbEntity
  8
_2-2_IN_LINE
  6
Continuous
 62
     7
100
AcDbLine
 10
1109.827101397215
 20
1025.324014032865
 30
0.0
 11
1109.663576553836
 21
1025.465477285693
 31
0.0
  0
LINE
  5
157
330
22
100
AcDbEntity
  8
_2-2_IN_LINE
  6
Continuous
 62
     7
100
AcDbLine
 10
1109.663576553836
 20
1025.465477285693
 30
0.0
 11
1109.566349112248
 21
1025.545027092974
 31
0.0
  0
LINE
  5
158
330
22
100
AcDbEntity
  8
_2-2_IN_LINE
  6
Continuous
 62
     7
100
AcDbLine
 10
1109.566349112248
 20
1025.545027092974
 30
0.0
 11
1109.478695412705
 21
1025.613752445472
 31
0.0
  0
LINE
  5
159
330
22
100
AcDbEntity
  8
_2-2_IN_LINE
  6
Continuous
 62
     7
100
AcDbLine
 10
1109.478695412705
 20
1025.613752445472
 30
0.0
 11
1109.324082312786
 21
1025.727965213273
 31
0.0
  0
LINE
  5
15A
330
22
100
AcDbEntity
  8
_2-2_IN_LINE
  6
Continuous
 62
     7
100
AcDbLine
 10
1109.324082312786
 20
1025.727965213273
 30
0.0
 11
1109.165117169597
 21
1025.835937902205
 31
0.0
  0
LINE
  5
15B
330
22
100
AcDbEntity
  8
_2-2_IN_LINE
  6
Continuous
 62
     7
100
AcDbLine
 10
1109.165117169597
 20
1025.835937902205
 30
0.0
 11
1109.001870512367
 21
1025.936713133628
 31
0.0
  0
LINE
  5
15C
330
22
100
AcDbEntity
  8
_2-2_IN_LINE
  6
Continuous
 62
     7
100
AcDbLine
 10
1109.001870512367
 20
1025.936713133628
 30
0.0
 11
1108.834412870339
 21
1026.029333528914
 31
0.0
  0
LINE
  5
15D
330
22
100
AcDbEntity
  8
_2-2_IN_LINE
  6
Continuous
 62
     7
100
AcDbLine
 10
1108.834412870339
 20
1026.029333528914
 30
0.0
 11
1108.662814772735
 21
1026.112841709428
 31
0.0
  0
LINE
  5
15E
330
22
100
AcDbEntity
  8
_2-2_IN_LINE
  6
Continuous
 62
     7
100
AcDbLine
 10
1108.662814772735
 20
1026.112841709428
 30
0.0
 11
1108.561418511564
 21
1026.156723980346
 31
0.0
  0
LINE
  5
15F
330
22
100
AcDbEntity
  8
_2-2_IN_LINE
  6
Continuous
 62
     7
100
AcDbLine
 10
1108.561418511564
 20
1026.156723980346
 30
0.0
 11
1108.447513018826
 21
1026.201252693609
 31
0.0
  0
LINE
  5
160
330
22
100
AcDbEntity
  8
_2-2_IN_LINE
  6
Continuous
 62
     7
100
AcDbLine
 10
1108.447513018826
 20
1026.201252693609
 30
0.0
 11
1108.247624560971
 21
1026.268563322024
 31
0.0
  0
LINE
  5
161
330
22
100
AcDbEntity
  8
_2-2_IN_LINE
  6
Continuous
 62
     7
100
AcDbLine
 10
1108.247624560971
 20
1026.268563322024
 30
0.0
 11
1108.043922462113
 21
1026.325166873521
 31
0.0
  0
LINE
  5
162
330
22
100
AcDbEntity
  8
_2-2_IN_LINE
  6
Continuous
 62
     7
100
AcDbLine
 10
1108.043922462113
 20
1026.325166873521
 30
0.0
 11
1107.837123385306
 21
1026.372541747253
 31
0.0
  0
LINE
  5
163
330
22
100
AcDbEntity
  8
_2-2_IN_LINE
  6
Continuous
 62
     7
100
AcDbLine
 10
1107.837123385306
 20
1026.372541747253
 30
0.0
 11
1107.627943993594
 21
1026.412166342361
 31
0.0
  0
LINE
  5
164
330
22
100
AcDbEntity
  8
_2-2_IN_LINE
  6
Continuous
 62
     7
100
AcDbLine
 10
1107.627943993594
 20
1026.412166342361
 30
0.0
 11
1107.417100950041
 21
1026.445519057998
 31
0.0
  0
LINE
  5
165
330
22
100
AcDbEntity
  8
_2-2_IN_LINE
  6
Continuous
 62
     7
100
AcDbLine
 10
1107.417100950041
 20
1026.445519057998
 30
0.0
 11
1107.294332102011
 21
1026.462572424034
 31
0.0
  0
LINE
  5
166
330
22
100
AcDbEntity
  8
_2-2_IN_LINE
  6
Continuous
 62
     7
100
AcDbLine
 10
1107.294332102011
 20
1026.462572424034
 30
0.0
 11
1107.145875131926
 21
1026.481289423298
 31
0.0
  0
LINE
  5
167
330
22
100
AcDbEntity
  8
_2-2_IN_LINE
  6
Continuous
 62
     7
100
AcDbLine
 10
1107.145875131926
 20
1026.481289423298
 30
0.0
 11
1106.88955486664
 21
1026.508196184386
 31
0.0
  0
LINE
  5
168
330
22
100
AcDbEntity
  8
_2-2_IN_LINE
  6
Continuous
 62
     7
100
AcDbLine
 10
1106.88955486664
 20
1026.508196184386
 30
0.0
 11
1106.633159538061
 21
1026.52705443169
 31
0.0
  0
LINE
  5
169
330
22
100
AcDbEntity
  8
_2-2_IN_LINE
  6
Continuous
 62
     7
100
AcDbLine
 10
1106.633159538061
 20
1026.52705443169
 30
0.0
 11
1106.37713170143
 21
1026.536400522873
 31
0.0
  0
LINE
  5
16A
330
22
100
AcDbEntity
  8
_2-2_IN_LINE
  6
Continuous
 62
     7
100
AcDbLine
 10
1106.37713170143
 20
1026.536400522873
 30
0.0
 11
1106.121913911994
 21
1026.534770815626
 31
0.0
  0
LINE
  5
16B
330
22
100
AcDbEntity
  8
_2-2_IN_LINE
  6
Continuous
 62
     7
100
AcDbLine
 10
1106.121913911994
 20
1026.534770815626
 30
0.0
 11
1105.867948725005
 21
1026.520701667626
 31
0.0
  0
LINE
  5
16C
330
22
100
AcDbEntity
  8
_2-2_IN_LINE
  6
Continuous
 62
     7
100
AcDbLine
 10
1105.867948725005
 20
1026.520701667626
 30
0.0
 11
1105.721397248768
 21
1026.506265058845
 31
0.0
  0
LINE
  5
16D
330
22
100
AcDbEntity
  8
_2-2_IN_LINE
  6
Continuous
 62
     7
100
AcDbLine
 10
1105.721397248768
 20
1026.506265058845
 30
0.0
 11
1105.614053057203
 21
1026.492575272762
 31
0.0
  0
LINE
  5
16E
330
22
100
AcDbEntity
  8
_2-2_IN_LINE
  6
Continuous
 62
     7
100
AcDbLine
 10
1105.614053057203
 20
1026.492575272762
 30
0.0
 11
1105.429602996434
 21
1026.463615641515
 31
0.0
  0
LINE
  5
16F
330
22
100
AcDbEntity
  8
_2-2_IN_LINE
  6
Continuous
 62
     7
100
AcDbLine
 10
1105.429602996434
 20
1026.463615641515
 30
0.0
 11
1105.245632138991
 21
1026.42930015998
 31
0.0
  0
LINE
  5
170
330
22
100
AcDbEntity
  8
_2-2_IN_LINE
  6
Continuous
 62
     7
100
AcDbLine
 10
1105.245632138991
 20
1026.42930015998
 30
0.0
 11
1105.061776103131
 21
1026.391285333953
 31
0.0
  0
LINE
  5
171
330
22
100
AcDbEntity
  8
_2-2_IN_LINE
  6
Continuous
 62
     7
100
AcDbLine
 10
1105.061776103131
 20
1026.391285333953
 30
0.0
 11
1104.877670507113
 21
1026.351227669247
 31
0.0
  0
LINE
  5
172
330
22
100
AcDbEntity
  8
_2-2_IN_LINE
  6
Continuous
 62
     7
100
AcDbLine
 10
1104.877670507113
 20
1026.351227669247
 30
0.0
 11
1104.692950969185
 21
1026.31078367167
 31
0.0
  0
LINE
  5
173
330
22
100
AcDbEntity
  8
_2-2_IN_LINE
  6
Continuous
 62
     7
100
AcDbLine
 10
1104.692950969185
 20
1026.31078367167
 30
0.0
 11
1104.58538874365
 21
1026.287801884785
 31
0.0
  0
LINE
  5
174
330
22
100
AcDbEntity
  8
_2-2_IN_LINE
  6
Continuous
 62
     7
100
AcDbLine
 10
1104.58538874365
 20
1026.287801884785
 30
0.0
 11
1104.463277512322
 21
1026.262528163288
 31
0.0
  0
LINE
  5
175
330
22
100
AcDbEntity
  8
_2-2_IN_LINE
  6
Continuous
 62
     7
100
AcDbLine
 10
1104.463277512322
 20
1026.262528163288
 30
0.0
 11
1104.252479488759
 21
1026.219178647052
 31
0.0
  0
LINE
  5
176
330
22
100
AcDbEntity
  8
_2-2_IN_LINE
  6
Continuous
 62
     7
100
AcDbLine
 10
1104.252479488759
 20
1026.219178647052
 30
0.0
 11
1104.042774264918
 21
1026.173045488902
 31
0.0
  0
LINE
  5
177
330
22
100
AcDbEntity
  8
_2-2_IN_LINE
  6
Continuous
 62
     7
100
AcDbLine
 10
1104.042774264918
 20
1026.173045488902
 30
0.0
 11
1103.835817315649
 21
1026.1205594472
 31
0.0
  0
LINE
  5
178
330
22
100
AcDbEntity
  8
_2-2_IN_LINE
  6
Continuous
 62
     7
100
AcDbLine
 10
1103.835817315649
 20
1026.1205594472
 30
0.0
 11
1103.633264115798
 21
1026.058151280299
 31
0.0
  0
LINE
  5
179
330
22
100
AcDbEntity
  8
_2-2_IN_LINE
  6
Continuous
 62
     7
100
AcDbLine
 10
1103.633264115798
 20
1026.058151280299
 30
0.0
 11
1103.436770140198
 21
1025.982251746566
 31
0.0
  0
LINE
  5
17A
330
22
100
AcDbEntity
  8
_2-2_IN_LINE
  6
Continuous
 62
     7
100
AcDbLine
 10
1103.436770140198
 20
1025.982251746566
 30
0.0
 11
1103.326232314076
 21
1025.93064180591
 31
0.0
  0
LINE
  5
17B
330
22
100
AcDbEntity
  8
_2-2_IN_LINE
  6
Continuous
 62
     7
100
AcDbLine
 10
1103.326232314076
 20
1025.93064180591
 30
0.0
 11
1103.226910082895
 21
1025.877556333985
 31
0.0
  0
LINE
  5
17C
330
22
100
AcDbEntity
  8
_2-2_IN_LINE
  6
Continuous
 62
     7
100
AcDbLine
 10
1103.226910082895
 20
1025.877556333985
 30
0.0
 11
1103.061486167709
 21
1025.774270052889
 31
0.0
  0
LINE
  5
17D
330
22
100
AcDbEntity
  8
_2-2_IN_LINE
  6
Continuous
 62
     7
100
AcDbLine
 10
1103.061486167709
 20
1025.774270052889
 30
0.0
 11
1102.903434596347
 21
1025.657720421155
 31
0.0
  0
LINE
  5
17E
330
22
100
AcDbEntity
  8
_2-2_IN_LINE
  6
Continuous
 62
     7
100
AcDbLine
 10
1102.903434596347
 20
1025.657720421155
 30
0.0
 11
1102.752759549932
 21
1025.52979374784
 31
0.0
  0
LINE
  5
17F
330
22
100
AcDbEntity
  8
_2-2_IN_LINE
  6
Continuous
 62
     7
100
AcDbLine
 10
1102.752759549932
 20
1025.52979374784
 30
0.0
 11
1102.609465209563
 21
1025.392376341993
 31
0.0
  0
LINE
  5
180
330
22
100
AcDbEntity
  8
_2-2_IN_LINE
  6
Continuous
 62
     7
100
AcDbLine
 10
1102.609465209563
 20
1025.392376341993
 30
0.0
 11
1102.473555756361
 21
1025.247354512663
 31
0.0
  0
LINE
  5
181
330
22
100
AcDbEntity
  8
_2-2_IN_LINE
  6
Continuous
 62
     7
100
AcDbLine
 10
1102.473555756361
 20
1025.247354512663
 30
0.0
 11
1102.398113676374
 21
1025.160500808666
 31
0.0
  0
LINE
  5
182
330
22
100
AcDbEntity
  8
_2-2_IN_LINE
  6
Continuous
 62
     7
100
AcDbLine
 10
1102.398113676374
 20
1025.160500808666
 30
0.0
 11
1102.313818652002
 21
1025.057933420676
 31
0.0
  0
LINE
  5
183
330
22
100
AcDbEntity
  8
_2-2_IN_LINE
  6
Continuous
 62
     7
100
AcDbLine
 10
1102.313818652002
 20
1025.057933420676
 30
0.0
 11
1102.175646792735
 21
1024.876648410937
 31
0.0
  0
LINE
  5
184
330
22
100
AcDbEntity
  8
_2-2_IN_LINE
  6
Continuous
 62
     7
100
AcDbLine
 10
1102.175646792735
 20
1024.876648410937
 30
0.0
 11
1102.045536525717
 21
1024.690423736318
 31
0.0
  0
LINE
  5
185
330
22
100
AcDbEntity
  8
_2-2_IN_LINE
  6
Continuous
 62
     7
100
AcDbLine
 10
1102.045536525717
 20
1024.690423736318
 30
0.0
 11
1101.92231662373
 21
1024.50005767523
 31
0.0
  0
LINE
  5
186
330
22
100
AcDbEntity
  8
_2-2_IN_LINE
  6
Continuous
 62
     7
100
AcDbLine
 10
1101.92231662373
 20
1024.50005767523
 30
0.0
 11
1101.80481585956
 21
1024.306348506086
 31
0.0
  0
LINE
  5
187
330
22
100
AcDbEntity
  8
_2-2_IN_LINE
  6
Continuous
 62
     7
100
AcDbLine
 10
1101.80481585956
 20
1024.306348506086
 30
0.0
 11
1101.691863005991
 21
1024.110094507303
 31
0.0
  0
LINE
  5
188
330
22
100
AcDbEntity
  8
_2-2_IN_LINE
  6
Continuous
 62
     7
100
AcDbLine
 10
1101.691863005991
 20
1024.110094507303
 30
0.0
 11
1101.627972679133
 21
1023.995415710274
 31
0.0
  0
LINE
  5
189
330
22
100
AcDbEntity
  8
_2-2_IN_LINE
  6
Continuous
 62
     7
100
AcDbLine
 10
1101.627972679133
 20
1023.995415710274
 30
0.0
 11
1101.560705311628
 21
1023.872349118138
 31
0.0
  0
LINE
  5
18A
330
22
100
AcDbEntity
  8
_2-2_IN_LINE
  6
Continuous
 62
     7
100
AcDbLine
 10
1101.560705311628
 20
1023.872349118138
 30
0.0
 11
1101.446724070418
 21
1023.659142361769
 31
0.0
  0
LINE
  5
18B
330
22
100
AcDbEntity
  8
_2-2_IN_LINE
  6
Continuous
 62
     7
100
AcDbLine
 10
1101.446724070418
 20
1023.659142361769
 30
0.0
 11
1101.334609522054
 21
1023.444845362233
 31
0.0
  0
LINE
  5
18C
330
22
100
AcDbEntity
  8
_2-2_IN_LINE
  6
Continuous
 62
     7
100
AcDbLine
 10
1101.334609522054
 20
1023.444845362233
 30
0.0
 11
1101.223592912808
 21
1023.229696101157
 31
0.0
  0
LINE
  5
18D
330
22
100
AcDbEntity
  8
_2-2_IN_LINE
  6
Continuous
 62
     7
100
AcDbLine
 10
1101.223592912808
 20
1023.229696101157
 30
0.0
 11
1101.112905488945
 21
1023.01393256018
 31
0.0
  0
LINE
  5
18E
330
22
100
AcDbEntity
  8
_2-2_IN_LINE
  6
Continuous
 62
     7
100
AcDbLine
 10
1101.112905488945
 20
1023.01393256018
 30
0.0
 11
1101.001778496749
 21
1022.797792720921
 31
0.0
  0
LINE
  5
18F
330
22
100
AcDbEntity
  8
_2-2_IN_LINE
  6
Continuous
 62
     7
100
AcDbLine
 10
1101.001778496749
 20
1022.797792720921
 30
0.0
 11
1100.936820502119
 21
1022.67235297142
 31
0.0
  0
LINE
  5
190
330
22
100
AcDbEntity
  8
_2-2_IN_LINE
  6
Continuous
 62
     7
100
AcDbLine
 10
1100.936820502119
 20
1022.67235297142
 30
0.0
 11
1100.848407047944
 21
1022.503524788417
 31
0.0
  0
LINE
  5
191
330
22
100
AcDbEntity
  8
_2-2_IN_LINE
  6
Continuous
 62
     7
100
AcDbLine
 10
1100.848407047944
 20
1022.503524788417
 30
0.0
 11
1100.691902232012
 21
1022.214129022528
 31
0.0
  0
LINE
  5
192
330
22
100
AcDbEntity
  8
_2-2_IN_LINE
  6
Continuous
 62
     7
100
AcDbLine
 10
1100.691902232012
 20
1022.214129022528
 30
0.0
 11
1100.527680638787
 21
1021.929420846275
 31
0.0
  0
LINE
  5
193
330
22
100
AcDbEntity
  8
_2-2_IN_LINE
  6
Continuous
 62
     7
100
AcDbLine
 10
1100.527680638787
 20
1021.929420846275
 30
0.0
 11
1100.352756651401
 21
1021.652367418258
 31
0.0
  0
LINE
  5
194
330
22
100
AcDbEntity
  8
_2-2_IN_LINE
  6
Continuous
 62
     7
100
AcDbLine
 10
1100.352756651401
 20
1021.652367418258
 30
0.0
 11
1100.164144653001
 21
1021.38593589707
 31
0.0
  0
LINE
  5
195
330
22
100
AcDbEntity
  8
_2-2_IN_LINE
  6
Continuous
 62
     7
100
AcDbLine
 10
1100.164144653001
 20
1021.38593589707
 30
0.0
 11
1099.958859026725
 21
1021.133093441313
 31
0.0
  0
LINE
  5
196
330
22
100
AcDbEntity
  8
_2-2_IN_LINE
  6
Continuous
 62
     7
100
AcDbLine
 10
1099.958859026725
 20
1021.133093441313
 30
0.0
 11
1099.830977018899
 21
1020.993840541535
 31
0.0
  0
LINE
  5
197
330
22
100
AcDbEntity
  8
_2-2_IN_LINE
  6
Continuous
 62
     7
100
AcDbLine
 10
1099.830977018899
 20
1020.993840541535
 30
0.0
 11
1099.784761846596
 21
1020.946735535622
 31
0.0
  0
LINE
  5
198
330
22
100
AcDbEntity
  8
_2-2_IN_LINE
  6
Continuous
 62
     7
100
AcDbLine
 10
1099.784761846596
 20
1020.946735535622
 30
0.0
 11
1099.703062585055
 21
1020.86739044059
 31
0.0
  0
LINE
  5
199
330
22
100
AcDbEntity
  8
_2-2_IN_LINE
  6
Continuous
 62
     7
100
AcDbLine
 10
1099.703062585055
 20
1020.86739044059
 30
0.0
 11
1099.618860192724
 21
1020.790590331144
 31
0.0
  0
LINE
  5
19A
330
22
100
AcDbEntity
  8
_2-2_IN_LINE
  6
Continuous
 62
     7
100
AcDbLine
 10
1099.618860192724
 20
1020.790590331144
 30
0.0
 11
1099.53221421723
 21
1020.716541427821
 31
0.0
  0
LINE
  5
19B
330
22
100
AcDbEntity
  8
_2-2_IN_LINE
  6
Continuous
 62
     7
100
AcDbLine
 10
1099.53221421723
 20
1020.716541427821
 30
0.0
 11
1099.443184206194
 21
1020.645449951131
 31
0.0
  0
LINE
  5
19C
330
22
100
AcDbEntity
  8
_2-2_IN_LINE
  6
Continuous
 62
     7
100
AcDbLine
 10
1099.443184206194
 20
1020.645449951131
 30
0.0
 11
1099.35182970724
 21
1020.577522121601
 31
0.0
  0
LINE
  5
19D
330
22
100
AcDbEntity
  8
_2-2_IN_LINE
  6
Continuous
 62
     7
100
AcDbLine
 10
1099.35182970724
 20
1020.577522121601
 30
0.0
 11
1099.297802482348
 21
1020.539654825207
 31
0.0
  0
LINE
  5
19E
330
22
100
AcDbEntity
  8
_2-2_IN_LINE
  6
Continuous
 62
     7
100
AcDbLine
 10
1099.297802482348
 20
1020.539654825207
 30
0.0
 11
1099.208201071259
 21
1020.480362134834
 31
0.0
  0
LINE
  5
19F
330
22
100
AcDbEntity
  8
_2-2_IN_LINE
  6
Continuous
 62
     7
100
AcDbLine
 10
1099.208201071259
 20
1020.480362134834
 30
0.0
 11
1099.050009627088
 21
1020.383948870638
 31
0.0
  0
LINE
  5
1A0
330
22
100
AcDbEntity
  8
_2-2_IN_LINE
  6
Continuous
 62
     7
100
AcDbLine
 10
1099.050009627088
 20
1020.383948870638
 30
0.0
 11
1098.888598340056
 21
1020.292620461567
 31
0.0
  0
LINE
  5
1A1
330
22
100
AcDbEntity
  8
_2-2_IN_LINE
  6
Continuous
 62
     7
100
AcDbLine
 10
1098.888598340056
 20
1020.292620461567
 30
0.0
 11
1098.725678391762
 21
1020.203729753117
 31
0.0
  0
LINE
  5
1A2
330
22
100
AcDbEntity
  8
_2-2_IN_LINE
  6
Continuous
 62
     7
100
AcDbLine
 10
1098.725678391762
 20
1020.203729753117
 30
0.0
 11
1098.56296096381
 21
1020.114629590783
 31
0.0
  0
LINE
  5
1A3
330
22
100
AcDbEntity
  8
_2-2_IN_LINE
  6
Continuous
 62
     7
100
AcDbLine
 10
1098.56296096381
 20
1020.114629590783
 30
0.0
 11
1098.402157237798
 21
1020.022672820051
 31
0.0
  0
LINE
  5
1A4
330
22
100
AcDbEntity
  8
_2-2_IN_LINE
  6
Continuous
 62
     7
100
AcDbLine
 10
1098.402157237798
 20
1020.022672820051
 30
0.0
 11
1098.310442229473
 21
1019.966985878544
 31
0.0
  0
LINE
  5
1A5
330
22
100
AcDbEntity
  8
_2-2_IN_LINE
  6
Continuous
 62
     7
100
AcDbLine
 10
1098.310442229473
 20
1019.966985878544
 30
0.0
 11
1098.218031237074
 21
1019.907621108669
 31
0.0
  0
LINE
  5
1A6
330
22
100
AcDbEntity
  8
_2-2_IN_LINE
  6
Continuous
 62
     7
100
AcDbLine
 10
1098.218031237074
 20
1019.907621108669
 30
0.0
 11
1098.062088234918
 21
1019.800119346903
 31
0.0
  0
LINE
  5
1A7
330
22
100
AcDbEntity
  8
_2-2_IN_LINE
  6
Continuous
 62
     7
100
AcDbLine
 10
1098.062088234918
 20
1019.800119346903
 30
0.0
 11
1097.909765692695
 21
1019.687136156934
 31
0.0
  0
LINE
  5
1A8
330
22
100
AcDbEntity
  8
_2-2_IN_LINE
  6
Continuous
 62
     7
100
AcDbLine
 10
1097.909765692695
 20
1019.687136156934
 30
0.0
 11
1097.760289203963
 21
1019.569876104538
 31
0.0
  0
LINE
  5
1A9
330
22
100
AcDbEntity
  8
_2-2_IN_LINE
  6
Continuous
 62
     7
100
AcDbLine
 10
1097.760289203963
 20
1019.569876104538
 30
0.0
 11
1097.612884362269
 21
1019.449543755491
 31
0.0
  0
LINE
  5
1AA
330
22
100
AcDbEntity
  8
_2-2_IN_LINE
  6
Continuous
 62
     7
100
AcDbLine
 10
1097.612884362269
 20
1019.449543755491
 30
0.0
 11
1097.466776761172
 21
1019.327343675568
 31
0.0
  0
LINE
  5
1AB
330
22
100
AcDbEntity
  8
_2-2_IN_LINE
  6
Continuous
 62
     7
100
AcDbLine
 10
1097.466776761172
 20
1019.327343675568
 30
0.0
 11
1097.38232359177
 21
1019.256086496473
 31
0.0
  0
LINE
  5
1AC
330
22
100
AcDbEntity
  8
_2-2_IN_LINE
  6
Continuous
 62
     7
100
AcDbLine
 10
1097.38232359177
 20
1019.256086496473
 30
0.0
 11
1097.276481728151
 21
1019.166605912572
 31
0.0
  0
LINE
  5
1AD
330
22
100
AcDbEntity
  8
_2-2_IN_LINE
  6
Continuous
 62
     7
100
AcDbLine
 10
1097.276481728151
 20
1019.166605912572
 30
0.0
 11
1097.09490894984
 21
1019.011522858778
 31
0.0
  0
LINE
  5
1AE
330
22
100
AcDbEntity
  8
_2-2_IN_LINE
  6
Continuous
 62
     7
100
AcDbLine
 10
1097.09490894984
 20
1019.011522858778
 30
0.0
 11
1096.915734297217
 21
1018.854133690539
 31
0.0
  0
LINE
  5
1AF
330
22
100
AcDbEntity
  8
_2-2_IN_LINE
  6
Continuous
 62
     7
100
AcDbLine
 10
1096.915734297217
 20
1018.854133690539
 30
0.0
 11
1096.740402170991
 21
1018.692943492607
 31
0.0
  0
LINE
  5
1B0
330
22
100
AcDbEntity
  8
_2-2_IN_LINE
  6
Continuous
 62
     7
100
AcDbLine
 10
1096.740402170991
 20
1018.692943492607
 30
0.0
 11
1096.57035697188
 21
1018.526457349761
 31
0.0
  0
LINE
  5
1B1
330
22
100
AcDbEntity
  8
_2-2_IN_LINE
  6
Continuous
 62
     7
100
AcDbLine
 10
1096.57035697188
 20
1018.526457349761
 30
0.0
 11
1096.407043100604
 21
1018.353180346749
 31
0.0
  0
LINE
  5
1B2
330
22
100
AcDbEntity
  8
_2-2_IN_LINE
  6
Continuous
 62
     7
100
AcDbLine
 10
1096.407043100604
 20
1018.353180346749
 30
0.0
 11
1096.315974518665
 21
1018.24897903854
 31
0.0
  0
LINE
  5
1B3
330
22
100
AcDbEntity
  8
_2-2_IN_LINE
  6
Continuous
 62
     7
100
AcDbLine
 10
1096.315974518665
 20
1018.24897903854
 30
0.0
 11
1096.264315246027
 21
1018.186891763017
 31
0.0
  0
LINE
  5
1B4
330
22
100
AcDbEntity
  8
_2-2_IN_LINE
  6
Continuous
 62
     7
100
AcDbLine
 10
1096.264315246027
 20
1018.186891763017
 30
0.0
 11
1096.177990135722
 21
1018.07741902318
 31
0.0
  0
LINE
  5
1B5
330
22
100
AcDbEntity
  8
_2-2_IN_LINE
  6
Continuous
 62
     7
100
AcDbLine
 10
1096.177990135722
 20
1018.07741902318
 30
0.0
 11
1096.09563026359
 21
1017.964917765419
 31
0.0
  0
LINE
  5
1B6
330
22
100
AcDbEntity
  8
_2-2_IN_LINE
  6
Continuous
 62
     7
100
AcDbLine
 10
1096.09563026359
 20
1017.964917765419
 30
0.0
 11
1096.017809572842
 21
1017.84943683271
 31
0.0
  0
LINE
  5
1B7
330
22
100
AcDbEntity
  8
_2-2_IN_LINE
  6
Continuous
 62
     7
100
AcDbLine
 10
1096.017809572842
 20
1017.84943683271
 30
0.0
 11
1095.9451020067
 21
1017.731025068018
 31
0.0
  0
LINE
  5
1B8
330
22
100
AcDbEntity
  8
_2-2_IN_LINE
  6
Continuous
 62
     7
100
AcDbLine
 10
1095.9451020067
 20
1017.731025068018
 30
0.0
 11
1095.878081508371
 21
1017.609731314313
 31
0.0
  0
LINE
  5
1B9
330
22
100
AcDbEntity
  8
_2-2_IN_LINE
  6
Continuous
 62
     7
100
AcDbLine
 10
1095.878081508371
 20
1017.609731314313
 30
0.0
 11
1095.842041597285
 21
1017.538079656472
 31
0.0
  0
LINE
  5
1BA
330
22
100
AcDbEntity
  8
_2-2_IN_LINE
  6
Continuous
 62
     7
100
AcDbLine
 10
1095.842041597285
 20
1017.538079656472
 30
0.0
 11
1095.795389743927
 21
1017.436603765419
 31
0.0
  0
LINE
  5
1BB
330
22
100
AcDbEntity
  8
_2-2_IN_LINE
  6
Continuous
 62
     7
100
AcDbLine
 10
1095.795389743927
 20
1017.436603765419
 30
0.0
 11
1095.723902985575
 21
1017.257839386366
 31
0.0
  0
LINE
  5
1BC
330
22
100
AcDbEntity
  8
_2-2_IN_LINE
  6
Continuous
 62
     7
100
AcDbLine
 10
1095.723902985575
 20
1017.257839386366
 30
0.0
 11
1095.661951646952
 21
1017.075018968221
 31
0.0
  0
LINE
  5
1BD
330
22
100
AcDbEntity
  8
_2-2_IN_LINE
  6
Continuous
 62
     7
100
AcDbLine
 10
1095.661951646952
 20
1017.075018968221
 30
0.0
 11
1095.607453758684
 21
1016.889028109031
 31
0.0
  0
LINE
  5
1BE
330
22
100
AcDbEntity
  8
_2-2_IN_LINE
  6
Continuous
 62
     7
100
AcDbLine
 10
1095.607453758684
 20
1016.889028109031
 30
0.0
 11
1095.558327351397
 21
1016.700752406855
 31
0.0
  0
LINE
  5
1BF
330
22
100
AcDbEntity
  8
_2-2_IN_LINE
  6
Continuous
 62
     7
100
AcDbLine
 10
1095.558327351397
 20
1016.700752406855
 30
0.0
 11
1095.512490455718
 21
1016.511077459755
 31
0.0
  0
LINE
  5
1C0
330
22
100
AcDbEntity
  8
_2-2_IN_LINE
  6
Continuous
 62
     7
100
AcDbLine
 10
1095.512490455718
 20
1016.511077459755
 30
0.0
 11
1095.486591906248
 21
1016.400773828093
 31
0.0
  0
LINE
  5
1C1
330
22
100
AcDbEntity
  8
_2-2_IN_LINE
  6
Continuous
 62
     7
100
AcDbLine
 10
1164.234467768864
 20
1016.400773828093
 30
0.0
 11
1106.234467768865
 21
1016.400773828093
 31
0.0
  0
ARC
  5
1C2
330
22
100
AcDbEntity
  8
_2-2_IN_LINE
  6
Continuous
 62
     7
100
AcDbCircle
 10
1172.234467768864
 20
1153.400773828094
 30
0.0
 40
8.0
100
AcDbArc
 50
90.0
 51
180.0
  0
LINE
  5
1C3
330
22
100
AcDbEntity
  8
_2-2_IN_LINE
  6
Continuous
 62
     7
100
AcDbLine
 10
1164.234467768864
 20
1153.400773828094
 30
0.0
 11
1164.234467768864
 21
1011.400773828093
 31
0.0
  0
LINE
  5
1C4
330
22
100
AcDbEntity
  8
_2-2_IN_LINE
  6
Continuous
 62
     7
100
AcDbLine
 10
1172.234467768864
 20
1161.400773828093
 30
0.0
 11
1403.914094916032
 21
1161.400773828093
 31
0.0
  0
TEXT
  5
1C5
330
22
100
AcDbEntity
  8
_2-B_DIM
 62
     7
100
AcDbText
 10
824.0021285219372
 20
974.1202900213993
 30
0.0
 40
15.0
  1
40以上
100
AcDbText
  0
TEXT
  5
1C6
330
22
100
AcDbEntity
  8
_2-B_DIM
 62
     7
100
AcDbText
 10
1109.792600998579
 20
974.1202900213993
 30
0.0
 40
15.0
  1
40以上
100
AcDbText
  0
TEXT
  5
1C7
330
22
100
AcDbEntity
  8
_2-A_MOJI
 62
     7
100
AcDbText
 10
771.9815857393747
 20
1291.715042971316
 30
0.0
 40
15.0
  1
Ｋ－１０（ホルダー内、ロンシーラントＬ充填）
100
AcDbText
  0
LINE
  5
1C8
330
22
100
AcDbEntity
  8
_2-A_MOJI
  6
Continuous
 62
     7
100
AcDbLine
 10
714.6721840300564
 20
1267.750066041376
 30
0.0
 11
732.8384969306025
 21
1299.215042971316
 31
0.0
  0
LINE
  5
1C9
330
22
100
AcDbEntity
  8
_2-A_MOJI
  6
Continuous
 62
     7
100
AcDbLine
 10
761.9815857393747
 20
1299.215042971316
 30
0.0
 11
732.8384969306025
 21
1299.215042971316
 31
0.0
  0
LINE
  5
1CA
330
22
100
AcDbEntity
  8
_2-4_OUT_LINE
  6
Continuous
 62
     2
100
AcDbLine
 10
804.2344677688644
 20
1266.400773828094
 30
0.0
 11
723.7761344355297
 21
1266.400773828094
 31
0.0
  0
ARC
  5
1CB
330
22
100
AcDbEntity
  8
_2-4_OUT_LINE
  6
Continuous
 62
     2
100
AcDbCircle
 10
804.2344677688644
 20
1251.400773828093
 30
0.0
 40
15.0
100
AcDbArc
 50
0.0
 51
90.00000000000003
  0
ARC
  5
1CC
330
22
100
AcDbEntity
  8
_2-2_IN_LINE
  6
Continuous
 62
     7
100
AcDbCircle
 10
804.2344677688644
 20
1251.400773828093
 30
0.0
 40
10.0
100
AcDbArc
 50
0.0
 51
90.00000000000003
  0
LINE
  5
1CD
330
22
100
AcDbEntity
  8
_2-2_IN_LINE
  6
Continuous
 62
     7
100
AcDbLine
 10
669.2344677688644
 20
1265.900773828094
 30
0.0
 11
669.2344677688644
 21
1261.400773828093
 31
0.0
  0
ARC
  5
1CE
330
22
100
AcDbEntity
  8
_2-2_IN_LINE
  6
Continuous
 62
     7
100
AcDbCircle
 10
662.4190753869972
 20
1268.445654252389
 30
0.0
 40
7.275025064752136
100
AcDbArc
 50
284.4501521415896
 51
339.5242728500532
  0
LINE
  5
1CF
330
22
100
AcDbEntity
  8
_2-2_IN_LINE
  6
Continuous
 62
     7
100
AcDbLine
 10
669.2344677688644
 20
1261.400773828093
 30
0.0
 11
664.2344677688644
 21
1261.400773828093
 31
0.0
  0
LINE
  5
1D0
330
22
100
AcDbEntity
  8
_2-6_鋼板__アングル
  6
Continuous
 62
     2
100
AcDbLine
 10
660.259475898728
 20
1267.600773828094
 30
0.0
 11
660.259475898728
 21
1226.100773828094
 31
0.0
  0
ARC
  5
1D1
330
22
100
AcDbEntity
  8
_2-6_鋼板__アングル
  6
Continuous
 62
     2
100
AcDbCircle
 10
657.8594758987279
 20
1222.85224569067
 30
0.0
 40
0.5999999999999887
100
AcDbArc
 50
135.0
 51
315.0
  0
LINE
  5
1D2
330
22
100
AcDbEntity
  8
_2-6_鋼板__アングル
  6
Continuous
 62
     2
100
AcDbLine
 10
660.259475898728
 20
1226.100773828094
 30
0.0
 11
657.4352118300171
 21
1223.276509759383
 31
0.0
  0
LINE
  5
1D3
330
22
100
AcDbEntity
  8
_2-6_鋼板__アングル
  6
Continuous
 62
     2
100
AcDbLine
 10
661.7594758987288
 20
1225.903717553247
 30
0.0
 11
658.2837399674408
 21
1222.427981621959
 31
0.0
  0
LINE
  5
1D4
330
22
100
AcDbEntity
  8
_2-6_鋼板__アングル
  6
Continuous
 62
     2
100
AcDbLine
 10
711.0094758987282
 20
1272.100773828095
 30
0.0
 11
710.509475898729
 21
1271.600773828095
 31
0.0
  0
LINE
  5
1D5
330
22
100
AcDbEntity
  8
_2-6_鋼板__アングル
  6
Continuous
 62
     2
100
AcDbLine
 10
710.0094758987268
 20
1272.100773828095
 30
0.0
 11
710.509475898729
 21
1271.600773828095
 31
0.0
  0
LINE
  5
1D6
330
22
100
AcDbEntity
  8
_2-6_鋼板__アングル
  6
Continuous
 62
     2
100
AcDbLine
 10
710.0094758987268
 20
1272.100773828095
 30
0.0
 11
705.0094758987269
 21
1272.100773828095
 31
0.0
  0
LINE
  5
1D7
330
22
100
AcDbEntity
  8
_2-6_鋼板__アングル
  6
Continuous
 62
     2
100
AcDbLine
 10
701.2594758987269
 20
1267.600773828094
 30
0.0
 11
705.0094758987269
 21
1272.100773828095
 31
0.0
  0
LINE
  5
1D8
330
22
100
AcDbEntity
  8
_2-6_鋼板__アングル
  6
Continuous
 62
     2
100
AcDbLine
 10
716.0094758987282
 20
1272.100773828095
 30
0.0
 11
711.0094758987282
 21
1272.100773828095
 31
0.0
  0
LINE
  5
1D9
330
22
100
AcDbEntity
  8
_2-6_鋼板__アングル
  6
Continuous
 62
     2
100
AcDbLine
 10
701.2594758987269
 20
1267.600773828094
 30
0.0
 11
660.259475898728
 21
1267.600773828094
 31
0.0
  0
LINE
  5
1DA
330
22
100
AcDbEntity
  8
_2-6_鋼板__アングル
  6
Continuous
 62
     2
100
AcDbLine
 10
661.7594758987288
 20
1236.679453484535
 30
0.0
 11
661.7594758987288
 21
1225.903717553247
 31
0.0
  0
ARC
  5
1DB
330
22
100
AcDbEntity
  8
_2-6_鋼板__アングル
  6
Continuous
 62
     2
100
AcDbCircle
 10
662.0594758987285
 20
1236.679453484535
 30
0.0
 40
0.3
100
AcDbArc
 50
45.0
 51
180.0
  0
ARC
  5
1DC
330
22
100
AcDbEntity
  8
_2-6_鋼板__アングル
  6
Continuous
 62
     2
100
AcDbCircle
 10
726.6594758987289
 20
1267.700773828094
 30
0.0
 40
0.5999999999999944
100
AcDbArc
 50
270.0
 51
90.0
  0
LINE
  5
1DD
330
22
100
AcDbEntity
  8
_2-6_鋼板__アングル
  6
Continuous
 62
     2
100
AcDbLine
 10
723.7594758987269
 20
1265.900773828094
 30
0.0
 11
723.2594758987276
 21
1266.400773828094
 31
0.0
  0
LINE
  5
1DE
330
22
100
AcDbEntity
  8
_2-6_鋼板__アングル
  6
Continuous
 62
     2
100
AcDbLine
 10
723.2594758987276
 20
1266.400773828094
 30
0.0
 11
722.7594758987278
 21
1265.900773828094
 31
0.0
  0
LINE
  5
1DF
330
22
100
AcDbEntity
  8
_2-6_鋼板__アングル
  6
Continuous
 62
     2
100
AcDbLine
 10
722.7594758987278
 20
1265.900773828094
 30
0.0
 11
722.2594758987282
 21
1266.400773828094
 31
0.0
  0
LINE
  5
1E0
330
22
100
AcDbEntity
  8
_2-6_鋼板__アングル
  6
Continuous
 62
     2
100
AcDbLine
 10
722.2594758987282
 20
1266.400773828094
 30
0.0
 11
721.7594758987287
 21
1265.900773828094
 31
0.0
  0
LINE
  5
1E1
330
22
100
AcDbEntity
  8
_2-6_鋼板__アングル
  6
Continuous
 62
     2
100
AcDbLine
 10
721.7594758987287
 20
1265.900773828094
 30
0.0
 11
721.2594758987269
 21
1266.400773828094
 31
0.0
  0
LINE
  5
1E2
330
22
100
AcDbEntity
  8
_2-6_鋼板__アングル
  6
Continuous
 62
     2
100
AcDbLine
 10
721.2594758987269
 20
1266.400773828094
 30
0.0
 11
720.7594758987275
 21
1265.900773828094
 31
0.0
  0
LINE
  5
1E3
330
22
100
AcDbEntity
  8
_2-6_鋼板__アングル
  6
Continuous
 62
     2
100
AcDbLine
 10
723.7594758987269
 20
1265.900773828094
 30
0.0
 11
725.0594758987281
 21
1267.100773828095
 31
0.0
  0
LINE
  5
1E4
330
22
100
AcDbEntity
  8
_2-6_鋼板__アングル
  6
Continuous
 62
     2
100
AcDbLine
 10
721.7594758987287
 20
1265.900773828094
 30
0.0
 11
721.2594758987269
 21
1266.400773828094
 31
0.0
  0
LINE
  5
1E5
330
22
100
AcDbEntity
  8
_2-6_鋼板__アングル
  6
Continuous
 62
     2
100
AcDbLine
 10
721.2594758987269
 20
1266.400773828094
 30
0.0
 11
720.7594758987275
 21
1265.900773828094
 31
0.0
  0
LINE
  5
1E6
330
22
100
AcDbEntity
  8
_2-6_鋼板__アングル
  6
Continuous
 62
     2
100
AcDbLine
 10
721.7594758987287
 20
1265.900773828094
 30
0.0
 11
721.2594758987269
 21
1266.400773828094
 31
0.0
  0
LINE
  5
1E7
330
22
100
AcDbEntity
  8
_2-6_鋼板__アングル
  6
Continuous
 62
     2
100
AcDbLine
 10
721.2594758987269
 20
1266.400773828094
 30
0.0
 11
720.7594758987275
 21
1265.900773828094
 31
0.0
  0
LINE
  5
1E8
330
22
100
AcDbEntity
  8
_2-6_鋼板__アングル
  6
Continuous
 62
     2
100
AcDbLine
 10
720.7594758987275
 20
1265.900773828094
 30
0.0
 11
720.259475898728
 21
1266.400773828094
 31
0.0
  0
LINE
  5
1E9
330
22
100
AcDbEntity
  8
_2-6_鋼板__アングル
  6
Continuous
 62
     2
100
AcDbLine
 10
726.6594758987289
 20
1267.100773828095
 30
0.0
 11
725.0594758987281
 21
1267.100773828095
 31
0.0
  0
LINE
  5
1EA
330
22
100
AcDbEntity
  8
_2-6_鋼板__アングル
  6
Continuous
 62
     2
100
AcDbLine
 10
720.0477365349424
 20
1266.18903446431
 30
0.0
 11
719.8574129115391
 21
1265.998710840904
 31
0.0
  0
LINE
  5
1EB
330
22
100
AcDbEntity
  8
_2-6_鋼板__アングル
  6
Continuous
 62
     2
100
AcDbLine
 10
720.259475898728
 20
1266.400773828094
 30
0.0
 11
719.5810028881522
 21
1265.722300817518
 31
0.0
  0
LINE
  5
1EC
330
22
100
AcDbEntity
  8
_2-6_鋼板__アングル
  6
Continuous
 62
     2
100
AcDbLine
 10
726.6594758987289
 20
1268.300773828094
 30
0.0
 11
719.1761425653944
 21
1268.300773828094
 31
0.0
  0
ARC
  5
1ED
330
22
100
AcDbEntity
  8
_2-6_鋼板__アングル
  6
Continuous
 62
     2
100
AcDbCircle
 10
710.509475898729
 20
1259.500773828095
 30
0.0
 40
11.0
100
AcDbArc
 50
34.44350562282312
 51
144.4214742675413
  0
LINE
  5
1EE
330
22
100
AcDbEntity
  8
_2-6_鋼板__アングル
  6
Continuous
 62
     2
100
AcDbLine
 10
716.0094758987282
 20
1272.100773828095
 30
0.0
 11
719.1761425653944
 21
1268.300773828094
 31
0.0
  0
LINE
  5
1EF
330
22
100
AcDbEntity
  8
_2-6_鋼板__アングル
  6
Continuous
 62
     2
100
AcDbLine
 10
661.7594758987288
 20
1239.100773828095
 30
0.0
 11
664.0425415965126
 21
1236.817708130309
 31
0.0
  0
ARC
  5
1F0
330
22
100
AcDbEntity
  8
_2-6_鋼板__アングル
  6
Continuous
 62
     2
100
AcDbCircle
 10
663.6182775277999
 20
1236.393444061598
 30
0.0
 40
0.5999999999999988
100
AcDbArc
 50
224.9999999999981
 51
44.99999999999807
  0
LINE
  5
1F1
330
22
100
AcDbEntity
  8
_2-6_鋼板__アングル
  6
Continuous
 62
     2
100
AcDbLine
 10
662.2716079330841
 20
1236.891585518891
 30
0.0
 11
663.1940134590867
 21
1235.969179992885
 31
0.0
  0
LINE
  5
1F2
330
22
100
AcDbEntity
  8
_2-6_鋼板__アングル
  6
Continuous
 62
     2
100
AcDbLine
 10
661.7594758987288
 20
1265.900773828094
 30
0.0
 11
701.5629682001908
 21
1265.900773828094
 31
0.0
  0
LINE
  5
1F3
330
22
100
AcDbEntity
  8
_2-6_鋼板__アングル
  6
Continuous
 62
     2
100
AcDbLine
 10
661.7594758987288
 20
1265.900773828094
 30
0.0
 11
661.7594758987288
 21
1239.100773828095
 31
0.0
  0
ARC
  5
1F4
330
22
100
AcDbEntity
  8
_2-7_ビス
  6
Continuous
 62
     7
100
AcDbCircle
 10
710.509475898729
 20
1272.100773828095
 30
0.0
 40
3.311199832977679
100
AcDbArc
 50
0.0
 51
180.0
  0
LINE
  5
1F5
330
22
100
AcDbEntity
  8
_2-7_ビス
  6
Continuous
 62
     7
100
AcDbLine
 10
713.8206757317074
 20
1272.100773828095
 30
0.0
 11
707.1982760657525
 21
1272.100773828095
 31
0.0
  0
LINE
  5
1F6
330
22
100
AcDbEntity
  8
_2-7_ビス
  6
Continuous
 62
     7
100
AcDbLine
 10
712.5094758987292
 20
1272.100773828095
 30
0.0
 11
712.5094758987292
 21
1261.400773828093
 31
0.0
  0
LINE
  5
1F7
330
22
100
AcDbEntity
  8
_2-7_ビス
  6
Continuous
 62
     7
100
AcDbLine
 10
708.5094758987282
 20
1272.100773828095
 30
0.0
 11
708.5094758987282
 21
1261.400773828093
 31
0.0
  0
LINE
  5
1F8
330
22
100
AcDbEntity
  8
_2-D_ハッチ他
  6
Continuous
 62
     4
100
AcDbLine
 10
716.4350400923025
 20
1265.900773828094
 30
0.0
 11
718.0468144244188
 21
1267.512548160212
 31
0.0
  0
LINE
  5
1F9
330
22
100
AcDbEntity
  8
_2-D_ハッチ他
  6
Continuous
 62
     4
100
AcDbLine
 10
712.8995061863783
 20
1265.900773828094
 30
0.0
 11
716.0198111106856
 21
1269.021078752403
 31
0.0
  0
LINE
  5
1FA
330
22
100
AcDbEntity
  8
_2-D_ハッチ他
  6
Continuous
 62
     4
100
AcDbLine
 10
702.2929044685715
 20
1265.900773828096
 30
0.0
 11
705.8637002600008
 21
1269.471569619527
 31
0.0
  0
LINE
  5
1FB
330
22
100
AcDbEntity
  8
_2-D_ハッチ他
  6
Continuous
 62
     4
100
AcDbLine
 10
705.8284383745106
 20
1265.900773828094
 30
0.0
 11
708.5094758987282
 21
1268.58181135231
 31
0.0
  0
LINE
  5
1FC
330
22
100
AcDbEntity
  8
_2-D_ハッチ他
  6
Continuous
 62
     4
100
AcDbLine
 10
712.5094758987292
 20
1269.046277446387
 30
0.0
 11
713.5386608568879
 21
1270.075462404548
 31
0.0
  0
LINE
  5
1FD
330
22
100
AcDbEntity
  8
_2-2_IN_LINE
  6
Continuous
 62
     7
100
AcDbLine
 10
701.5629682001908
 20
1265.900773828094
 30
0.0
 11
708.5094758987282
 21
1265.900773828094
 31
0.0
  0
LINE
  5
1FE
330
22
100
AcDbEntity
  8
_2-2_IN_LINE
  6
Continuous
 62
     7
100
AcDbLine
 10
712.5094758987292
 20
1265.900773828094
 30
0.0
 11
719.4559835972667
 21
1265.900773828094
 31
0.0
  0
LINE
  5
1FF
330
22
100
AcDbEntity
  8
_2-2_IN_LINE
  6
Continuous
 62
     7
100
AcDbLine
 10
664.2344677688644
 20
1261.400773828093
 30
0.0
 11
664.2344677688644
 21
1236.534985110624
 31
0.0
  0
LINE
  5
200
330
22
100
AcDbEntity
  8
_2-2_IN_LINE
  6
RAND5
 62
     1
100
AcDbLine
 10
694.2344677688644
 20
1261.400773828093
 30
0.0
 11
669.2344677688644
 21
1261.400773828093
 31
0.0
  0
LINE
  5
201
330
22
100
AcDbEntity
  8
_2-D_ハッチ他
  6
Continuous
 62
     4
100
AcDbLine
 10
664.6821965986717
 20
1261.53159089761
 30
0.0
 11
664.8130136681892
 21
1261.400773828092
 31
0.0
  0
LINE
  5
202
330
22
100
AcDbEntity
  8
_2-D_ハッチ他
  6
Continuous
 62
     4
100
AcDbLine
 10
665.683731869673
 20
1261.944269188975
 30
0.0
 11
666.2272272305553
 21
1261.400773828092
 31
0.0
  0
LINE
  5
203
330
22
100
AcDbEntity
  8
_2-D_ハッチ他
  6
Continuous
 62
     4
100
AcDbLine
 10
666.5706831336084
 20
1262.471531487415
 30
0.0
 11
667.6414407929295
 21
1261.400773828093
 31
0.0
  0
LINE
  5
204
330
22
100
AcDbEntity
  8
_2-D_ハッチ他
  6
Continuous
 62
     4
100
AcDbLine
 10
667.3550917114052
 20
1263.101336471993
 30
0.0
 11
669.0556543553055
 21
1261.400773828092
 31
0.0
  0
LINE
  5
205
330
22
100
AcDbEntity
  8
_2-D_ハッチ他
  6
Continuous
 62
     4
100
AcDbLine
 10
668.04160466996
 20
1263.829037075813
 30
0.0
 11
669.2344677688676
 21
1262.636173976905
 31
0.0
  0
LINE
  5
206
330
22
100
AcDbEntity
  8
_2-D_ハッチ他
  6
Continuous
 62
     4
100
AcDbLine
 10
668.6290124981135
 20
1264.655842810025
 30
0.0
 11
669.2344677688655
 21
1264.050387539273
 31
0.0
  0
LINE
  5
207
330
22
100
AcDbEntity
  8
_2-D_ハッチ他
  6
Continuous
 62
     4
100
AcDbLine
 10
669.1098657993487
 20
1265.589203071165
 30
0.0
 11
669.2344677688655
 21
1265.464601101649
 31
0.0
  0
LINE
  5
208
330
22
100
AcDbEntity
  8
_2-A_MOJI
  6
Continuous
 62
     7
100
AcDbLine
 10
683.3378573668168
 20
1261.400773828093
 30
0.0
 11
719.6036925656065
 21
1324.215042971316
 31
0.0
  0
LINE
  5
209
330
22
100
AcDbEntity
  8
_2-A_MOJI
  6
Continuous
 62
     7
100
AcDbLine
 10
761.9815857393747
 20
1324.215042971316
 30
0.0
 11
703.834667668881
 21
1324.215042971316
 31
0.0
  0
LINE
  5
20A
330
22
100
AcDbEntity
  8
_2-A_MOJI
  6
Continuous
 62
     7
100
AcDbLine
 10
668.6238603558754
 20
1263.228135729672
 30
0.0
 11
703.834667668881
 21
1324.215042971316
 31
0.0
  0
TEXT
  5
20B
330
22
100
AcDbEntity
  8
_2-A_MOJI
 62
     7
100
AcDbText
 10
771.9815857393747
 20
1316.715042971316
 30
0.0
 40
15.0
  1
ロンシーラントＬ
100
AcDbText
  0
LINE
  5
20C
330
22
100
AcDbEntity
  8
_2-2_IN_LINE
  6
Continuous
 62
     7
100
AcDbLine
 10
804.2344677688644
 20
1261.400773828093
 30
0.0
 11
694.2344677688644
 21
1261.400773828093
 31
0.0
  0
LINE
  5
20D
330
22
100
AcDbEntity
  8
_2-4_OUT_LINE
  6
Continuous
 62
     2
100
AcDbLine
 10
664.2344677688644
 20
1236.534985110624
 30
0.0
 11
664.2344677688644
 21
861.4007738280935
 31
0.0
  0
LINE
  5
20E
330
22
100
AcDbEntity
  8
_2-7_ビス
  6
Continuous
 62
     7
100
AcDbLine
 10
713.5094758987295
 20
1257.305288655181
 30
0.0
 11
713.5094758987295
 21
1261.400773828093
 31
0.0
  0
LINE
  5
20F
330
22
100
AcDbEntity
  8
_2-7_ビス
  6
Continuous
 62
     7
100
AcDbLine
 10
713.5094758987295
 20
1261.400773828093
 30
0.0
 11
710.509475898729
 21
1261.400773828093
 31
0.0
  0
LINE
  5
210
330
22
100
AcDbEntity
  8
_2-7_ビス
  6
Continuous
 62
     7
100
AcDbLine
 10
713.5094758987295
 20
1257.305288655181
 30
0.0
 11
714.2594758987289
 21
1256.480727734977
 31
0.0
  0
LINE
  5
211
330
22
100
AcDbEntity
  8
_2-7_ビス
  6
Continuous
 62
     7
100
AcDbLine
 10
714.2594758987289
 20
1256.480727734977
 30
0.0
 11
714.2594758987289
 21
1254.382122007863
 31
0.0
  0
LINE
  5
212
330
22
100
AcDbEntity
  8
_2-7_ビス
  6
Continuous
 62
     7
100
AcDbLine
 10
714.2594758987289
 20
1254.382122007863
 30
0.0
 11
713.7112566487282
 21
1250.264528694613
 31
0.0
  0
LINE
  5
213
330
22
100
AcDbEntity
  8
_2-7_ビス
  6
Continuous
 62
     7
100
AcDbLine
 10
713.7112566487282
 20
1250.264528694613
 30
0.0
 11
713.4693328987284
 21
1249.856914186093
 31
0.0
  0
LINE
  5
214
330
22
100
AcDbEntity
  8
_2-7_ビス
  6
Continuous
 62
     7
100
AcDbLine
 10
713.4693328987284
 20
1249.856914186093
 30
0.0
 11
713.5094758987295
 21
1249.856914186093
 31
0.0
  0
LINE
  5
215
330
22
100
AcDbEntity
  8
_2-7_ビス
  6
Continuous
 62
     7
100
AcDbLine
 10
713.5094758987295
 20
1249.856914186093
 30
0.0
 11
713.5094758987295
 21
1248.042879099493
 31
0.0
  0
LINE
  5
216
330
22
100
AcDbEntity
  8
_2-7_ビス
  6
Continuous
 62
     7
100
AcDbLine
 10
713.5094758987295
 20
1248.042879099493
 30
0.0
 11
713.0764633381616
 21
1247.218317696493
 31
0.0
  0
LINE
  5
217
330
22
100
AcDbEntity
  8
_2-7_ビス
  6
Continuous
 62
     7
100
AcDbLine
 10
713.206367148729
 20
1246.970949275592
 30
0.0
 11
714.1844758987283
 21
1246.970949275592
 31
0.0
  0
LINE
  5
218
330
22
100
AcDbEntity
  8
_2-7_ビス
  6
Continuous
 62
     7
100
AcDbLine
 10
714.1844758987283
 20
1246.970949275592
 30
0.0
 11
714.1844758987283
 21
1242.737558681713
 31
0.0
  0
LINE
  5
219
330
22
100
AcDbEntity
  8
_2-7_ビス
  6
Continuous
 62
     7
100
AcDbLine
 10
714.1844758987283
 20
1242.737558681713
 30
0.0
 11
713.6830063987283
 21
1241.776212436693
 31
0.0
  0
LINE
  5
21A
330
22
100
AcDbEntity
  8
_2-7_ビス
  6
Continuous
 62
     7
100
AcDbLine
 10
713.6830063987283
 20
1241.776212436693
 30
0.0
 11
713.6782258987287
 21
1241.776212436693
 31
0.0
  0
LINE
  5
21B
330
22
100
AcDbEntity
  8
_2-7_ビス
  6
Continuous
 62
     7
100
AcDbLine
 10
713.678221725444
 20
1241.776212790475
 30
0.0
 11
713.6782258987287
 21
1241.776212436693
 31
0.0
  0
LINE
  5
21C
330
22
100
AcDbEntity
  8
_2-7_ビス
  6
Continuous
 62
     7
100
AcDbLine
 10
713.678221725444
 20
1241.776212790475
 30
0.0
 11
713.6782258987287
 21
1241.776212436693
 31
0.0
  0
LINE
  5
21D
330
22
100
AcDbEntity
  8
_2-7_ビス
  6
Continuous
 62
     7
100
AcDbLine
 10
713.6456346487287
 20
1240.704282612793
 30
0.0
 11
714.1844758987283
 21
1240.704282612793
 31
0.0
  0
LINE
  5
21E
330
22
100
AcDbEntity
  8
_2-7_ビス
  6
Continuous
 62
     7
100
AcDbLine
 10
714.1844758987283
 20
1240.704282612793
 30
0.0
 11
714.1844758987283
 21
1234.907049476019
 31
0.0
  0
LINE
  5
21F
330
22
100
AcDbEntity
  8
_2-7_ビス
  6
Continuous
 62
     7
100
AcDbLine
 10
714.1844758987283
 20
1234.907049476019
 30
0.0
 11
713.6782287116686
 21
1233.942898106255
 31
0.0
  0
LINE
  5
220
330
22
100
AcDbEntity
  8
_2-7_ビス
  6
Continuous
 62
     7
100
AcDbLine
 10
713.6782258987287
 20
1233.942879108193
 30
0.0
 11
713.6746342683729
 21
1234.420330505433
 31
0.0
  0
LINE
  5
221
330
22
100
AcDbEntity
  8
_2-7_ビス
  6
Continuous
 62
     7
100
AcDbLine
 10
713.6746342683729
 20
1234.420330505433
 30
0.0
 11
713.3539542607492
 21
1234.437615949993
 31
0.0
  0
LINE
  5
222
330
22
100
AcDbEntity
  8
_2-7_ビス
  6
Continuous
 62
     7
100
AcDbLine
 10
713.1952922205815
 20
1234.684984370893
 30
0.0
 11
713.6456346487287
 21
1235.509545773893
 31
0.0
  0
LINE
  5
223
330
22
100
AcDbEntity
  8
_2-7_ビス
  6
Continuous
 62
     7
100
AcDbLine
 10
713.6456346487287
 20
1235.509545773893
 30
0.0
 11
713.6456348008518
 21
1235.986997242888
 31
0.0
  0
LINE
  5
224
330
22
100
AcDbEntity
  8
_2-7_ビス
  6
Continuous
 62
     7
100
AcDbLine
 10
713.6456348008518
 20
1235.986997242888
 30
0.0
 11
713.2976023987295
 21
1236.004282615693
 31
0.0
  0
LINE
  5
225
330
22
100
AcDbEntity
  8
_2-7_ビス
  6
Continuous
 62
     7
100
AcDbLine
 10
713.1380126490081
 20
1236.251651036593
 30
0.0
 11
713.6456346487287
 21
1237.076212439593
 31
0.0
  0
LINE
  5
226
330
22
100
AcDbEntity
  8
_2-7_ビス
  6
Continuous
 62
     7
100
AcDbLine
 10
713.6456346487287
 20
1237.076212439593
 30
0.0
 11
713.6456346487287
 21
1237.553664000701
 31
0.0
  0
LINE
  5
227
330
22
100
AcDbEntity
  8
_2-7_ビス
  6
Continuous
 62
     7
100
AcDbLine
 10
713.6456346487287
 20
1237.553664000701
 30
0.0
 11
713.2976023987295
 21
1237.570949281393
 31
0.0
  0
LINE
  5
228
330
22
100
AcDbEntity
  8
_2-7_ビス
  6
Continuous
 62
     7
100
AcDbLine
 10
713.1380126490081
 20
1237.818317702293
 30
0.0
 11
713.6456346487287
 21
1238.642879105293
 31
0.0
  0
LINE
  5
229
330
22
100
AcDbEntity
  8
_2-7_ビス
  6
Continuous
 62
     7
100
AcDbLine
 10
713.6456346487287
 20
1238.642879105293
 30
0.0
 11
713.6456346487287
 21
1239.120330666401
 31
0.0
  0
LINE
  5
22A
330
22
100
AcDbEntity
  8
_2-7_ビス
  6
Continuous
 62
     7
100
AcDbLine
 10
713.6456346487287
 20
1239.120330666401
 30
0.0
 11
713.2976023987295
 21
1239.137615947093
 31
0.0
  0
LINE
  5
22B
330
22
100
AcDbEntity
  8
_2-7_ビス
  6
Continuous
 62
     7
100
AcDbLine
 10
713.1380126490081
 20
1239.384984367993
 30
0.0
 11
713.6456348008518
 21
1240.209545770993
 31
0.0
  0
LINE
  5
22C
330
22
100
AcDbEntity
  8
_2-7_ビス
  6
Continuous
 62
     7
100
AcDbLine
 10
713.6456348008518
 20
1240.209545770993
 30
0.0
 11
713.6456346487287
 21
1240.704282612793
 31
0.0
  0
LINE
  5
22D
330
22
100
AcDbEntity
  8
_2-7_ビス
  6
Continuous
 62
     7
100
AcDbLine
 10
713.678221725444
 20
1241.776212790475
 30
0.0
 11
713.6745365241984
 21
1242.253664259469
 31
0.0
  0
LINE
  5
22E
330
22
100
AcDbEntity
  8
_2-7_ビス
  6
Continuous
 62
     7
100
AcDbLine
 10
713.6745365241984
 20
1242.253664259469
 30
0.0
 11
713.3570916487295
 21
1242.270949278493
 31
0.0
  0
LINE
  5
22F
330
22
100
AcDbEntity
  8
_2-7_ビス
  6
Continuous
 62
     7
100
AcDbLine
 10
713.1949995084088
 20
1242.518317699393
 30
0.0
 11
713.6456348008518
 21
1243.342879102393
 31
0.0
  0
LINE
  5
230
330
22
100
AcDbEntity
  8
_2-7_ビス
  6
Continuous
 62
     7
100
AcDbLine
 10
713.6456348008518
 20
1243.342879102393
 30
0.0
 11
713.6456348008518
 21
1243.820330571386
 31
0.0
  0
LINE
  5
231
330
22
100
AcDbEntity
  8
_2-7_ビス
  6
Continuous
 62
     7
100
AcDbLine
 10
713.6456348008518
 20
1243.820330571386
 30
0.0
 11
713.2976023987295
 21
1243.837615944193
 31
0.0
  0
LINE
  5
232
330
22
100
AcDbEntity
  8
_2-7_ビス
  6
Continuous
 62
     7
100
AcDbLine
 10
713.1380126490081
 20
1244.084984365093
 30
0.0
 11
713.6456346487287
 21
1244.909545768093
 31
0.0
  0
LINE
  5
233
330
22
100
AcDbEntity
  8
_2-7_ビス
  6
Continuous
 62
     7
100
AcDbLine
 10
713.6456346487287
 20
1244.909545768093
 30
0.0
 11
713.6456348008518
 21
1245.386997237087
 31
0.0
  0
LINE
  5
234
330
22
100
AcDbEntity
  8
_2-7_ビス
  6
Continuous
 62
     7
100
AcDbLine
 10
713.6456348008518
 20
1245.386997237087
 30
0.0
 11
713.2967163062406
 21
1245.404514191053
 31
0.0
  0
LINE
  5
235
330
22
100
AcDbEntity
  8
_2-7_ビス
  6
Continuous
 62
     7
100
AcDbLine
 10
713.1380126490081
 20
1245.651651030793
 30
0.0
 11
713.6456348008518
 21
1246.476212433793
 31
0.0
  0
LINE
  5
236
330
22
100
AcDbEntity
  8
_2-7_ビス
  6
Continuous
 62
     7
100
AcDbLine
 10
713.6456348008518
 20
1246.476212433793
 30
0.0
 11
713.6456346432216
 21
1246.970949275592
 31
0.0
  0
LINE
  5
237
330
22
100
AcDbEntity
  8
_2-7_ビス
  6
Continuous
 62
     7
100
AcDbLine
 10
713.6456346487287
 20
1232.870949284293
 30
0.0
 11
714.1844758987283
 21
1232.870949284293
 31
0.0
  0
LINE
  5
238
330
22
100
AcDbEntity
  8
_2-7_ビス
  6
Continuous
 62
     7
100
AcDbLine
 10
714.1844758987283
 20
1232.870949284293
 30
0.0
 11
714.1844758987283
 21
1229.622707549456
 31
0.0
  0
LINE
  5
239
330
22
100
AcDbEntity
  8
_2-7_ビス
  6
Continuous
 62
     7
100
AcDbLine
 10
714.1844758987283
 20
1229.622707549456
 30
0.0
 11
713.6786901487292
 21
1226.109545779693
 31
0.0
  0
LINE
  5
23A
330
22
100
AcDbEntity
  8
_2-7_ビス
  6
Continuous
 62
     7
100
AcDbLine
 10
713.6786901487292
 20
1226.109545779693
 30
0.0
 11
713.677955631065
 21
1226.586996863834
 31
0.0
  0
LINE
  5
23B
330
22
100
AcDbEntity
  8
_2-7_ビス
  6
Continuous
 62
     7
100
AcDbLine
 10
713.677955631065
 20
1226.586996863834
 30
0.0
 11
713.3692671487282
 21
1226.604282621493
 31
0.0
  0
LINE
  5
23C
330
22
100
AcDbEntity
  8
_2-7_ビス
  6
Continuous
 62
     7
100
AcDbLine
 10
713.6786901487292
 20
1226.109545779693
 30
0.0
 11
713.2452133381619
 21
1225.284984376692
 31
0.0
  0
LINE
  5
23D
330
22
100
AcDbEntity
  8
_2-7_ビス
  6
Continuous
 62
     7
100
AcDbLine
 10
713.2247105839407
 20
1226.851651042393
 30
0.0
 11
713.675312917401
 21
1227.676212445392
 31
0.0
  0
LINE
  5
23E
330
22
100
AcDbEntity
  8
_2-7_ビス
  6
Continuous
 62
     7
100
AcDbLine
 10
713.675312917401
 20
1227.676212445392
 30
0.0
 11
713.6732280131392
 21
1228.153663529533
 31
0.0
  0
LINE
  5
23F
330
22
100
AcDbEntity
  8
_2-7_ビス
  6
Continuous
 62
     7
100
AcDbLine
 10
713.6732280131392
 20
1228.153663529533
 30
0.0
 11
713.3509011487287
 21
1228.170949287193
 31
0.0
  0
LINE
  5
240
330
22
100
AcDbEntity
  8
_2-7_ビス
  6
Continuous
 62
     7
100
AcDbLine
 10
713.2023956529113
 20
1228.418317708093
 30
0.0
 11
713.6662635122345
 21
1229.242878726239
 31
0.0
  0
LINE
  5
241
330
22
100
AcDbEntity
  8
_2-7_ビス
  6
Continuous
 62
     7
100
AcDbLine
 10
713.6662635122345
 20
1229.242878726239
 30
0.0
 11
713.6622006715381
 21
1229.720330195234
 31
0.0
  0
LINE
  5
242
330
22
100
AcDbEntity
  8
_2-7_ビス
  6
Continuous
 62
     7
100
AcDbLine
 10
713.6622006715381
 20
1229.720330195234
 30
0.0
 11
713.3275473162703
 21
1229.737615952893
 31
0.0
  0
LINE
  5
243
330
22
100
AcDbEntity
  8
_2-7_ビス
  6
Continuous
 62
     7
100
AcDbLine
 10
713.1702927001017
 20
1229.984984373793
 30
0.0
 11
713.6504953243072
 21
1230.809545391939
 31
0.0
  0
LINE
  5
244
330
22
100
AcDbEntity
  8
_2-7_ビス
  6
Continuous
 62
     7
100
AcDbLine
 10
713.6504953243072
 20
1230.809545391939
 30
0.0
 11
713.6456346487287
 21
1231.286997337901
 31
0.0
  0
LINE
  5
245
330
22
100
AcDbEntity
  8
_2-7_ビス
  6
Continuous
 62
     7
100
AcDbLine
 10
713.6456346487287
 20
1231.286997337901
 30
0.0
 11
713.2976023987295
 21
1231.304282618593
 31
0.0
  0
LINE
  5
246
330
22
100
AcDbEntity
  8
_2-7_ビス
  6
Continuous
 62
     7
100
AcDbLine
 10
713.1380126490081
 20
1231.551651039493
 30
0.0
 11
713.6456348008518
 21
1232.376212442493
 31
0.0
  0
LINE
  5
247
330
22
100
AcDbEntity
  8
_2-7_ビス
  6
Continuous
 62
     7
100
AcDbLine
 10
713.6456348008518
 20
1232.376212442493
 30
0.0
 11
713.6456346487287
 21
1232.870949284293
 31
0.0
  0
LINE
  5
248
330
22
100
AcDbEntity
  8
_2-7_ビス
  6
Continuous
 62
     7
100
AcDbLine
 10
713.3751171487282
 20
1225.037615955793
 30
0.0
 11
713.5094758987295
 21
1225.037615955793
 31
0.0
  0
LINE
  5
249
330
22
100
AcDbEntity
  8
_2-7_ビス
  6
Continuous
 62
     7
100
AcDbLine
 10
713.5094758987295
 20
1225.037615955793
 30
0.0
 11
713.5094758987295
 21
1224.254282622943
 31
0.0
  0
LINE
  5
24A
330
22
100
AcDbEntity
  8
_2-7_ビス
  6
Continuous
 62
     7
100
AcDbLine
 10
713.5094758987295
 20
1224.254282622943
 30
0.0
 11
713.3594758987285
 21
1224.254282622943
 31
0.0
  0
LINE
  5
24B
330
22
100
AcDbEntity
  8
_2-7_ビス
  6
Continuous
 62
     7
100
AcDbLine
 10
713.3594758987285
 20
1224.254282622943
 30
0.0
 11
713.3594758987285
 21
1222.646387887093
 31
0.0
  0
LINE
  5
24C
330
22
100
AcDbEntity
  8
_2-7_ビス
  6
Continuous
 62
     7
100
AcDbLine
 10
713.3594758987285
 20
1222.646387887093
 30
0.0
 11
713.3530090879278
 21
1222.646387887093
 31
0.0
  0
LINE
  5
24D
330
22
100
AcDbEntity
  8
_2-7_ビス
  6
Continuous
 62
     7
100
AcDbLine
 10
713.3027338987292
 20
1222.316563325893
 30
0.0
 11
713.3027337521903
 21
1216.366121733073
 31
0.0
  0
LINE
  5
24E
330
22
100
AcDbEntity
  8
_2-7_ビス
  6
Continuous
 62
     7
100
AcDbLine
 10
713.3027337521903
 20
1216.366121733073
 30
0.0
 11
712.862296398729
 21
1215.714700908914
 31
0.0
  0
LINE
  5
24F
330
22
100
AcDbEntity
  8
_2-7_ビス
  6
Continuous
 62
     7
100
AcDbLine
 10
712.862296398729
 20
1215.714700908914
 30
0.0
 11
711.8594758987287
 21
1214.400773857093
 31
0.0
  0
LINE
  5
250
330
22
100
AcDbEntity
  8
_2-7_ビス
  6
Continuous
 62
     7
100
AcDbLine
 10
711.8594758987287
 20
1214.400773857093
 30
0.0
 11
711.7100974192343
 21
1214.400773857093
 31
0.0
  0
LINE
  5
251
330
22
100
AcDbEntity
  8
_2-7_ビス
  6
Continuous
 62
     7
100
AcDbLine
 10
711.7100974192343
 20
1214.400773857093
 30
0.0
 11
712.7951915285486
 21
1216.366121733073
 31
0.0
  0
LINE
  5
252
330
22
100
AcDbEntity
  8
_2-7_ビス
  6
Continuous
 62
     7
100
AcDbLine
 10
712.7951915285486
 20
1216.366121733073
 30
0.0
 11
712.7951916487291
 21
1220.337615958693
 31
0.0
  0
LINE
  5
253
330
22
100
AcDbEntity
  8
_2-7_ビス
  6
Continuous
 62
     7
100
AcDbLine
 10
712.2118281487295
 20
1220.337615958693
 30
0.0
 11
712.2118284221609
 21
1216.366121885772
 31
0.0
  0
LINE
  5
254
330
22
100
AcDbEntity
  8
_2-7_ビス
  6
Continuous
 62
     7
100
AcDbLine
 10
712.2118284221609
 20
1216.366121885772
 30
0.0
 11
711.1267340569284
 21
1214.400773857093
 31
0.0
  0
LINE
  5
255
330
22
100
AcDbEntity
  8
_2-7_ビス
  6
Continuous
 62
     7
100
AcDbLine
 10
711.1267340569284
 20
1214.400773857093
 30
0.0
 11
710.509475898729
 21
1214.400773857093
 31
0.0
  0
LINE
  5
256
330
22
100
AcDbEntity
  8
_2-7_ビス
  6
Continuous
 62
     7
100
AcDbLine
 10
713.0871760038119
 20
1247.238717109159
 30
0.0
 11
713.0871760038119
 21
1247.238717109159
 31
0.0
  0
LINE
  5
257
330
22
100
AcDbEntity
  8
_2-7_ビス
  6
Continuous
 62
     7
100
AcDbLine
 10
713.0871760038119
 20
1247.238717109159
 30
0.0
 11
713.0739778784572
 21
1247.212457753782
 31
0.0
  0
LINE
  5
258
330
22
100
AcDbEntity
  8
_2-7_ビス
  6
Continuous
 62
     7
100
AcDbLine
 10
713.0739778784572
 20
1247.212457753782
 30
0.0
 11
713.0651278210859
 21
1247.184077663813
 31
0.0
  0
LINE
  5
259
330
22
100
AcDbEntity
  8
_2-7_ビス
  6
Continuous
 62
     7
100
AcDbLine
 10
713.0651278210859
 20
1247.184077663813
 30
0.0
 11
713.0608947362126
 21
1247.154439153925
 31
0.0
  0
LINE
  5
25A
330
22
100
AcDbEntity
  8
_2-7_ビス
  6
Continuous
 62
     7
100
AcDbLine
 10
713.0608947362126
 20
1247.154439153925
 30
0.0
 11
713.0614072439799
 21
1247.124442775242
 31
0.0
  0
LINE
  5
25B
330
22
100
AcDbEntity
  8
_2-7_ビス
  6
Continuous
 62
     7
100
AcDbLine
 10
713.0614072439799
 20
1247.124442775242
 30
0.0
 11
713.0666497720978
 21
1247.094999952552
 31
0.0
  0
LINE
  5
25C
330
22
100
AcDbEntity
  8
_2-7_ビス
  6
Continuous
 62
     7
100
AcDbLine
 10
713.0666497720978
 20
1247.094999952552
 30
0.0
 11
713.0764630290033
 21
1247.067005291123
 31
0.0
  0
LINE
  5
25D
330
22
100
AcDbEntity
  8
_2-7_ビス
  6
Continuous
 62
     7
100
AcDbLine
 10
713.0764630290033
 20
1247.067005291123
 30
0.0
 11
713.0905488438501
 21
1247.041309394578
 31
0.0
  0
LINE
  5
25E
330
22
100
AcDbEntity
  8
_2-7_ビス
  6
Continuous
 62
     7
100
AcDbLine
 10
713.0905488438501
 20
1247.041309394578
 30
0.0
 11
713.1084792262823
 21
1247.01869301973
 31
0.0
  0
LINE
  5
25F
330
22
100
AcDbEntity
  8
_2-7_ビス
  6
Continuous
 62
     7
100
AcDbLine
 10
713.1084792262823
 20
1247.01869301973
 30
0.0
 11
713.1297093707027
 21
1246.999843353684
 31
0.0
  0
LINE
  5
260
330
22
100
AcDbEntity
  8
_2-7_ビス
  6
Continuous
 62
     7
100
AcDbLine
 10
713.1297093707027
 20
1246.999843353684
 30
0.0
 11
713.1535942099167
 21
1246.985333134004
 31
0.0
  0
LINE
  5
261
330
22
100
AcDbEntity
  8
_2-7_ビス
  6
Continuous
 62
     7
100
AcDbLine
 10
713.1535942099167
 20
1246.985333134004
 30
0.0
 11
713.1794080151703
 21
1246.975603246374
 31
0.0
  0
LINE
  5
262
330
22
100
AcDbEntity
  8
_2-7_ビス
  6
Continuous
 62
     7
100
AcDbLine
 10
713.1794080151703
 20
1246.975603246374
 30
0.0
 11
713.2063664470535
 21
1246.970949328505
 31
0.0
  0
LINE
  5
263
330
22
100
AcDbEntity
  8
_2-7_ビス
  6
Continuous
 62
     7
100
AcDbLine
 10
713.2063664470535
 20
1246.970949328505
 30
0.0
 11
713.206367148729
 21
1246.970949275592
 31
0.0
  0
LINE
  5
264
330
22
100
AcDbEntity
  8
_2-7_ビス
  6
Continuous
 62
     7
100
AcDbLine
 10
713.1380126490076
 20
1245.651651030792
 30
0.0
 11
713.1380126490076
 21
1245.651651030792
 31
0.0
  0
LINE
  5
265
330
22
100
AcDbEntity
  8
_2-7_ビス
  6
Continuous
 62
     7
100
AcDbLine
 10
713.1380126490076
 20
1245.651651030792
 30
0.0
 11
713.1373415434206
 21
1245.611692876804
 31
0.0
  0
LINE
  5
266
330
22
100
AcDbEntity
  8
_2-7_ビス
  6
Continuous
 62
     7
100
AcDbLine
 10
713.1373415434206
 20
1245.611692876804
 30
0.0
 11
713.1429918619845
 21
1245.572213655222
 31
0.0
  0
LINE
  5
267
330
22
100
AcDbEntity
  8
_2-7_ビス
  6
Continuous
 62
     7
100
AcDbLine
 10
713.1429918619845
 20
1245.572213655222
 30
0.0
 11
713.1547919226292
 21
1245.534412922216
 31
0.0
  0
LINE
  5
268
330
22
100
AcDbEntity
  8
_2-7_ビス
  6
Continuous
 62
     7
100
AcDbLine
 10
713.1547919226292
 20
1245.534412922216
 30
0.0
 11
713.1723831864833
 21
1245.499439233931
 31
0.0
  0
LINE
  5
269
330
22
100
AcDbEntity
  8
_2-7_ビス
  6
Continuous
 62
     7
100
AcDbLine
 10
713.1723831864833
 20
1245.499439233931
 30
0.0
 11
713.1952311518958
 21
1245.468355248187
 31
0.0
  0
LINE
  5
26A
330
22
100
AcDbEntity
  8
_2-7_ビス
  6
Continuous
 62
     7
100
AcDbLine
 10
713.1952311518958
 20
1245.468355248187
 30
0.0
 11
713.2226415949997
 21
1245.442105436163
 31
0.0
  0
LINE
  5
26B
330
22
100
AcDbEntity
  8
_2-7_ビス
  6
Continuous
 62
     7
100
AcDbLine
 10
713.2226415949997
 20
1245.442105436163
 30
0.0
 11
713.253781663351
 21
1245.421487385113
 31
0.0
  0
LINE
  5
26C
330
22
100
AcDbEntity
  8
_2-7_ビス
  6
Continuous
 62
     7
100
AcDbLine
 10
713.253781663351
 20
1245.421487385113
 30
0.0
 11
713.2877051817311
 21
1245.407127564086
 31
0.0
  0
LINE
  5
26D
330
22
100
AcDbEntity
  8
_2-7_ビス
  6
Continuous
 62
     7
100
AcDbLine
 10
713.2877051817311
 20
1245.407127564086
 30
0.0
 11
713.2976023987281
 21
1245.404282609892
 31
0.0
  0
LINE
  5
26E
330
22
100
AcDbEntity
  8
_2-7_ビス
  6
Continuous
 62
     7
100
AcDbLine
 10
713.1380126490076
 20
1244.084984365093
 30
0.0
 11
713.1380126490076
 21
1244.084984365093
 31
0.0
  0
LINE
  5
26F
330
22
100
AcDbEntity
  8
_2-7_ビス
  6
Continuous
 62
     7
100
AcDbLine
 10
713.1380126490076
 20
1244.084984365093
 30
0.0
 11
713.1373415434206
 21
1244.045026211104
 31
0.0
  0
LINE
  5
270
330
22
100
AcDbEntity
  8
_2-7_ビス
  6
Continuous
 62
     7
100
AcDbLine
 10
713.1373415434206
 20
1244.045026211104
 30
0.0
 11
713.1429918619845
 21
1244.005546989522
 31
0.0
  0
LINE
  5
271
330
22
100
AcDbEntity
  8
_2-7_ビス
  6
Continuous
 62
     7
100
AcDbLine
 10
713.1429918619845
 20
1244.005546989522
 30
0.0
 11
713.1547919226292
 21
1243.967746256516
 31
0.0
  0
LINE
  5
272
330
22
100
AcDbEntity
  8
_2-7_ビス
  6
Continuous
 62
     7
100
AcDbLine
 10
713.1547919226292
 20
1243.967746256516
 30
0.0
 11
713.1723831864833
 21
1243.932772568231
 31
0.0
  0
LINE
  5
273
330
22
100
AcDbEntity
  8
_2-7_ビス
  6
Continuous
 62
     7
100
AcDbLine
 10
713.1723831864833
 20
1243.932772568231
 30
0.0
 11
713.1952311518958
 21
1243.901688582488
 31
0.0
  0
LINE
  5
274
330
22
100
AcDbEntity
  8
_2-7_ビス
  6
Continuous
 62
     7
100
AcDbLine
 10
713.1952311518958
 20
1243.901688582488
 30
0.0
 11
713.2226415949997
 21
1243.875438770463
 31
0.0
  0
LINE
  5
275
330
22
100
AcDbEntity
  8
_2-7_ビス
  6
Continuous
 62
     7
100
AcDbLine
 10
713.2226415949997
 20
1243.875438770463
 30
0.0
 11
713.253781663351
 21
1243.854820719413
 31
0.0
  0
LINE
  5
276
330
22
100
AcDbEntity
  8
_2-7_ビス
  6
Continuous
 62
     7
100
AcDbLine
 10
713.253781663351
 20
1243.854820719413
 30
0.0
 11
713.2877051817311
 21
1243.840460898387
 31
0.0
  0
LINE
  5
277
330
22
100
AcDbEntity
  8
_2-7_ビス
  6
Continuous
 62
     7
100
AcDbLine
 10
713.2877051817311
 20
1243.840460898387
 30
0.0
 11
713.2976023987281
 21
1243.837615944193
 31
0.0
  0
LINE
  5
278
330
22
100
AcDbEntity
  8
_2-7_ビス
  6
Continuous
 62
     7
100
AcDbLine
 10
713.1949995084092
 20
1242.518317699393
 30
0.0
 11
713.1949995084092
 21
1242.518317699393
 31
0.0
  0
LINE
  5
279
330
22
100
AcDbEntity
  8
_2-7_ビス
  6
Continuous
 62
     7
100
AcDbLine
 10
713.1949995084092
 20
1242.518317699393
 30
0.0
 11
713.1943284028221
 21
1242.478359545404
 31
0.0
  0
LINE
  5
27A
330
22
100
AcDbEntity
  8
_2-7_ビス
  6
Continuous
 62
     7
100
AcDbLine
 10
713.1943284028221
 20
1242.478359545404
 30
0.0
 11
713.199978721386
 21
1242.438880323822
 31
0.0
  0
LINE
  5
27B
330
22
100
AcDbEntity
  8
_2-7_ビス
  6
Continuous
 62
     7
100
AcDbLine
 10
713.199978721386
 20
1242.438880323822
 30
0.0
 11
713.2117787820309
 21
1242.401079590816
 31
0.0
  0
LINE
  5
27C
330
22
100
AcDbEntity
  8
_2-7_ビス
  6
Continuous
 62
     7
100
AcDbLine
 10
713.2117787820309
 20
1242.401079590816
 30
0.0
 11
713.2293700458847
 21
1242.366105902531
 31
0.0
  0
LINE
  5
27D
330
22
100
AcDbEntity
  8
_2-7_ビス
  6
Continuous
 62
     7
100
AcDbLine
 10
713.2293700458847
 20
1242.366105902531
 30
0.0
 11
713.2522180112972
 21
1242.335021916787
 31
0.0
  0
LINE
  5
27E
330
22
100
AcDbEntity
  8
_2-7_ビス
  6
Continuous
 62
     7
100
AcDbLine
 10
713.2522180112972
 20
1242.335021916787
 30
0.0
 11
713.2796284544013
 21
1242.308772104763
 31
0.0
  0
LINE
  5
27F
330
22
100
AcDbEntity
  8
_2-7_ビス
  6
Continuous
 62
     7
100
AcDbLine
 10
713.2796284544013
 20
1242.308772104763
 30
0.0
 11
713.3107685227527
 21
1242.288154053713
 31
0.0
  0
LINE
  5
280
330
22
100
AcDbEntity
  8
_2-7_ビス
  6
Continuous
 62
     7
100
AcDbLine
 10
713.3107685227527
 20
1242.288154053713
 30
0.0
 11
713.3446920411328
 21
1242.273794232686
 31
0.0
  0
LINE
  5
281
330
22
100
AcDbEntity
  8
_2-7_ビス
  6
Continuous
 62
     7
100
AcDbLine
 10
713.3446920411328
 20
1242.273794232686
 30
0.0
 11
713.3545892581298
 21
1242.270949278492
 31
0.0
  0
LINE
  5
282
330
22
100
AcDbEntity
  8
_2-7_ビス
  6
Continuous
 62
     7
100
AcDbLine
 10
713.1380126490076
 20
1239.384984367992
 30
0.0
 11
713.1380126490076
 21
1239.384984367992
 31
0.0
  0
LINE
  5
283
330
22
100
AcDbEntity
  8
_2-7_ビス
  6
Continuous
 62
     7
100
AcDbLine
 10
713.1380126490076
 20
1239.384984367992
 30
0.0
 11
713.1373415434206
 21
1239.345026214004
 31
0.0
  0
LINE
  5
284
330
22
100
AcDbEntity
  8
_2-7_ビス
  6
Continuous
 62
     7
100
AcDbLine
 10
713.1373415434206
 20
1239.345026214004
 30
0.0
 11
713.1429918619845
 21
1239.305546992422
 31
0.0
  0
LINE
  5
285
330
22
100
AcDbEntity
  8
_2-7_ビス
  6
Continuous
 62
     7
100
AcDbLine
 10
713.1429918619845
 20
1239.305546992422
 30
0.0
 11
713.1547919226292
 21
1239.267746259416
 31
0.0
  0
LINE
  5
286
330
22
100
AcDbEntity
  8
_2-7_ビス
  6
Continuous
 62
     7
100
AcDbLine
 10
713.1547919226292
 20
1239.267746259416
 30
0.0
 11
713.1723831864833
 21
1239.232772571131
 31
0.0
  0
LINE
  5
287
330
22
100
AcDbEntity
  8
_2-7_ビス
  6
Continuous
 62
     7
100
AcDbLine
 10
713.1723831864833
 20
1239.232772571131
 30
0.0
 11
713.1952311518958
 21
1239.201688585387
 31
0.0
  0
LINE
  5
288
330
22
100
AcDbEntity
  8
_2-7_ビス
  6
Continuous
 62
     7
100
AcDbLine
 10
713.1952311518958
 20
1239.201688585387
 30
0.0
 11
713.2226415949997
 21
1239.175438773363
 31
0.0
  0
LINE
  5
289
330
22
100
AcDbEntity
  8
_2-7_ビス
  6
Continuous
 62
     7
100
AcDbLine
 10
713.2226415949997
 20
1239.175438773363
 30
0.0
 11
713.253781663351
 21
1239.154820722313
 31
0.0
  0
LINE
  5
28A
330
22
100
AcDbEntity
  8
_2-7_ビス
  6
Continuous
 62
     7
100
AcDbLine
 10
713.253781663351
 20
1239.154820722313
 30
0.0
 11
713.2877051817311
 21
1239.140460901286
 31
0.0
  0
LINE
  5
28B
330
22
100
AcDbEntity
  8
_2-7_ビス
  6
Continuous
 62
     7
100
AcDbLine
 10
713.2877051817311
 20
1239.140460901286
 30
0.0
 11
713.2976023987281
 21
1239.137615947092
 31
0.0
  0
LINE
  5
28C
330
22
100
AcDbEntity
  8
_2-7_ビス
  6
Continuous
 62
     7
100
AcDbLine
 10
713.1380126490076
 20
1237.818317702293
 30
0.0
 11
713.1380126490076
 21
1237.818317702293
 31
0.0
  0
LINE
  5
28D
330
22
100
AcDbEntity
  8
_2-7_ビス
  6
Continuous
 62
     7
100
AcDbLine
 10
713.1380126490076
 20
1237.818317702293
 30
0.0
 11
713.1373415434206
 21
1237.778359548304
 31
0.0
  0
LINE
  5
28E
330
22
100
AcDbEntity
  8
_2-7_ビス
  6
Continuous
 62
     7
100
AcDbLine
 10
713.1373415434206
 20
1237.778359548304
 30
0.0
 11
713.1429918619845
 21
1237.738880326722
 31
0.0
  0
LINE
  5
28F
330
22
100
AcDbEntity
  8
_2-7_ビス
  6
Continuous
 62
     7
100
AcDbLine
 10
713.1429918619845
 20
1237.738880326722
 30
0.0
 11
713.1547919226292
 21
1237.701079593716
 31
0.0
  0
LINE
  5
290
330
22
100
AcDbEntity
  8
_2-7_ビス
  6
Continuous
 62
     7
100
AcDbLine
 10
713.1547919226292
 20
1237.701079593716
 30
0.0
 11
713.1723831864833
 21
1237.666105905431
 31
0.0
  0
LINE
  5
291
330
22
100
AcDbEntity
  8
_2-7_ビス
  6
Continuous
 62
     7
100
AcDbLine
 10
713.1723831864833
 20
1237.666105905431
 30
0.0
 11
713.1952311518958
 21
1237.635021919687
 31
0.0
  0
LINE
  5
292
330
22
100
AcDbEntity
  8
_2-7_ビス
  6
Continuous
 62
     7
100
AcDbLine
 10
713.1952311518958
 20
1237.635021919687
 30
0.0
 11
713.2226415949997
 21
1237.608772107663
 31
0.0
  0
LINE
  5
293
330
22
100
AcDbEntity
  8
_2-7_ビス
  6
Continuous
 62
     7
100
AcDbLine
 10
713.2226415949997
 20
1237.608772107663
 30
0.0
 11
713.253781663351
 21
1237.588154056613
 31
0.0
  0
LINE
  5
294
330
22
100
AcDbEntity
  8
_2-7_ビス
  6
Continuous
 62
     7
100
AcDbLine
 10
713.253781663351
 20
1237.588154056613
 30
0.0
 11
713.2877051817311
 21
1237.573794235586
 31
0.0
  0
LINE
  5
295
330
22
100
AcDbEntity
  8
_2-7_ビス
  6
Continuous
 62
     7
100
AcDbLine
 10
713.2877051817311
 20
1237.573794235586
 30
0.0
 11
713.2976023987281
 21
1237.570949281393
 31
0.0
  0
LINE
  5
296
330
22
100
AcDbEntity
  8
_2-7_ビス
  6
Continuous
 62
     7
100
AcDbLine
 10
713.1380126490076
 20
1236.251651036593
 30
0.0
 11
713.1380126490076
 21
1236.251651036593
 31
0.0
  0
LINE
  5
297
330
22
100
AcDbEntity
  8
_2-7_ビス
  6
Continuous
 62
     7
100
AcDbLine
 10
713.1380126490076
 20
1236.251651036593
 30
0.0
 11
713.1373415434206
 21
1236.211692882604
 31
0.0
  0
LINE
  5
298
330
22
100
AcDbEntity
  8
_2-7_ビス
  6
Continuous
 62
     7
100
AcDbLine
 10
713.1373415434206
 20
1236.211692882604
 30
0.0
 11
713.1429918619845
 21
1236.172213661022
 31
0.0
  0
LINE
  5
299
330
22
100
AcDbEntity
  8
_2-7_ビス
  6
Continuous
 62
     7
100
AcDbLine
 10
713.1429918619845
 20
1236.172213661022
 30
0.0
 11
713.1547919226292
 21
1236.134412928016
 31
0.0
  0
LINE
  5
29A
330
22
100
AcDbEntity
  8
_2-7_ビス
  6
Continuous
 62
     7
100
AcDbLine
 10
713.1547919226292
 20
1236.134412928016
 30
0.0
 11
713.1723831864833
 21
1236.09943923973
 31
0.0
  0
LINE
  5
29B
330
22
100
AcDbEntity
  8
_2-7_ビス
  6
Continuous
 62
     7
100
AcDbLine
 10
713.1723831864833
 20
1236.09943923973
 30
0.0
 11
713.1952311518958
 21
1236.068355253987
 31
0.0
  0
LINE
  5
29C
330
22
100
AcDbEntity
  8
_2-7_ビス
  6
Continuous
 62
     7
100
AcDbLine
 10
713.1952311518958
 20
1236.068355253987
 30
0.0
 11
713.2226415949997
 21
1236.042105441963
 31
0.0
  0
LINE
  5
29D
330
22
100
AcDbEntity
  8
_2-7_ビス
  6
Continuous
 62
     7
100
AcDbLine
 10
713.2226415949997
 20
1236.042105441963
 30
0.0
 11
713.253781663351
 21
1236.021487390913
 31
0.0
  0
LINE
  5
29E
330
22
100
AcDbEntity
  8
_2-7_ビス
  6
Continuous
 62
     7
100
AcDbLine
 10
713.253781663351
 20
1236.021487390913
 30
0.0
 11
713.2877051817311
 21
1236.007127569886
 31
0.0
  0
LINE
  5
29F
330
22
100
AcDbEntity
  8
_2-7_ビス
  6
Continuous
 62
     7
100
AcDbLine
 10
713.2877051817311
 20
1236.007127569886
 30
0.0
 11
713.2976023987281
 21
1236.004282615692
 31
0.0
  0
LINE
  5
2A0
330
22
100
AcDbEntity
  8
_2-7_ビス
  6
Continuous
 62
     7
100
AcDbLine
 10
713.1952922205818
 20
1234.684984370893
 30
0.0
 11
713.1952922205818
 21
1234.684984370893
 31
0.0
  0
LINE
  5
2A1
330
22
100
AcDbEntity
  8
_2-7_ビス
  6
Continuous
 62
     7
100
AcDbLine
 10
713.1952922205818
 20
1234.684984370893
 30
0.0
 11
713.1946211149948
 21
1234.645026216904
 31
0.0
  0
LINE
  5
2A2
330
22
100
AcDbEntity
  8
_2-7_ビス
  6
Continuous
 62
     7
100
AcDbLine
 10
713.1946211149948
 20
1234.645026216904
 30
0.0
 11
713.2002714335587
 21
1234.605546995322
 31
0.0
  0
LINE
  5
2A3
330
22
100
AcDbEntity
  8
_2-7_ビス
  6
Continuous
 62
     7
100
AcDbLine
 10
713.2002714335587
 20
1234.605546995322
 30
0.0
 11
713.2120714942036
 21
1234.567746262316
 31
0.0
  0
LINE
  5
2A4
330
22
100
AcDbEntity
  8
_2-7_ビス
  6
Continuous
 62
     7
100
AcDbLine
 10
713.2120714942036
 20
1234.567746262316
 30
0.0
 11
713.2296627580575
 21
1234.532772574031
 31
0.0
  0
LINE
  5
2A5
330
22
100
AcDbEntity
  8
_2-7_ビス
  6
Continuous
 62
     7
100
AcDbLine
 10
713.2296627580575
 20
1234.532772574031
 30
0.0
 11
713.2525107234702
 21
1234.501688588287
 31
0.0
  0
LINE
  5
2A6
330
22
100
AcDbEntity
  8
_2-7_ビス
  6
Continuous
 62
     7
100
AcDbLine
 10
713.2525107234702
 20
1234.501688588287
 30
0.0
 11
713.2799211665739
 21
1234.475438776263
 31
0.0
  0
LINE
  5
2A7
330
22
100
AcDbEntity
  8
_2-7_ビス
  6
Continuous
 62
     7
100
AcDbLine
 10
713.2799211665739
 20
1234.475438776263
 30
0.0
 11
713.3110612349252
 21
1234.454820725213
 31
0.0
  0
LINE
  5
2A8
330
22
100
AcDbEntity
  8
_2-7_ビス
  6
Continuous
 62
     7
100
AcDbLine
 10
713.3110612349252
 20
1234.454820725213
 30
0.0
 11
713.3449847533055
 21
1234.440460904186
 31
0.0
  0
LINE
  5
2A9
330
22
100
AcDbEntity
  8
_2-7_ビス
  6
Continuous
 62
     7
100
AcDbLine
 10
713.3449847533055
 20
1234.440460904186
 30
0.0
 11
713.3548819703024
 21
1234.437615949993
 31
0.0
  0
LINE
  5
2AA
330
22
100
AcDbEntity
  8
_2-7_ビス
  6
Continuous
 62
     7
100
AcDbLine
 10
713.1380126490076
 20
1231.551651039493
 30
0.0
 11
713.1380126490076
 21
1231.551651039493
 31
0.0
  0
LINE
  5
2AB
330
22
100
AcDbEntity
  8
_2-7_ビス
  6
Continuous
 62
     7
100
AcDbLine
 10
713.1380126490076
 20
1231.551651039493
 30
0.0
 11
713.1373415434206
 21
1231.511692885504
 31
0.0
  0
LINE
  5
2AC
330
22
100
AcDbEntity
  8
_2-7_ビス
  6
Continuous
 62
     7
100
AcDbLine
 10
713.1373415434206
 20
1231.511692885504
 30
0.0
 11
713.1429918619845
 21
1231.472213663922
 31
0.0
  0
LINE
  5
2AD
330
22
100
AcDbEntity
  8
_2-7_ビス
  6
Continuous
 62
     7
100
AcDbLine
 10
713.1429918619845
 20
1231.472213663922
 30
0.0
 11
713.1547919226292
 21
1231.434412930916
 31
0.0
  0
LINE
  5
2AE
330
22
100
AcDbEntity
  8
_2-7_ビス
  6
Continuous
 62
     7
100
AcDbLine
 10
713.1547919226292
 20
1231.434412930916
 30
0.0
 11
713.1723831864833
 21
1231.399439242631
 31
0.0
  0
LINE
  5
2AF
330
22
100
AcDbEntity
  8
_2-7_ビス
  6
Continuous
 62
     7
100
AcDbLine
 10
713.1723831864833
 20
1231.399439242631
 30
0.0
 11
713.1952311518958
 21
1231.368355256887
 31
0.0
  0
LINE
  5
2B0
330
22
100
AcDbEntity
  8
_2-7_ビス
  6
Continuous
 62
     7
100
AcDbLine
 10
713.1952311518958
 20
1231.368355256887
 30
0.0
 11
713.2226415949997
 21
1231.342105444863
 31
0.0
  0
LINE
  5
2B1
330
22
100
AcDbEntity
  8
_2-7_ビス
  6
Continuous
 62
     7
100
AcDbLine
 10
713.2226415949997
 20
1231.342105444863
 30
0.0
 11
713.253781663351
 21
1231.321487393813
 31
0.0
  0
LINE
  5
2B2
330
22
100
AcDbEntity
  8
_2-7_ビス
  6
Continuous
 62
     7
100
AcDbLine
 10
713.253781663351
 20
1231.321487393813
 30
0.0
 11
713.2877051817311
 21
1231.307127572786
 31
0.0
  0
LINE
  5
2B3
330
22
100
AcDbEntity
  8
_2-7_ビス
  6
Continuous
 62
     7
100
AcDbLine
 10
713.2877051817311
 20
1231.307127572786
 30
0.0
 11
713.2976023987281
 21
1231.304282618592
 31
0.0
  0
LINE
  5
2B4
330
22
100
AcDbEntity
  8
_2-7_ビス
  6
Continuous
 62
     7
100
AcDbLine
 10
713.1702927001022
 20
1229.984984373792
 30
0.0
 11
713.1702927001022
 21
1229.984984373792
 31
0.0
  0
LINE
  5
2B5
330
22
100
AcDbEntity
  8
_2-7_ビス
  6
Continuous
 62
     7
100
AcDbLine
 10
713.1702927001022
 20
1229.984984373792
 30
0.0
 11
713.1696215945151
 21
1229.945026219804
 31
0.0
  0
LINE
  5
2B6
330
22
100
AcDbEntity
  8
_2-7_ビス
  6
Continuous
 62
     7
100
AcDbLine
 10
713.1696215945151
 20
1229.945026219804
 30
0.0
 11
713.1752719130791
 21
1229.905546998222
 31
0.0
  0
LINE
  5
2B7
330
22
100
AcDbEntity
  8
_2-7_ビス
  6
Continuous
 62
     7
100
AcDbLine
 10
713.1752719130791
 20
1229.905546998222
 30
0.0
 11
713.187071973724
 21
1229.867746265216
 31
0.0
  0
LINE
  5
2B8
330
22
100
AcDbEntity
  8
_2-7_ビス
  6
Continuous
 62
     7
100
AcDbLine
 10
713.187071973724
 20
1229.867746265216
 30
0.0
 11
713.2046632375778
 21
1229.83277257693
 31
0.0
  0
LINE
  5
2B9
330
22
100
AcDbEntity
  8
_2-7_ビス
  6
Continuous
 62
     7
100
AcDbLine
 10
713.2046632375778
 20
1229.83277257693
 30
0.0
 11
713.2275112029904
 21
1229.801688591187
 31
0.0
  0
LINE
  5
2BA
330
22
100
AcDbEntity
  8
_2-7_ビス
  6
Continuous
 62
     7
100
AcDbLine
 10
713.2275112029904
 20
1229.801688591187
 30
0.0
 11
713.2549216460942
 21
1229.775438779163
 31
0.0
  0
LINE
  5
2BB
330
22
100
AcDbEntity
  8
_2-7_ビス
  6
Continuous
 62
     7
100
AcDbLine
 10
713.2549216460942
 20
1229.775438779163
 30
0.0
 11
713.2860617144456
 21
1229.754820728113
 31
0.0
  0
LINE
  5
2BC
330
22
100
AcDbEntity
  8
_2-7_ビス
  6
Continuous
 62
     7
100
AcDbLine
 10
713.2860617144456
 20
1229.754820728113
 30
0.0
 11
713.3199852328256
 21
1229.740460907086
 31
0.0
  0
LINE
  5
2BD
330
22
100
AcDbEntity
  8
_2-7_ビス
  6
Continuous
 62
     7
100
AcDbLine
 10
713.3199852328256
 20
1229.740460907086
 30
0.0
 11
713.3298824498228
 21
1229.737615952892
 31
0.0
  0
LINE
  5
2BE
330
22
100
AcDbEntity
  8
_2-7_ビス
  6
Continuous
 62
     7
100
AcDbLine
 10
713.2023956529105
 20
1228.418317708093
 30
0.0
 11
713.2023956529105
 21
1228.418317708093
 31
0.0
  0
LINE
  5
2BF
330
22
100
AcDbEntity
  8
_2-7_ビス
  6
Continuous
 62
     7
100
AcDbLine
 10
713.2023956529105
 20
1228.418317708093
 30
0.0
 11
713.2017245473234
 21
1228.378359554104
 31
0.0
  0
LINE
  5
2C0
330
22
100
AcDbEntity
  8
_2-7_ビス
  6
Continuous
 62
     7
100
AcDbLine
 10
713.2017245473234
 20
1228.378359554104
 30
0.0
 11
713.2073748658875
 21
1228.338880332522
 31
0.0
  0
LINE
  5
2C1
330
22
100
AcDbEntity
  8
_2-7_ビス
  6
Continuous
 62
     7
100
AcDbLine
 10
713.2073748658875
 20
1228.338880332522
 30
0.0
 11
713.2191749265324
 21
1228.301079599516
 31
0.0
  0
LINE
  5
2C2
330
22
100
AcDbEntity
  8
_2-7_ビス
  6
Continuous
 62
     7
100
AcDbLine
 10
713.2191749265324
 20
1228.301079599516
 30
0.0
 11
713.2367661903862
 21
1228.266105911231
 31
0.0
  0
LINE
  5
2C3
330
22
100
AcDbEntity
  8
_2-7_ビス
  6
Continuous
 62
     7
100
AcDbLine
 10
713.2367661903862
 20
1228.266105911231
 30
0.0
 11
713.2596141557987
 21
1228.235021925487
 31
0.0
  0
LINE
  5
2C4
330
22
100
AcDbEntity
  8
_2-7_ビス
  6
Continuous
 62
     7
100
AcDbLine
 10
713.2596141557987
 20
1228.235021925487
 30
0.0
 11
713.2870245989025
 21
1228.208772113463
 31
0.0
  0
LINE
  5
2C5
330
22
100
AcDbEntity
  8
_2-7_ビス
  6
Continuous
 62
     7
100
AcDbLine
 10
713.2870245989025
 20
1228.208772113463
 30
0.0
 11
713.3181646672539
 21
1228.188154062413
 31
0.0
  0
LINE
  5
2C6
330
22
100
AcDbEntity
  8
_2-7_ビス
  6
Continuous
 62
     7
100
AcDbLine
 10
713.3181646672539
 20
1228.188154062413
 30
0.0
 11
713.3520881856341
 21
1228.173794241386
 31
0.0
  0
LINE
  5
2C7
330
22
100
AcDbEntity
  8
_2-7_ビス
  6
Continuous
 62
     7
100
AcDbLine
 10
713.3520881856341
 20
1228.173794241386
 30
0.0
 11
713.3619854026313
 21
1228.170949287192
 31
0.0
  0
LINE
  5
2C8
330
22
100
AcDbEntity
  8
_2-7_ビス
  6
Continuous
 62
     7
100
AcDbLine
 10
713.2247105839401
 20
1226.851651042394
 30
0.0
 11
713.2247105839401
 21
1226.851651042394
 31
0.0
  0
LINE
  5
2C9
330
22
100
AcDbEntity
  8
_2-7_ビス
  6
Continuous
 62
     7
100
AcDbLine
 10
713.2247105839401
 20
1226.851651042394
 30
0.0
 11
713.2240394783529
 21
1226.811692888405
 31
0.0
  0
LINE
  5
2CA
330
22
100
AcDbEntity
  8
_2-7_ビス
  6
Continuous
 62
     7
100
AcDbLine
 10
713.2240394783529
 20
1226.811692888405
 30
0.0
 11
713.2296897969171
 21
1226.772213666823
 31
0.0
  0
LINE
  5
2CB
330
22
100
AcDbEntity
  8
_2-7_ビス
  6
Continuous
 62
     7
100
AcDbLine
 10
713.2296897969171
 20
1226.772213666823
 30
0.0
 11
713.2414898575619
 21
1226.734412933817
 31
0.0
  0
LINE
  5
2CC
330
22
100
AcDbEntity
  8
_2-7_ビス
  6
Continuous
 62
     7
100
AcDbLine
 10
713.2414898575619
 20
1226.734412933817
 30
0.0
 11
713.2590811214157
 21
1226.699439245532
 31
0.0
  0
LINE
  5
2CD
330
22
100
AcDbEntity
  8
_2-7_ビス
  6
Continuous
 62
     7
100
AcDbLine
 10
713.2590811214157
 20
1226.699439245532
 30
0.0
 11
713.2819290868283
 21
1226.668355259789
 31
0.0
  0
LINE
  5
2CE
330
22
100
AcDbEntity
  8
_2-7_ビス
  6
Continuous
 62
     7
100
AcDbLine
 10
713.2819290868283
 20
1226.668355259789
 30
0.0
 11
713.309339529932
 21
1226.642105447764
 31
0.0
  0
LINE
  5
2CF
330
22
100
AcDbEntity
  8
_2-7_ビス
  6
Continuous
 62
     7
100
AcDbLine
 10
713.309339529932
 20
1226.642105447764
 30
0.0
 11
713.3404795982835
 21
1226.621487396714
 31
0.0
  0
LINE
  5
2D0
330
22
100
AcDbEntity
  8
_2-7_ビス
  6
Continuous
 62
     7
100
AcDbLine
 10
713.3404795982835
 20
1226.621487396714
 30
0.0
 11
713.3744031166636
 21
1226.607127575688
 31
0.0
  0
LINE
  5
2D1
330
22
100
AcDbEntity
  8
_2-7_ビス
  6
Continuous
 62
     7
100
AcDbLine
 10
713.3744031166636
 20
1226.607127575688
 30
0.0
 11
713.3843003336607
 21
1226.604282621493
 31
0.0
  0
LINE
  5
2D2
330
22
100
AcDbEntity
  8
_2-7_ビス
  6
Continuous
 62
     7
100
AcDbLine
 10
713.2582131628746
 20
1225.309712697663
 30
0.0
 11
713.2582131628746
 21
1225.309712697663
 31
0.0
  0
LINE
  5
2D3
330
22
100
AcDbEntity
  8
_2-7_ビス
  6
Continuous
 62
     7
100
AcDbLine
 10
713.2582131628746
 20
1225.309712697663
 30
0.0
 11
713.2445510111246
 21
1225.283424695686
 31
0.0
  0
LINE
  5
2D4
330
22
100
AcDbEntity
  8
_2-7_ビス
  6
Continuous
 62
     7
100
AcDbLine
 10
713.2445510111246
 20
1225.283424695686
 30
0.0
 11
713.235248501576
 21
1225.254927806372
 31
0.0
  0
LINE
  5
2D5
330
22
100
AcDbEntity
  8
_2-7_ビス
  6
Continuous
 62
     7
100
AcDbLine
 10
713.235248501576
 20
1225.254927806372
 30
0.0
 11
713.2305882862747
 21
1225.225087893284
 31
0.0
  0
LINE
  5
2D6
330
22
100
AcDbEntity
  8
_2-7_ビス
  6
Continuous
 62
     7
100
AcDbLine
 10
713.2305882862747
 20
1225.225087893284
 30
0.0
 11
713.230711963504
 21
1225.19481162708
 31
0.0
  0
LINE
  5
2D7
330
22
100
AcDbEntity
  8
_2-7_ビス
  6
Continuous
 62
     7
100
AcDbLine
 10
713.230711963504
 20
1225.19481162708
 30
0.0
 11
713.2356157753936
 21
1225.165018936789
 31
0.0
  0
LINE
  5
2D8
330
22
100
AcDbEntity
  8
_2-7_ビス
  6
Continuous
 62
     7
100
AcDbLine
 10
713.2356157753936
 20
1225.165018936789
 30
0.0
 11
713.2451507221015
 21
1225.13661505823
 31
0.0
  0
LINE
  5
2D9
330
22
100
AcDbEntity
  8
_2-7_ビス
  6
Continuous
 62
     7
100
AcDbLine
 10
713.2451507221015
 20
1225.13661505823
 30
0.0
 11
713.259027089096
 21
1225.110463028879
 31
0.0
  0
LINE
  5
2DA
330
22
100
AcDbEntity
  8
_2-7_ビス
  6
Continuous
 62
     7
100
AcDbLine
 10
713.259027089096
 20
1225.110463028879
 30
0.0
 11
713.2768232499885
 21
1225.087357464915
 31
0.0
  0
LINE
  5
2DB
330
22
100
AcDbEntity
  8
_2-7_ビス
  6
Continuous
 62
     7
100
AcDbLine
 10
713.2768232499885
 20
1225.087357464915
 30
0.0
 11
713.2979984774352
 21
1225.068000417206
 31
0.0
  0
LINE
  5
2DC
330
22
100
AcDbEntity
  8
_2-7_ビス
  6
Continuous
 62
     7
100
AcDbLine
 10
713.2979984774352
 20
1225.068000417206
 30
0.0
 11
713.3219093728654
 21
1225.052980039853
 31
0.0
  0
LINE
  5
2DD
330
22
100
AcDbEntity
  8
_2-7_ビス
  6
Continuous
 62
     7
100
AcDbLine
 10
713.3219093728654
 20
1225.052980039853
 30
0.0
 11
713.3478294158209
 21
1225.04275271942
 31
0.0
  0
LINE
  5
2DE
330
22
100
AcDbEntity
  8
_2-7_ビス
  6
Continuous
 62
     7
100
AcDbLine
 10
713.3478294158209
 20
1225.04275271942
 30
0.0
 11
713.3749710389125
 21
1225.037629207863
 31
0.0
  0
LINE
  5
2DF
330
22
100
AcDbEntity
  8
_2-7_ビス
  6
Continuous
 62
     7
100
AcDbLine
 10
713.3749710389125
 20
1225.037629207863
 30
0.0
 11
713.3751171487288
 21
1225.037615955793
 31
0.0
  0
LINE
  5
2E0
330
22
100
AcDbEntity
  8
_2-7_ビス
  6
Continuous
 62
     7
100
AcDbLine
 10
713.6782258987295
 20
1233.942879108193
 30
0.0
 11
713.6782258987295
 21
1233.942879108193
 31
0.0
  0
LINE
  5
2E1
330
22
100
AcDbEntity
  8
_2-7_ビス
  6
Continuous
 62
     7
100
AcDbLine
 10
713.6782258987295
 20
1233.942879108193
 30
0.0
 11
713.5939000679359
 21
1233.930619151546
 31
0.0
  0
LINE
  5
2E2
330
22
100
AcDbEntity
  8
_2-7_ビス
  6
Continuous
 62
     7
100
AcDbLine
 10
713.5939000679359
 20
1233.930619151546
 30
0.0
 11
713.5127917464776
 21
1233.902446684838
 31
0.0
  0
LINE
  5
2E3
330
22
100
AcDbEntity
  8
_2-7_ビス
  6
Continuous
 62
     7
100
AcDbLine
 10
713.5127917464776
 20
1233.902446684838
 30
0.0
 11
713.4373653696594
 21
1233.859217714217
 31
0.0
  0
LINE
  5
2E4
330
22
100
AcDbEntity
  8
_2-7_ビス
  6
Continuous
 62
     7
100
AcDbLine
 10
713.4373653696594
 20
1233.859217714217
 30
0.0
 11
713.3699127297735
 21
1233.802245730079
 31
0.0
  0
LINE
  5
2E5
330
22
100
AcDbEntity
  8
_2-7_ビス
  6
Continuous
 62
     7
100
AcDbLine
 10
713.3699127297735
 20
1233.802245730079
 30
0.0
 11
713.31248334115
 21
1233.733261797332
 31
0.0
  0
LINE
  5
2E6
330
22
100
AcDbEntity
  8
_2-7_ビス
  6
Continuous
 62
     7
100
AcDbLine
 10
713.31248334115
 20
1233.733261797332
 30
0.0
 11
713.2668221667017
 21
1233.654361957865
 31
0.0
  0
LINE
  5
2E7
330
22
100
AcDbEntity
  8
_2-7_ビス
  6
Continuous
 62
     7
100
AcDbLine
 10
713.2668221667017
 20
1233.654361957865
 30
0.0
 11
713.2343165981088
 21
1233.567943543377
 31
0.0
  0
LINE
  5
2E8
330
22
100
AcDbEntity
  8
_2-7_ビス
  6
Continuous
 62
     7
100
AcDbLine
 10
713.2343165981088
 20
1233.567943543377
 30
0.0
 11
713.2159543006236
 21
1233.476632333661
 31
0.0
  0
LINE
  5
2E9
330
22
100
AcDbEntity
  8
_2-7_ビス
  6
Continuous
 62
     7
100
AcDbLine
 10
713.2159543006236
 20
1233.476632333661
 30
0.0
 11
713.2122932033639
 21
1233.383202773619
 31
0.0
  0
LINE
  5
2EA
330
22
100
AcDbEntity
  8
_2-7_ビス
  6
Continuous
 62
     7
100
AcDbLine
 10
713.2122932033639
 20
1233.383202773619
 30
0.0
 11
713.2234445469175
 21
1233.290493673154
 31
0.0
  0
LINE
  5
2EB
330
22
100
AcDbEntity
  8
_2-7_ビス
  6
Continuous
 62
     7
100
AcDbLine
 10
713.2234445469175
 20
1233.290493673154
 30
0.0
 11
713.249069503353
 21
1233.201321951372
 31
0.0
  0
LINE
  5
2EC
330
22
100
AcDbEntity
  8
_2-7_ビス
  6
Continuous
 62
     7
100
AcDbLine
 10
713.249069503353
 20
1233.201321951372
 30
0.0
 11
713.2883894713359
 21
1233.118397045915
 31
0.0
  0
LINE
  5
2ED
330
22
100
AcDbEntity
  8
_2-7_ビス
  6
Continuous
 62
     7
100
AcDbLine
 10
713.2883894713359
 20
1233.118397045915
 30
0.0
 11
713.3402097335366
 21
1233.044238588075
 31
0.0
  0
LINE
  5
2EE
330
22
100
AcDbEntity
  8
_2-7_ビス
  6
Continuous
 62
     7
100
AcDbLine
 10
713.3402097335366
 20
1233.044238588075
 30
0.0
 11
713.4029557575099
 21
1232.981099845066
 31
0.0
  0
LINE
  5
2EF
330
22
100
AcDbEntity
  8
_2-7_ビス
  6
Continuous
 62
     7
100
AcDbLine
 10
713.4029557575099
 20
1232.981099845066
 30
0.0
 11
713.4747210370683
 21
1232.930899255645
 31
0.0
  0
LINE
  5
2F0
330
22
100
AcDbEntity
  8
_2-7_ビス
  6
Continuous
 62
     7
100
AcDbLine
 10
713.4747210370683
 20
1232.930899255645
 30
0.0
 11
713.5533250205077
 21
1232.895162139319
 31
0.0
  0
LINE
  5
2F1
330
22
100
AcDbEntity
  8
_2-7_ビス
  6
Continuous
 62
     7
100
AcDbLine
 10
713.5533250205077
 20
1232.895162139319
 30
0.0
 11
713.6363793655667
 21
1232.874974350284
 31
0.0
  0
LINE
  5
2F2
330
22
100
AcDbEntity
  8
_2-7_ビス
  6
Continuous
 62
     7
100
AcDbLine
 10
713.6363793655667
 20
1232.874974350284
 30
0.0
 11
713.6782258987295
 21
1232.870949284293
 31
0.0
  0
LINE
  5
2F3
330
22
100
AcDbEntity
  8
_2-7_ビス
  6
Continuous
 62
     7
100
AcDbLine
 10
713.6782258987295
 20
1241.776212436693
 30
0.0
 11
713.6782258987295
 21
1241.776212436693
 31
0.0
  0
LINE
  5
2F4
330
22
100
AcDbEntity
  8
_2-7_ビス
  6
Continuous
 62
     7
100
AcDbLine
 10
713.6782258987295
 20
1241.776212436693
 30
0.0
 11
713.5939000679359
 21
1241.763952480045
 31
0.0
  0
LINE
  5
2F5
330
22
100
AcDbEntity
  8
_2-7_ビス
  6
Continuous
 62
     7
100
AcDbLine
 10
713.5939000679359
 20
1241.763952480045
 30
0.0
 11
713.5127917464776
 21
1241.735780013338
 31
0.0
  0
LINE
  5
2F6
330
22
100
AcDbEntity
  8
_2-7_ビス
  6
Continuous
 62
     7
100
AcDbLine
 10
713.5127917464776
 20
1241.735780013338
 30
0.0
 11
713.4373653696594
 21
1241.692551042717
 31
0.0
  0
LINE
  5
2F7
330
22
100
AcDbEntity
  8
_2-7_ビス
  6
Continuous
 62
     7
100
AcDbLine
 10
713.4373653696594
 20
1241.692551042717
 30
0.0
 11
713.3699127297735
 21
1241.635579058578
 31
0.0
  0
LINE
  5
2F8
330
22
100
AcDbEntity
  8
_2-7_ビス
  6
Continuous
 62
     7
100
AcDbLine
 10
713.3699127297735
 20
1241.635579058578
 30
0.0
 11
713.31248334115
 21
1241.566595125831
 31
0.0
  0
LINE
  5
2F9
330
22
100
AcDbEntity
  8
_2-7_ビス
  6
Continuous
 62
     7
100
AcDbLine
 10
713.31248334115
 20
1241.566595125831
 30
0.0
 11
713.2668221667017
 21
1241.487695286365
 31
0.0
  0
LINE
  5
2FA
330
22
100
AcDbEntity
  8
_2-7_ビス
  6
Continuous
 62
     7
100
AcDbLine
 10
713.2668221667017
 20
1241.487695286365
 30
0.0
 11
713.2343165981088
 21
1241.401276871877
 31
0.0
  0
LINE
  5
2FB
330
22
100
AcDbEntity
  8
_2-7_ビス
  6
Continuous
 62
     7
100
AcDbLine
 10
713.2343165981088
 20
1241.401276871877
 30
0.0
 11
713.2159543006236
 21
1241.309965662162
 31
0.0
  0
LINE
  5
2FC
330
22
100
AcDbEntity
  8
_2-7_ビス
  6
Continuous
 62
     7
100
AcDbLine
 10
713.2159543006236
 20
1241.309965662162
 30
0.0
 11
713.2122932033639
 21
1241.216536102119
 31
0.0
  0
LINE
  5
2FD
330
22
100
AcDbEntity
  8
_2-7_ビス
  6
Continuous
 62
     7
100
AcDbLine
 10
713.2122932033639
 20
1241.216536102119
 30
0.0
 11
713.2234445469175
 21
1241.123827001654
 31
0.0
  0
LINE
  5
2FE
330
22
100
AcDbEntity
  8
_2-7_ビス
  6
Continuous
 62
     7
100
AcDbLine
 10
713.2234445469175
 20
1241.123827001654
 30
0.0
 11
713.249069503353
 21
1241.034655279872
 31
0.0
  0
LINE
  5
2FF
330
22
100
AcDbEntity
  8
_2-7_ビス
  6
Continuous
 62
     7
100
AcDbLine
 10
713.249069503353
 20
1241.034655279872
 30
0.0
 11
713.2883894713359
 21
1240.951730374416
 31
0.0
  0
LINE
  5
300
330
22
100
AcDbEntity
  8
_2-7_ビス
  6
Continuous
 62
     7
100
AcDbLine
 10
713.2883894713359
 20
1240.951730374416
 30
0.0
 11
713.3402097335366
 21
1240.877571916575
 31
0.0
  0
LINE
  5
301
330
22
100
AcDbEntity
  8
_2-7_ビス
  6
Continuous
 62
     7
100
AcDbLine
 10
713.3402097335366
 20
1240.877571916575
 30
0.0
 11
713.4029557575099
 21
1240.814433173566
 31
0.0
  0
LINE
  5
302
330
22
100
AcDbEntity
  8
_2-7_ビス
  6
Continuous
 62
     7
100
AcDbLine
 10
713.4029557575099
 20
1240.814433173566
 30
0.0
 11
713.4747210370683
 21
1240.764232584145
 31
0.0
  0
LINE
  5
303
330
22
100
AcDbEntity
  8
_2-7_ビス
  6
Continuous
 62
     7
100
AcDbLine
 10
713.4747210370683
 20
1240.764232584145
 30
0.0
 11
713.5533250205077
 21
1240.728495467819
 31
0.0
  0
LINE
  5
304
330
22
100
AcDbEntity
  8
_2-7_ビス
  6
Continuous
 62
     7
100
AcDbLine
 10
713.5533250205077
 20
1240.728495467819
 30
0.0
 11
713.6363793655667
 21
1240.708307678783
 31
0.0
  0
LINE
  5
305
330
22
100
AcDbEntity
  8
_2-7_ビス
  6
Continuous
 62
     7
100
AcDbLine
 10
713.6363793655667
 20
1240.708307678783
 30
0.0
 11
713.6782258987295
 21
1240.704282612793
 31
0.0
  0
LINE
  5
306
330
22
100
AcDbEntity
  8
_2-7_ビス
  6
Continuous
 62
     7
100
AcDbLine
 10
713.3530090879272
 20
1222.646387887092
 30
0.0
 11
713.3530090879272
 21
1222.646387887092
 31
0.0
  0
LINE
  5
307
330
22
100
AcDbEntity
  8
_2-7_ビス
  6
Continuous
 62
     7
100
AcDbLine
 10
713.3530090879272
 20
1222.646387887092
 30
0.0
 11
713.3168238740253
 21
1222.512803560325
 31
0.0
  0
LINE
  5
308
330
22
100
AcDbEntity
  8
_2-7_ビス
  6
Continuous
 62
     7
100
AcDbLine
 10
713.3168238740253
 20
1222.512803560325
 30
0.0
 11
713.3022874980841
 21
1222.37434050811
 31
0.0
  0
LINE
  5
309
330
22
100
AcDbEntity
  8
_2-7_ビス
  6
Continuous
 62
     7
100
AcDbLine
 10
713.3022874980841
 20
1222.37434050811
 30
0.0
 11
713.302733754839
 21
1222.316563325893
 31
0.0
  0
LINE
  5
30A
330
22
100
AcDbEntity
  8
_2-7_ビス
  6
Continuous
 62
     7
100
AcDbLine
 10
712.7951916487291
 20
1220.337615958693
 30
0.0
 11
712.7951916487291
 21
1220.337615958693
 31
0.0
  0
LINE
  5
30B
330
22
100
AcDbEntity
  8
_2-7_ビス
  6
Continuous
 62
     7
100
AcDbLine
 10
712.7951916487291
 20
1220.337615958693
 30
0.0
 11
712.7891508711865
 21
1220.393146533871
 31
0.0
  0
LINE
  5
30C
330
22
100
AcDbEntity
  8
_2-7_ビス
  6
Continuous
 62
     7
100
AcDbLine
 10
712.7891508711865
 20
1220.393146533871
 30
0.0
 11
712.7744310372368
 21
1220.446680221255
 31
0.0
  0
LINE
  5
30D
330
22
100
AcDbEntity
  8
_2-7_ビス
  6
Continuous
 62
     7
100
AcDbLine
 10
712.7744310372368
 20
1220.446680221255
 30
0.0
 11
712.7514794015862
 21
1220.496590426845
 31
0.0
  0
LINE
  5
30E
330
22
100
AcDbEntity
  8
_2-7_ビス
  6
Continuous
 62
     7
100
AcDbLine
 10
712.7514794015862
 20
1220.496590426845
 30
0.0
 11
712.7209933380701
 21
1220.541360654298
 31
0.0
  0
LINE
  5
30F
330
22
100
AcDbEntity
  8
_2-7_ビス
  6
Continuous
 62
     7
100
AcDbLine
 10
712.7209933380701
 20
1220.541360654298
 30
0.0
 11
712.6838991503015
 21
1220.579630582909
 31
0.0
  0
LINE
  5
310
330
22
100
AcDbEntity
  8
_2-7_ビス
  6
Continuous
 62
     7
100
AcDbLine
 10
712.6838991503015
 20
1220.579630582909
 30
0.0
 11
712.6413239264052
 21
1220.610237400262
 31
0.0
  0
LINE
  5
311
330
22
100
AcDbEntity
  8
_2-7_ビス
  6
Continuous
 62
     7
100
AcDbLine
 10
712.6413239264052
 20
1220.610237400262
 30
0.0
 11
712.5945612930153
 21
1220.6322511337
 31
0.0
  0
LINE
  5
312
330
22
100
AcDbEntity
  8
_2-7_ビス
  6
Continuous
 62
     7
100
AcDbLine
 10
712.5945612930153
 20
1220.6322511337
 30
0.0
 11
712.5450321090842
 21
1220.645002907072
 31
0.0
  0
LINE
  5
313
330
22
100
AcDbEntity
  8
_2-7_ビス
  6
Continuous
 62
     7
100
AcDbLine
 10
712.5450321090842
 20
1220.645002907072
 30
0.0
 11
712.4942412938024
 21
1220.648105264196
 31
0.0
  0
LINE
  5
314
330
22
100
AcDbEntity
  8
_2-7_ビス
  6
Continuous
 62
     7
100
AcDbLine
 10
712.4942412938024
 20
1220.648105264196
 30
0.0
 11
712.4437321003917
 21
1220.641463941521
 31
0.0
  0
LINE
  5
315
330
22
100
AcDbEntity
  8
_2-7_ビス
  6
Continuous
 62
     7
100
AcDbLine
 10
712.4437321003917
 20
1220.641463941521
 30
0.0
 11
712.3950392251344
 21
1220.625280732277
 31
0.0
  0
LINE
  5
316
330
22
100
AcDbEntity
  8
_2-7_ビス
  6
Continuous
 62
     7
100
AcDbLine
 10
712.3950392251344
 20
1220.625280732277
 30
0.0
 11
712.3496421764051
 21
1220.600047355086
 31
0.0
  0
LINE
  5
317
330
22
100
AcDbEntity
  8
_2-7_ビス
  6
Continuous
 62
     7
100
AcDbLine
 10
712.3496421764051
 20
1220.600047355086
 30
0.0
 11
712.3089203205581
 21
1220.566530513347
 31
0.0
  0
LINE
  5
318
330
22
100
AcDbEntity
  8
_2-7_ビス
  6
Continuous
 62
     7
100
AcDbLine
 10
712.3089203205581
 20
1220.566530513347
 30
0.0
 11
712.2741109705767
 21
1220.525748599333
 31
0.0
  0
LINE
  5
319
330
22
100
AcDbEntity
  8
_2-7_ビス
  6
Continuous
 62
     7
100
AcDbLine
 10
712.2741109705767
 20
1220.525748599333
 30
0.0
 11
712.2462717909455
 21
1220.478940750868
 31
0.0
  0
LINE
  5
31A
330
22
100
AcDbEntity
  8
_2-7_ビス
  6
Continuous
 62
     7
100
AcDbLine
 10
712.2462717909455
 20
1220.478940750868
 30
0.0
 11
712.2262486610508
 21
1220.42752920074
 31
0.0
  0
LINE
  5
31B
330
22
100
AcDbEntity
  8
_2-7_ビス
  6
Continuous
 62
     7
100
AcDbLine
 10
712.2262486610508
 20
1220.42752920074
 30
0.0
 11
712.2146499735621
 21
1220.373076062884
 31
0.0
  0
LINE
  5
31C
330
22
100
AcDbEntity
  8
_2-7_ビス
  6
Continuous
 62
     7
100
AcDbLine
 10
712.2146499735621
 20
1220.373076062884
 30
0.0
 11
712.2118281487295
 21
1220.31723586834
 31
0.0
  0
LINE
  5
31D
330
22
100
AcDbEntity
  8
_2-7_ビス
  6
Continuous
 62
     7
100
AcDbLine
 10
712.2118281487295
 20
1220.31723586834
 30
0.0
 11
712.2118281487295
 21
1220.31723586834
 31
0.0
  0
LINE
  5
31E
330
22
100
AcDbEntity
  8
_2-7_ビス
  6
Continuous
 62
     7
100
AcDbLine
 10
707.5094758987281
 20
1257.305288655181
 30
0.0
 11
707.5094758987281
 21
1261.400773828093
 31
0.0
  0
LINE
  5
31F
330
22
100
AcDbEntity
  8
_2-7_ビス
  6
Continuous
 62
     7
100
AcDbLine
 10
707.5094758987281
 20
1261.400773828093
 30
0.0
 11
710.509475898729
 21
1261.400773828093
 31
0.0
  0
LINE
  5
320
330
22
100
AcDbEntity
  8
_2-7_ビス
  6
Continuous
 62
     7
100
AcDbLine
 10
707.5094758987281
 20
1257.305288655181
 30
0.0
 11
706.7594758987289
 21
1256.480727734977
 31
0.0
  0
LINE
  5
321
330
22
100
AcDbEntity
  8
_2-7_ビス
  6
Continuous
 62
     7
100
AcDbLine
 10
706.7594758987289
 20
1256.480727734977
 30
0.0
 11
706.7594758987289
 21
1254.382122007863
 31
0.0
  0
LINE
  5
322
330
22
100
AcDbEntity
  8
_2-7_ビス
  6
Continuous
 62
     7
100
AcDbLine
 10
706.7594758987289
 20
1254.382122007863
 30
0.0
 11
707.3076951487295
 21
1250.264528694613
 31
0.0
  0
LINE
  5
323
330
22
100
AcDbEntity
  8
_2-7_ビス
  6
Continuous
 62
     7
100
AcDbLine
 10
707.3076951487295
 20
1250.264528694613
 30
0.0
 11
707.5496188987292
 21
1249.856914186093
 31
0.0
  0
LINE
  5
324
330
22
100
AcDbEntity
  8
_2-7_ビス
  6
Continuous
 62
     7
100
AcDbLine
 10
707.5496188987292
 20
1249.856914186093
 30
0.0
 11
707.5094758987281
 21
1249.856914186093
 31
0.0
  0
LINE
  5
325
330
22
100
AcDbEntity
  8
_2-7_ビス
  6
Continuous
 62
     7
100
AcDbLine
 10
707.5094758987281
 20
1249.856914186093
 30
0.0
 11
707.5094758987281
 21
1248.042879099493
 31
0.0
  0
LINE
  5
326
330
22
100
AcDbEntity
  8
_2-7_ビス
  6
Continuous
 62
     7
100
AcDbLine
 10
707.5094758987281
 20
1248.042879099493
 30
0.0
 11
707.9424884592961
 21
1247.218317696493
 31
0.0
  0
LINE
  5
327
330
22
100
AcDbEntity
  8
_2-7_ビス
  6
Continuous
 62
     7
100
AcDbLine
 10
707.8125846487288
 20
1246.970949275592
 30
0.0
 11
706.8344758987294
 21
1246.970949275592
 31
0.0
  0
LINE
  5
328
330
22
100
AcDbEntity
  8
_2-7_ビス
  6
Continuous
 62
     7
100
AcDbLine
 10
706.8344758987294
 20
1246.970949275592
 30
0.0
 11
706.8344758987294
 21
1242.737558681713
 31
0.0
  0
LINE
  5
329
330
22
100
AcDbEntity
  8
_2-7_ビス
  6
Continuous
 62
     7
100
AcDbLine
 10
706.8344758987294
 20
1242.737558681713
 30
0.0
 11
707.3359453987292
 21
1241.776212436693
 31
0.0
  0
LINE
  5
32A
330
22
100
AcDbEntity
  8
_2-7_ビス
  6
Continuous
 62
     7
100
AcDbLine
 10
707.3359453987292
 20
1241.776212436693
 30
0.0
 11
707.3407258987288
 21
1241.776212436693
 31
0.0
  0
LINE
  5
32B
330
22
100
AcDbEntity
  8
_2-7_ビス
  6
Continuous
 62
     7
100
AcDbLine
 10
707.3407300720135
 20
1241.776212790475
 30
0.0
 11
707.3407258987288
 21
1241.776212436693
 31
0.0
  0
LINE
  5
32C
330
22
100
AcDbEntity
  8
_2-7_ビス
  6
Continuous
 62
     7
100
AcDbLine
 10
707.3407300720135
 20
1241.776212790475
 30
0.0
 11
707.3407258987288
 21
1241.776212436693
 31
0.0
  0
LINE
  5
32D
330
22
100
AcDbEntity
  8
_2-7_ビス
  6
Continuous
 62
     7
100
AcDbLine
 10
707.3733171487289
 20
1240.704282612793
 30
0.0
 11
706.8344758987294
 21
1240.704282612793
 31
0.0
  0
LINE
  5
32E
330
22
100
AcDbEntity
  8
_2-7_ビス
  6
Continuous
 62
     7
100
AcDbLine
 10
706.8344758987294
 20
1240.704282612793
 30
0.0
 11
706.8344758987294
 21
1234.907049476019
 31
0.0
  0
LINE
  5
32F
330
22
100
AcDbEntity
  8
_2-7_ビス
  6
Continuous
 62
     7
100
AcDbLine
 10
706.8344758987294
 20
1234.907049476019
 30
0.0
 11
707.3407230857903
 21
1233.942898106255
 31
0.0
  0
LINE
  5
330
330
22
100
AcDbEntity
  8
_2-7_ビス
  6
Continuous
 62
     7
100
AcDbLine
 10
707.3407258987288
 20
1233.942879108193
 30
0.0
 11
707.3443175290848
 21
1234.420330505433
 31
0.0
  0
LINE
  5
331
330
22
100
AcDbEntity
  8
_2-7_ビス
  6
Continuous
 62
     7
100
AcDbLine
 10
707.3443175290848
 20
1234.420330505433
 30
0.0
 11
707.6649975367083
 21
1234.437615949993
 31
0.0
  0
LINE
  5
332
330
22
100
AcDbEntity
  8
_2-7_ビス
  6
Continuous
 62
     7
100
AcDbLine
 10
707.8236595768762
 20
1234.684984370893
 30
0.0
 11
707.3733171487289
 21
1235.509545773893
 31
0.0
  0
LINE
  5
333
330
22
100
AcDbEntity
  8
_2-7_ビス
  6
Continuous
 62
     7
100
AcDbLine
 10
707.3733171487289
 20
1235.509545773893
 30
0.0
 11
707.3733169966057
 21
1235.986997242888
 31
0.0
  0
LINE
  5
334
330
22
100
AcDbEntity
  8
_2-7_ビス
  6
Continuous
 62
     7
100
AcDbLine
 10
707.3733169966057
 20
1235.986997242888
 30
0.0
 11
707.7213493987292
 21
1236.004282615693
 31
0.0
  0
LINE
  5
335
330
22
100
AcDbEntity
  8
_2-7_ビス
  6
Continuous
 62
     7
100
AcDbLine
 10
707.8809391484496
 20
1236.251651036593
 30
0.0
 11
707.3733171487289
 21
1237.076212439593
 31
0.0
  0
LINE
  5
336
330
22
100
AcDbEntity
  8
_2-7_ビス
  6
Continuous
 62
     7
100
AcDbLine
 10
707.3733171487289
 20
1237.076212439593
 30
0.0
 11
707.3733171487289
 21
1237.553664000701
 31
0.0
  0
LINE
  5
337
330
22
100
AcDbEntity
  8
_2-7_ビス
  6
Continuous
 62
     7
100
AcDbLine
 10
707.3733171487289
 20
1237.553664000701
 30
0.0
 11
707.7213493987292
 21
1237.570949281393
 31
0.0
  0
LINE
  5
338
330
22
100
AcDbEntity
  8
_2-7_ビス
  6
Continuous
 62
     7
100
AcDbLine
 10
707.8809391484496
 20
1237.818317702293
 30
0.0
 11
707.3733171487289
 21
1238.642879105293
 31
0.0
  0
LINE
  5
339
330
22
100
AcDbEntity
  8
_2-7_ビス
  6
Continuous
 62
     7
100
AcDbLine
 10
707.3733171487289
 20
1238.642879105293
 30
0.0
 11
707.3733171487289
 21
1239.120330666401
 31
0.0
  0
LINE
  5
33A
330
22
100
AcDbEntity
  8
_2-7_ビス
  6
Continuous
 62
     7
100
AcDbLine
 10
707.3733171487289
 20
1239.120330666401
 30
0.0
 11
707.7213493987292
 21
1239.137615947093
 31
0.0
  0
LINE
  5
33B
330
22
100
AcDbEntity
  8
_2-7_ビス
  6
Continuous
 62
     7
100
AcDbLine
 10
707.8809391484496
 20
1239.384984367993
 30
0.0
 11
707.3733169966057
 21
1240.209545770993
 31
0.0
  0
LINE
  5
33C
330
22
100
AcDbEntity
  8
_2-7_ビス
  6
Continuous
 62
     7
100
AcDbLine
 10
707.3733169966057
 20
1240.209545770993
 30
0.0
 11
707.3733171487289
 21
1240.704282612793
 31
0.0
  0
LINE
  5
33D
330
22
100
AcDbEntity
  8
_2-7_ビス
  6
Continuous
 62
     7
100
AcDbLine
 10
707.3407300720135
 20
1241.776212790475
 30
0.0
 11
707.3444152732591
 21
1242.253664259469
 31
0.0
  0
LINE
  5
33E
330
22
100
AcDbEntity
  8
_2-7_ビス
  6
Continuous
 62
     7
100
AcDbLine
 10
707.3444152732591
 20
1242.253664259469
 30
0.0
 11
707.6618601487281
 21
1242.270949278493
 31
0.0
  0
LINE
  5
33F
330
22
100
AcDbEntity
  8
_2-7_ビス
  6
Continuous
 62
     7
100
AcDbLine
 10
707.8239522890501
 20
1242.518317699393
 30
0.0
 11
707.3733169966057
 21
1243.342879102393
 31
0.0
  0
LINE
  5
340
330
22
100
AcDbEntity
  8
_2-7_ビス
  6
Continuous
 62
     7
100
AcDbLine
 10
707.3733169966057
 20
1243.342879102393
 30
0.0
 11
707.3733169966057
 21
1243.820330571386
 31
0.0
  0
LINE
  5
341
330
22
100
AcDbEntity
  8
_2-7_ビス
  6
Continuous
 62
     7
100
AcDbLine
 10
707.3733169966057
 20
1243.820330571386
 30
0.0
 11
707.7213493987292
 21
1243.837615944193
 31
0.0
  0
LINE
  5
342
330
22
100
AcDbEntity
  8
_2-7_ビス
  6
Continuous
 62
     7
100
AcDbLine
 10
707.8809391484496
 20
1244.084984365093
 30
0.0
 11
707.3733171487289
 21
1244.909545768093
 31
0.0
  0
LINE
  5
343
330
22
100
AcDbEntity
  8
_2-7_ビス
  6
Continuous
 62
     7
100
AcDbLine
 10
707.3733171487289
 20
1244.909545768093
 30
0.0
 11
707.3733169966057
 21
1245.386997237087
 31
0.0
  0
LINE
  5
344
330
22
100
AcDbEntity
  8
_2-7_ビス
  6
Continuous
 62
     7
100
AcDbLine
 10
707.3733169966057
 20
1245.386997237087
 30
0.0
 11
707.7222354912172
 21
1245.404514191053
 31
0.0
  0
LINE
  5
345
330
22
100
AcDbEntity
  8
_2-7_ビス
  6
Continuous
 62
     7
100
AcDbLine
 10
707.8809391484496
 20
1245.651651030793
 30
0.0
 11
707.3733169966057
 21
1246.476212433793
 31
0.0
  0
LINE
  5
346
330
22
100
AcDbEntity
  8
_2-7_ビス
  6
Continuous
 62
     7
100
AcDbLine
 10
707.3733169966057
 20
1246.476212433793
 30
0.0
 11
707.373317154236
 21
1246.970949275592
 31
0.0
  0
LINE
  5
347
330
22
100
AcDbEntity
  8
_2-7_ビス
  6
Continuous
 62
     7
100
AcDbLine
 10
707.3733171487289
 20
1232.870949284293
 30
0.0
 11
706.8344758987294
 21
1232.870949284293
 31
0.0
  0
LINE
  5
348
330
22
100
AcDbEntity
  8
_2-7_ビス
  6
Continuous
 62
     7
100
AcDbLine
 10
706.8344758987294
 20
1232.870949284293
 30
0.0
 11
706.8344758987294
 21
1229.622707549456
 31
0.0
  0
LINE
  5
349
330
22
100
AcDbEntity
  8
_2-7_ビス
  6
Continuous
 62
     7
100
AcDbLine
 10
706.8344758987294
 20
1229.622707549456
 30
0.0
 11
707.3402616487285
 21
1226.109545779693
 31
0.0
  0
LINE
  5
34A
330
22
100
AcDbEntity
  8
_2-7_ビス
  6
Continuous
 62
     7
100
AcDbLine
 10
707.3402616487285
 20
1226.109545779693
 30
0.0
 11
707.3409961663926
 21
1226.586996863834
 31
0.0
  0
LINE
  5
34B
330
22
100
AcDbEntity
  8
_2-7_ビス
  6
Continuous
 62
     7
100
AcDbLine
 10
707.3409961663926
 20
1226.586996863834
 30
0.0
 11
707.6496846487295
 21
1226.604282621493
 31
0.0
  0
LINE
  5
34C
330
22
100
AcDbEntity
  8
_2-7_ビス
  6
Continuous
 62
     7
100
AcDbLine
 10
707.3402616487285
 20
1226.109545779693
 30
0.0
 11
707.7737384592958
 21
1225.284984376692
 31
0.0
  0
LINE
  5
34D
330
22
100
AcDbEntity
  8
_2-7_ビス
  6
Continuous
 62
     7
100
AcDbLine
 10
707.7942412135168
 20
1226.851651042393
 30
0.0
 11
707.3436388800567
 21
1227.676212445392
 31
0.0
  0
LINE
  5
34E
330
22
100
AcDbEntity
  8
_2-7_ビス
  6
Continuous
 62
     7
100
AcDbLine
 10
707.3436388800567
 20
1227.676212445392
 30
0.0
 11
707.3457237843186
 21
1228.153663529533
 31
0.0
  0
LINE
  5
34F
330
22
100
AcDbEntity
  8
_2-7_ビス
  6
Continuous
 62
     7
100
AcDbLine
 10
707.3457237843186
 20
1228.153663529533
 30
0.0
 11
707.6680506487289
 21
1228.170949287193
 31
0.0
  0
LINE
  5
350
330
22
100
AcDbEntity
  8
_2-7_ビス
  6
Continuous
 62
     7
100
AcDbLine
 10
707.8165561445476
 20
1228.418317708093
 30
0.0
 11
707.3526882852233
 21
1229.242878726239
 31
0.0
  0
LINE
  5
351
330
22
100
AcDbEntity
  8
_2-7_ビス
  6
Continuous
 62
     7
100
AcDbLine
 10
707.3526882852233
 20
1229.242878726239
 30
0.0
 11
707.3567511259197
 21
1229.720330195234
 31
0.0
  0
LINE
  5
352
330
22
100
AcDbEntity
  8
_2-7_ビス
  6
Continuous
 62
     7
100
AcDbLine
 10
707.3567511259197
 20
1229.720330195234
 30
0.0
 11
707.6914044811886
 21
1229.737615952893
 31
0.0
  0
LINE
  5
353
330
22
100
AcDbEntity
  8
_2-7_ビス
  6
Continuous
 62
     7
100
AcDbLine
 10
707.8486590973559
 20
1229.984984373793
 30
0.0
 11
707.3684564731504
 21
1230.809545391939
 31
0.0
  0
LINE
  5
354
330
22
100
AcDbEntity
  8
_2-7_ビス
  6
Continuous
 62
     7
100
AcDbLine
 10
707.3684564731504
 20
1230.809545391939
 30
0.0
 11
707.3733171487289
 21
1231.286997337901
 31
0.0
  0
LINE
  5
355
330
22
100
AcDbEntity
  8
_2-7_ビス
  6
Continuous
 62
     7
100
AcDbLine
 10
707.3733171487289
 20
1231.286997337901
 30
0.0
 11
707.7213493987292
 21
1231.304282618593
 31
0.0
  0
LINE
  5
356
330
22
100
AcDbEntity
  8
_2-7_ビス
  6
Continuous
 62
     7
100
AcDbLine
 10
707.8809391484496
 20
1231.551651039493
 30
0.0
 11
707.3733169966057
 21
1232.376212442493
 31
0.0
  0
LINE
  5
357
330
22
100
AcDbEntity
  8
_2-7_ビス
  6
Continuous
 62
     7
100
AcDbLine
 10
707.3733169966057
 20
1232.376212442493
 30
0.0
 11
707.3733171487289
 21
1232.870949284293
 31
0.0
  0
LINE
  5
358
330
22
100
AcDbEntity
  8
_2-7_ビス
  6
Continuous
 62
     7
100
AcDbLine
 10
707.6438346487296
 20
1225.037615955793
 30
0.0
 11
707.5094758987281
 21
1225.037615955793
 31
0.0
  0
LINE
  5
359
330
22
100
AcDbEntity
  8
_2-7_ビス
  6
Continuous
 62
     7
100
AcDbLine
 10
707.5094758987281
 20
1225.037615955793
 30
0.0
 11
707.5094758987281
 21
1224.254282622943
 31
0.0
  0
LINE
  5
35A
330
22
100
AcDbEntity
  8
_2-7_ビス
  6
Continuous
 62
     7
100
AcDbLine
 10
707.5094758987281
 20
1224.254282622943
 30
0.0
 11
707.6594758987292
 21
1224.254282622943
 31
0.0
  0
LINE
  5
35B
330
22
100
AcDbEntity
  8
_2-7_ビス
  6
Continuous
 62
     7
100
AcDbLine
 10
707.6594758987292
 20
1224.254282622943
 30
0.0
 11
707.6594758987292
 21
1222.646387887093
 31
0.0
  0
LINE
  5
35C
330
22
100
AcDbEntity
  8
_2-7_ビス
  6
Continuous
 62
     7
100
AcDbLine
 10
707.6594758987292
 20
1222.646387887093
 30
0.0
 11
707.6659427095298
 21
1222.646387887093
 31
0.0
  0
LINE
  5
35D
330
22
100
AcDbEntity
  8
_2-7_ビス
  6
Continuous
 62
     7
100
AcDbLine
 10
707.7162178987284
 20
1222.316563325893
 30
0.0
 11
707.7162180452672
 21
1216.366121733073
 31
0.0
  0
LINE
  5
35E
330
22
100
AcDbEntity
  8
_2-7_ビス
  6
Continuous
 62
     7
100
AcDbLine
 10
707.7162180452672
 20
1216.366121733073
 30
0.0
 11
708.1566553987286
 21
1215.714700908914
 31
0.0
  0
LINE
  5
35F
330
22
100
AcDbEntity
  8
_2-7_ビス
  6
Continuous
 62
     7
100
AcDbLine
 10
708.1566553987286
 20
1215.714700908914
 30
0.0
 11
709.1594758987289
 21
1214.400773857093
 31
0.0
  0
LINE
  5
360
330
22
100
AcDbEntity
  8
_2-7_ビス
  6
Continuous
 62
     7
100
AcDbLine
 10
709.1594758987289
 20
1214.400773857093
 30
0.0
 11
709.3088543782235
 21
1214.400773857093
 31
0.0
  0
LINE
  5
361
330
22
100
AcDbEntity
  8
_2-7_ビス
  6
Continuous
 62
     7
100
AcDbLine
 10
709.3088543782235
 20
1214.400773857093
 30
0.0
 11
708.223760268909
 21
1216.366121733073
 31
0.0
  0
LINE
  5
362
330
22
100
AcDbEntity
  8
_2-7_ビス
  6
Continuous
 62
     7
100
AcDbLine
 10
708.223760268909
 20
1216.366121733073
 30
0.0
 11
708.2237601487284
 21
1220.337615958693
 31
0.0
  0
LINE
  5
363
330
22
100
AcDbEntity
  8
_2-7_ビス
  6
Continuous
 62
     7
100
AcDbLine
 10
708.8071236487281
 20
1220.337615958693
 30
0.0
 11
708.8071233752968
 21
1216.366121885772
 31
0.0
  0
LINE
  5
364
330
22
100
AcDbEntity
  8
_2-7_ビス
  6
Continuous
 62
     7
100
AcDbLine
 10
708.8071233752968
 20
1216.366121885772
 30
0.0
 11
709.8922177405304
 21
1214.400773857093
 31
0.0
  0
LINE
  5
365
330
22
100
AcDbEntity
  8
_2-7_ビス
  6
Continuous
 62
     7
100
AcDbLine
 10
709.8922177405304
 20
1214.400773857093
 30
0.0
 11
710.509475898729
 21
1214.400773857093
 31
0.0
  0
LINE
  5
366
330
22
100
AcDbEntity
  8
_2-7_ビス
  6
Continuous
 62
     7
100
AcDbLine
 10
707.8125846487288
 20
1246.970949275592
 30
0.0
 11
707.8125846487288
 21
1246.970949275592
 31
0.0
  0
LINE
  5
367
330
22
100
AcDbEntity
  8
_2-7_ビス
  6
Continuous
 62
     7
100
AcDbLine
 10
707.8125846487288
 20
1246.970949275592
 30
0.0
 11
707.8395430996291
 21
1246.975603060308
 31
0.0
  0
LINE
  5
368
330
22
100
AcDbEntity
  8
_2-7_ビス
  6
Continuous
 62
     7
100
AcDbLine
 10
707.8395430996291
 20
1246.975603060308
 30
0.0
 11
707.8653569446423
 21
1246.985332820438
 31
0.0
  0
LINE
  5
369
330
22
100
AcDbEntity
  8
_2-7_ビス
  6
Continuous
 62
     7
100
AcDbLine
 10
707.8653569446423
 20
1246.985332820438
 30
0.0
 11
707.8892418431498
 21
1246.999842922144
 31
0.0
  0
LINE
  5
36A
330
22
100
AcDbEntity
  8
_2-7_ビス
  6
Continuous
 62
     7
100
AcDbLine
 10
707.8892418431498
 20
1246.999842922144
 30
0.0
 11
707.9104720645965
 21
1247.018692483329
 31
0.0
  0
LINE
  5
36B
330
22
100
AcDbEntity
  8
_2-7_ビス
  6
Continuous
 62
     7
100
AcDbLine
 10
707.9104720645965
 20
1247.018692483329
 30
0.0
 11
707.9284025394471
 21
1247.041308769615
 31
0.0
  0
LINE
  5
36C
330
22
100
AcDbEntity
  8
_2-7_ビス
  6
Continuous
 62
     7
100
AcDbLine
 10
707.9284025394471
 20
1247.041308769615
 30
0.0
 11
707.9424884592965
 21
1247.067004596587
 31
0.0
  0
LINE
  5
36D
330
22
100
AcDbEntity
  8
_2-7_ビス
  6
Continuous
 62
     7
100
AcDbLine
 10
707.9424884592965
 20
1247.067004596587
 30
0.0
 11
707.9523018305977
 21
1247.094999209545
 31
0.0
  0
LINE
  5
36E
330
22
100
AcDbEntity
  8
_2-7_ビス
  6
Continuous
 62
     7
100
AcDbLine
 10
707.9523018305977
 20
1247.094999209545
 30
0.0
 11
707.9575444790297
 21
1247.124442006341
 31
0.0
  0
LINE
  5
36F
330
22
100
AcDbEntity
  8
_2-7_ビス
  6
Continuous
 62
     7
100
AcDbLine
 10
707.9575444790297
 20
1247.124442006341
 30
0.0
 11
707.9580571093726
 21
1247.154438382492
 31
0.0
  0
LINE
  5
370
330
22
100
AcDbEntity
  8
_2-7_ビス
  6
Continuous
 62
     7
100
AcDbLine
 10
707.9580571093726
 20
1247.154438382492
 30
0.0
 11
707.953824145613
 21
1247.184076913289
 31
0.0
  0
LINE
  5
371
330
22
100
AcDbEntity
  8
_2-7_ビス
  6
Continuous
 62
     7
100
AcDbLine
 10
707.953824145613
 20
1247.184076913289
 30
0.0
 11
707.9449742042128
 21
1247.212457046969
 31
0.0
  0
LINE
  5
372
330
22
100
AcDbEntity
  8
_2-7_ビス
  6
Continuous
 62
     7
100
AcDbLine
 10
707.9449742042128
 20
1247.212457046969
 30
0.0
 11
707.931776186163
 21
1247.238716467534
 31
0.0
  0
LINE
  5
373
330
22
100
AcDbEntity
  8
_2-7_ビス
  6
Continuous
 62
     7
100
AcDbLine
 10
707.931776186163
 20
1247.238716467534
 30
0.0
 11
707.9317757936457
 21
1247.238717109159
 31
0.0
  0
LINE
  5
374
330
22
100
AcDbEntity
  8
_2-7_ビス
  6
Continuous
 62
     7
100
AcDbLine
 10
707.7213493987295
 20
1245.404282609892
 30
0.0
 11
707.7213493987295
 21
1245.404282609892
 31
0.0
  0
LINE
  5
375
330
22
100
AcDbEntity
  8
_2-7_ビス
  6
Continuous
 62
     7
100
AcDbLine
 10
707.7213493987295
 20
1245.404282609892
 30
0.0
 11
707.7558726270645
 21
1245.416796160152
 31
0.0
  0
LINE
  5
376
330
22
100
AcDbEntity
  8
_2-7_ビス
  6
Continuous
 62
     7
100
AcDbLine
 10
707.7558726270645
 20
1245.416796160152
 30
0.0
 11
707.7878949054175
 21
1245.43571048093
 31
0.0
  0
LINE
  5
377
330
22
100
AcDbEntity
  8
_2-7_ビス
  6
Continuous
 62
     7
100
AcDbLine
 10
707.7878949054175
 20
1245.43571048093
 30
0.0
 11
707.8164432530651
 21
1245.460450870161
 31
0.0
  0
LINE
  5
378
330
22
100
AcDbEntity
  8
_2-7_ビス
  6
Continuous
 62
     7
100
AcDbLine
 10
707.8164432530651
 20
1245.460450870161
 30
0.0
 11
707.84065024291
 21
1245.490265603638
 31
0.0
  0
LINE
  5
379
330
22
100
AcDbEntity
  8
_2-7_ビス
  6
Continuous
 62
     7
100
AcDbLine
 10
707.84065024291
 20
1245.490265603638
 30
0.0
 11
707.859780357815
 21
1245.524248775772
 31
0.0
  0
LINE
  5
37A
330
22
100
AcDbEntity
  8
_2-7_ビス
  6
Continuous
 62
     7
100
AcDbLine
 10
707.859780357815
 20
1245.524248775772
 30
0.0
 11
707.8732523389192
 21
1245.561367825072
 31
0.0
  0
LINE
  5
37B
330
22
100
AcDbEntity
  8
_2-7_ビス
  6
Continuous
 62
     7
100
AcDbLine
 10
707.8732523389192
 20
1245.561367825072
 30
0.0
 11
707.8806568468938
 21
1245.60049490801
 31
0.0
  0
LINE
  5
37C
330
22
100
AcDbEntity
  8
_2-7_ビス
  6
Continuous
 62
     7
100
AcDbLine
 10
707.8806568468938
 20
1245.60049490801
 30
0.0
 11
707.8817688995107
 21
1245.640441167968
 31
0.0
  0
LINE
  5
37D
330
22
100
AcDbEntity
  8
_2-7_ビス
  6
Continuous
 62
     7
100
AcDbLine
 10
707.8817688995107
 20
1245.640441167968
 30
0.0
 11
707.8809391484501
 21
1245.651651030792
 31
0.0
  0
LINE
  5
37E
330
22
100
AcDbEntity
  8
_2-7_ビス
  6
Continuous
 62
     7
100
AcDbLine
 10
707.7213493987295
 20
1243.837615944193
 30
0.0
 11
707.7213493987295
 21
1243.837615944193
 31
0.0
  0
LINE
  5
37F
330
22
100
AcDbEntity
  8
_2-7_ビス
  6
Continuous
 62
     7
100
AcDbLine
 10
707.7213493987295
 20
1243.837615944193
 30
0.0
 11
707.7558726270645
 21
1243.850129494452
 31
0.0
  0
LINE
  5
380
330
22
100
AcDbEntity
  8
_2-7_ビス
  6
Continuous
 62
     7
100
AcDbLine
 10
707.7558726270645
 20
1243.850129494452
 30
0.0
 11
707.7878949054175
 21
1243.86904381523
 31
0.0
  0
LINE
  5
381
330
22
100
AcDbEntity
  8
_2-7_ビス
  6
Continuous
 62
     7
100
AcDbLine
 10
707.7878949054175
 20
1243.86904381523
 30
0.0
 11
707.8164432530651
 21
1243.893784204461
 31
0.0
  0
LINE
  5
382
330
22
100
AcDbEntity
  8
_2-7_ビス
  6
Continuous
 62
     7
100
AcDbLine
 10
707.8164432530651
 20
1243.893784204461
 30
0.0
 11
707.84065024291
 21
1243.923598937939
 31
0.0
  0
LINE
  5
383
330
22
100
AcDbEntity
  8
_2-7_ビス
  6
Continuous
 62
     7
100
AcDbLine
 10
707.84065024291
 20
1243.923598937939
 30
0.0
 11
707.859780357815
 21
1243.957582110072
 31
0.0
  0
LINE
  5
384
330
22
100
AcDbEntity
  8
_2-7_ビス
  6
Continuous
 62
     7
100
AcDbLine
 10
707.859780357815
 20
1243.957582110072
 30
0.0
 11
707.8732523389192
 21
1243.994701159373
 31
0.0
  0
LINE
  5
385
330
22
100
AcDbEntity
  8
_2-7_ビス
  6
Continuous
 62
     7
100
AcDbLine
 10
707.8732523389192
 20
1243.994701159373
 30
0.0
 11
707.8806568468938
 21
1244.03382824231
 31
0.0
  0
LINE
  5
386
330
22
100
AcDbEntity
  8
_2-7_ビス
  6
Continuous
 62
     7
100
AcDbLine
 10
707.8806568468938
 20
1244.03382824231
 30
0.0
 11
707.8817688995107
 21
1244.073774502269
 31
0.0
  0
LINE
  5
387
330
22
100
AcDbEntity
  8
_2-7_ビス
  6
Continuous
 62
     7
100
AcDbLine
 10
707.8817688995107
 20
1244.073774502269
 30
0.0
 11
707.8809391484501
 21
1244.084984365093
 31
0.0
  0
LINE
  5
388
330
22
100
AcDbEntity
  8
_2-7_ビス
  6
Continuous
 62
     7
100
AcDbLine
 10
707.6643625393278
 20
1242.270949278492
 30
0.0
 11
707.6643625393278
 21
1242.270949278492
 31
0.0
  0
LINE
  5
389
330
22
100
AcDbEntity
  8
_2-7_ビス
  6
Continuous
 62
     7
100
AcDbLine
 10
707.6643625393278
 20
1242.270949278492
 30
0.0
 11
707.6988857676627
 21
1242.283462828752
 31
0.0
  0
LINE
  5
38A
330
22
100
AcDbEntity
  8
_2-7_ビス
  6
Continuous
 62
     7
100
AcDbLine
 10
707.6988857676627
 20
1242.283462828752
 30
0.0
 11
707.7309080460159
 21
1242.30237714953
 31
0.0
  0
LINE
  5
38B
330
22
100
AcDbEntity
  8
_2-7_ビス
  6
Continuous
 62
     7
100
AcDbLine
 10
707.7309080460159
 20
1242.30237714953
 30
0.0
 11
707.7594563936635
 21
1242.327117538761
 31
0.0
  0
LINE
  5
38C
330
22
100
AcDbEntity
  8
_2-7_ビス
  6
Continuous
 62
     7
100
AcDbLine
 10
707.7594563936635
 20
1242.327117538761
 30
0.0
 11
707.7836633835082
 21
1242.356932272238
 31
0.0
  0
LINE
  5
38D
330
22
100
AcDbEntity
  8
_2-7_ビス
  6
Continuous
 62
     7
100
AcDbLine
 10
707.7836633835082
 20
1242.356932272238
 30
0.0
 11
707.8027934984134
 21
1242.390915444372
 31
0.0
  0
LINE
  5
38E
330
22
100
AcDbEntity
  8
_2-7_ビス
  6
Continuous
 62
     7
100
AcDbLine
 10
707.8027934984134
 20
1242.390915444372
 30
0.0
 11
707.8162654795177
 21
1242.428034493672
 31
0.0
  0
LINE
  5
38F
330
22
100
AcDbEntity
  8
_2-7_ビス
  6
Continuous
 62
     7
100
AcDbLine
 10
707.8162654795177
 20
1242.428034493672
 30
0.0
 11
707.8236699874921
 21
1242.467161576609
 31
0.0
  0
LINE
  5
390
330
22
100
AcDbEntity
  8
_2-7_ビス
  6
Continuous
 62
     7
100
AcDbLine
 10
707.8236699874921
 20
1242.467161576609
 30
0.0
 11
707.8247820401092
 21
1242.507107836569
 31
0.0
  0
LINE
  5
391
330
22
100
AcDbEntity
  8
_2-7_ビス
  6
Continuous
 62
     7
100
AcDbLine
 10
707.8247820401092
 20
1242.507107836569
 30
0.0
 11
707.8239522890484
 21
1242.518317699393
 31
0.0
  0
LINE
  5
392
330
22
100
AcDbEntity
  8
_2-7_ビス
  6
Continuous
 62
     7
100
AcDbLine
 10
707.7213493987295
 20
1239.137615947092
 30
0.0
 11
707.7213493987295
 21
1239.137615947092
 31
0.0
  0
LINE
  5
393
330
22
100
AcDbEntity
  8
_2-7_ビス
  6
Continuous
 62
     7
100
AcDbLine
 10
707.7213493987295
 20
1239.137615947092
 30
0.0
 11
707.7558726270645
 21
1239.150129497351
 31
0.0
  0
LINE
  5
394
330
22
100
AcDbEntity
  8
_2-7_ビス
  6
Continuous
 62
     7
100
AcDbLine
 10
707.7558726270645
 20
1239.150129497351
 30
0.0
 11
707.7878949054175
 21
1239.16904381813
 31
0.0
  0
LINE
  5
395
330
22
100
AcDbEntity
  8
_2-7_ビス
  6
Continuous
 62
     7
100
AcDbLine
 10
707.7878949054175
 20
1239.16904381813
 30
0.0
 11
707.8164432530651
 21
1239.193784207361
 31
0.0
  0
LINE
  5
396
330
22
100
AcDbEntity
  8
_2-7_ビス
  6
Continuous
 62
     7
100
AcDbLine
 10
707.8164432530651
 20
1239.193784207361
 30
0.0
 11
707.84065024291
 21
1239.223598940838
 31
0.0
  0
LINE
  5
397
330
22
100
AcDbEntity
  8
_2-7_ビス
  6
Continuous
 62
     7
100
AcDbLine
 10
707.84065024291
 20
1239.223598940838
 30
0.0
 11
707.859780357815
 21
1239.257582112971
 31
0.0
  0
LINE
  5
398
330
22
100
AcDbEntity
  8
_2-7_ビス
  6
Continuous
 62
     7
100
AcDbLine
 10
707.859780357815
 20
1239.257582112971
 30
0.0
 11
707.8732523389192
 21
1239.294701162272
 31
0.0
  0
LINE
  5
399
330
22
100
AcDbEntity
  8
_2-7_ビス
  6
Continuous
 62
     7
100
AcDbLine
 10
707.8732523389192
 20
1239.294701162272
 30
0.0
 11
707.8806568468938
 21
1239.333828245209
 31
0.0
  0
LINE
  5
39A
330
22
100
AcDbEntity
  8
_2-7_ビス
  6
Continuous
 62
     7
100
AcDbLine
 10
707.8806568468938
 20
1239.333828245209
 30
0.0
 11
707.8817688995107
 21
1239.373774505169
 31
0.0
  0
LINE
  5
39B
330
22
100
AcDbEntity
  8
_2-7_ビス
  6
Continuous
 62
     7
100
AcDbLine
 10
707.8817688995107
 20
1239.373774505169
 30
0.0
 11
707.8809391484501
 21
1239.384984367992
 31
0.0
  0
LINE
  5
39C
330
22
100
AcDbEntity
  8
_2-7_ビス
  6
Continuous
 62
     7
100
AcDbLine
 10
707.7213493987295
 20
1237.570949281393
 30
0.0
 11
707.7213493987295
 21
1237.570949281393
 31
0.0
  0
LINE
  5
39D
330
22
100
AcDbEntity
  8
_2-7_ビス
  6
Continuous
 62
     7
100
AcDbLine
 10
707.7213493987295
 20
1237.570949281393
 30
0.0
 11
707.7558726270645
 21
1237.583462831652
 31
0.0
  0
LINE
  5
39E
330
22
100
AcDbEntity
  8
_2-7_ビス
  6
Continuous
 62
     7
100
AcDbLine
 10
707.7558726270645
 20
1237.583462831652
 30
0.0
 11
707.7878949054175
 21
1237.60237715243
 31
0.0
  0
LINE
  5
39F
330
22
100
AcDbEntity
  8
_2-7_ビス
  6
Continuous
 62
     7
100
AcDbLine
 10
707.7878949054175
 20
1237.60237715243
 30
0.0
 11
707.8164432530651
 21
1237.627117541661
 31
0.0
  0
LINE
  5
3A0
330
22
100
AcDbEntity
  8
_2-7_ビス
  6
Continuous
 62
     7
100
AcDbLine
 10
707.8164432530651
 20
1237.627117541661
 30
0.0
 11
707.84065024291
 21
1237.656932275138
 31
0.0
  0
LINE
  5
3A1
330
22
100
AcDbEntity
  8
_2-7_ビス
  6
Continuous
 62
     7
100
AcDbLine
 10
707.84065024291
 20
1237.656932275138
 30
0.0
 11
707.859780357815
 21
1237.690915447272
 31
0.0
  0
LINE
  5
3A2
330
22
100
AcDbEntity
  8
_2-7_ビス
  6
Continuous
 62
     7
100
AcDbLine
 10
707.859780357815
 20
1237.690915447272
 30
0.0
 11
707.8732523389192
 21
1237.728034496572
 31
0.0
  0
LINE
  5
3A3
330
22
100
AcDbEntity
  8
_2-7_ビス
  6
Continuous
 62
     7
100
AcDbLine
 10
707.8732523389192
 20
1237.728034496572
 30
0.0
 11
707.8806568468938
 21
1237.76716157951
 31
0.0
  0
LINE
  5
3A4
330
22
100
AcDbEntity
  8
_2-7_ビス
  6
Continuous
 62
     7
100
AcDbLine
 10
707.8806568468938
 20
1237.76716157951
 30
0.0
 11
707.8817688995107
 21
1237.807107839469
 31
0.0
  0
LINE
  5
3A5
330
22
100
AcDbEntity
  8
_2-7_ビス
  6
Continuous
 62
     7
100
AcDbLine
 10
707.8817688995107
 20
1237.807107839469
 30
0.0
 11
707.8809391484501
 21
1237.818317702293
 31
0.0
  0
LINE
  5
3A6
330
22
100
AcDbEntity
  8
_2-7_ビス
  6
Continuous
 62
     7
100
AcDbLine
 10
707.7213493987295
 20
1236.004282615692
 30
0.0
 11
707.7213493987295
 21
1236.004282615692
 31
0.0
  0
LINE
  5
3A7
330
22
100
AcDbEntity
  8
_2-7_ビス
  6
Continuous
 62
     7
100
AcDbLine
 10
707.7213493987295
 20
1236.004282615692
 30
0.0
 11
707.7558726270645
 21
1236.016796165951
 31
0.0
  0
LINE
  5
3A8
330
22
100
AcDbEntity
  8
_2-7_ビス
  6
Continuous
 62
     7
100
AcDbLine
 10
707.7558726270645
 20
1236.016796165951
 30
0.0
 11
707.7878949054175
 21
1236.03571048673
 31
0.0
  0
LINE
  5
3A9
330
22
100
AcDbEntity
  8
_2-7_ビス
  6
Continuous
 62
     7
100
AcDbLine
 10
707.7878949054175
 20
1236.03571048673
 30
0.0
 11
707.8164432530651
 21
1236.060450875961
 31
0.0
  0
LINE
  5
3AA
330
22
100
AcDbEntity
  8
_2-7_ビス
  6
Continuous
 62
     7
100
AcDbLine
 10
707.8164432530651
 20
1236.060450875961
 30
0.0
 11
707.84065024291
 21
1236.090265609438
 31
0.0
  0
LINE
  5
3AB
330
22
100
AcDbEntity
  8
_2-7_ビス
  6
Continuous
 62
     7
100
AcDbLine
 10
707.84065024291
 20
1236.090265609438
 30
0.0
 11
707.859780357815
 21
1236.124248781571
 31
0.0
  0
LINE
  5
3AC
330
22
100
AcDbEntity
  8
_2-7_ビス
  6
Continuous
 62
     7
100
AcDbLine
 10
707.859780357815
 20
1236.124248781571
 30
0.0
 11
707.8732523389192
 21
1236.161367830872
 31
0.0
  0
LINE
  5
3AD
330
22
100
AcDbEntity
  8
_2-7_ビス
  6
Continuous
 62
     7
100
AcDbLine
 10
707.8732523389192
 20
1236.161367830872
 30
0.0
 11
707.8806568468938
 21
1236.200494913809
 31
0.0
  0
LINE
  5
3AE
330
22
100
AcDbEntity
  8
_2-7_ビス
  6
Continuous
 62
     7
100
AcDbLine
 10
707.8806568468938
 20
1236.200494913809
 30
0.0
 11
707.8817688995107
 21
1236.240441173769
 31
0.0
  0
LINE
  5
3AF
330
22
100
AcDbEntity
  8
_2-7_ビス
  6
Continuous
 62
     7
100
AcDbLine
 10
707.8817688995107
 20
1236.240441173769
 30
0.0
 11
707.8809391484501
 21
1236.251651036593
 31
0.0
  0
LINE
  5
3B0
330
22
100
AcDbEntity
  8
_2-7_ビス
  6
Continuous
 62
     7
100
AcDbLine
 10
707.6640698271551
 20
1234.437615949993
 30
0.0
 11
707.6640698271551
 21
1234.437615949993
 31
0.0
  0
LINE
  5
3B1
330
22
100
AcDbEntity
  8
_2-7_ビス
  6
Continuous
 62
     7
100
AcDbLine
 10
707.6640698271551
 20
1234.437615949993
 30
0.0
 11
707.6985930554902
 21
1234.450129500252
 31
0.0
  0
LINE
  5
3B2
330
22
100
AcDbEntity
  8
_2-7_ビス
  6
Continuous
 62
     7
100
AcDbLine
 10
707.6985930554902
 20
1234.450129500252
 30
0.0
 11
707.7306153338432
 21
1234.46904382103
 31
0.0
  0
LINE
  5
3B3
330
22
100
AcDbEntity
  8
_2-7_ビス
  6
Continuous
 62
     7
100
AcDbLine
 10
707.7306153338432
 20
1234.46904382103
 30
0.0
 11
707.7591636814908
 21
1234.493784210261
 31
0.0
  0
LINE
  5
3B4
330
22
100
AcDbEntity
  8
_2-7_ビス
  6
Continuous
 62
     7
100
AcDbLine
 10
707.7591636814908
 20
1234.493784210261
 30
0.0
 11
707.7833706713355
 21
1234.523598943738
 31
0.0
  0
LINE
  5
3B5
330
22
100
AcDbEntity
  8
_2-7_ビス
  6
Continuous
 62
     7
100
AcDbLine
 10
707.7833706713355
 20
1234.523598943738
 30
0.0
 11
707.8025007862406
 21
1234.557582115872
 31
0.0
  0
LINE
  5
3B6
330
22
100
AcDbEntity
  8
_2-7_ビス
  6
Continuous
 62
     7
100
AcDbLine
 10
707.8025007862406
 20
1234.557582115872
 30
0.0
 11
707.8159727673448
 21
1234.594701165172
 31
0.0
  0
LINE
  5
3B7
330
22
100
AcDbEntity
  8
_2-7_ビス
  6
Continuous
 62
     7
100
AcDbLine
 10
707.8159727673448
 20
1234.594701165172
 30
0.0
 11
707.8233772753196
 21
1234.633828248109
 31
0.0
  0
LINE
  5
3B8
330
22
100
AcDbEntity
  8
_2-7_ビス
  6
Continuous
 62
     7
100
AcDbLine
 10
707.8233772753196
 20
1234.633828248109
 30
0.0
 11
707.8244893279365
 21
1234.673774508068
 31
0.0
  0
LINE
  5
3B9
330
22
100
AcDbEntity
  8
_2-7_ビス
  6
Continuous
 62
     7
100
AcDbLine
 10
707.8244893279365
 20
1234.673774508068
 30
0.0
 11
707.8236595768758
 21
1234.684984370893
 31
0.0
  0
LINE
  5
3BA
330
22
100
AcDbEntity
  8
_2-7_ビス
  6
Continuous
 62
     7
100
AcDbLine
 10
707.7213493987295
 20
1231.304282618592
 30
0.0
 11
707.7213493987295
 21
1231.304282618592
 31
0.0
  0
LINE
  5
3BB
330
22
100
AcDbEntity
  8
_2-7_ビス
  6
Continuous
 62
     7
100
AcDbLine
 10
707.7213493987295
 20
1231.304282618592
 30
0.0
 11
707.7558726270645
 21
1231.316796168852
 31
0.0
  0
LINE
  5
3BC
330
22
100
AcDbEntity
  8
_2-7_ビス
  6
Continuous
 62
     7
100
AcDbLine
 10
707.7558726270645
 20
1231.316796168852
 30
0.0
 11
707.7878949054175
 21
1231.33571048963
 31
0.0
  0
LINE
  5
3BD
330
22
100
AcDbEntity
  8
_2-7_ビス
  6
Continuous
 62
     7
100
AcDbLine
 10
707.7878949054175
 20
1231.33571048963
 30
0.0
 11
707.8164432530651
 21
1231.360450878861
 31
0.0
  0
LINE
  5
3BE
330
22
100
AcDbEntity
  8
_2-7_ビス
  6
Continuous
 62
     7
100
AcDbLine
 10
707.8164432530651
 20
1231.360450878861
 30
0.0
 11
707.84065024291
 21
1231.390265612338
 31
0.0
  0
LINE
  5
3BF
330
22
100
AcDbEntity
  8
_2-7_ビス
  6
Continuous
 62
     7
100
AcDbLine
 10
707.84065024291
 20
1231.390265612338
 30
0.0
 11
707.859780357815
 21
1231.424248784471
 31
0.0
  0
LINE
  5
3C0
330
22
100
AcDbEntity
  8
_2-7_ビス
  6
Continuous
 62
     7
100
AcDbLine
 10
707.859780357815
 20
1231.424248784471
 30
0.0
 11
707.8732523389192
 21
1231.461367833772
 31
0.0
  0
LINE
  5
3C1
330
22
100
AcDbEntity
  8
_2-7_ビス
  6
Continuous
 62
     7
100
AcDbLine
 10
707.8732523389192
 20
1231.461367833772
 30
0.0
 11
707.8806568468938
 21
1231.500494916709
 31
0.0
  0
LINE
  5
3C2
330
22
100
AcDbEntity
  8
_2-7_ビス
  6
Continuous
 62
     7
100
AcDbLine
 10
707.8806568468938
 20
1231.500494916709
 30
0.0
 11
707.8817688995107
 21
1231.540441176669
 31
0.0
  0
LINE
  5
3C3
330
22
100
AcDbEntity
  8
_2-7_ビス
  6
Continuous
 62
     7
100
AcDbLine
 10
707.8817688995107
 20
1231.540441176669
 30
0.0
 11
707.8809391484501
 21
1231.551651039493
 31
0.0
  0
LINE
  5
3C4
330
22
100
AcDbEntity
  8
_2-7_ビス
  6
Continuous
 62
     7
100
AcDbLine
 10
707.6890693476347
 20
1229.737615952892
 30
0.0
 11
707.6890693476347
 21
1229.737615952892
 31
0.0
  0
LINE
  5
3C5
330
22
100
AcDbEntity
  8
_2-7_ビス
  6
Continuous
 62
     7
100
AcDbLine
 10
707.6890693476347
 20
1229.737615952892
 30
0.0
 11
707.7235925759699
 21
1229.750129503151
 31
0.0
  0
LINE
  5
3C6
330
22
100
AcDbEntity
  8
_2-7_ビス
  6
Continuous
 62
     7
100
AcDbLine
 10
707.7235925759699
 20
1229.750129503151
 30
0.0
 11
707.7556148543229
 21
1229.769043823929
 31
0.0
  0
LINE
  5
3C7
330
22
100
AcDbEntity
  8
_2-7_ビス
  6
Continuous
 62
     7
100
AcDbLine
 10
707.7556148543229
 20
1229.769043823929
 30
0.0
 11
707.7841632019705
 21
1229.793784213161
 31
0.0
  0
LINE
  5
3C8
330
22
100
AcDbEntity
  8
_2-7_ビス
  6
Continuous
 62
     7
100
AcDbLine
 10
707.7841632019705
 20
1229.793784213161
 30
0.0
 11
707.8083701918153
 21
1229.823598946638
 31
0.0
  0
LINE
  5
3C9
330
22
100
AcDbEntity
  8
_2-7_ビス
  6
Continuous
 62
     7
100
AcDbLine
 10
707.8083701918153
 20
1229.823598946638
 30
0.0
 11
707.8275003067204
 21
1229.857582118771
 31
0.0
  0
LINE
  5
3CA
330
22
100
AcDbEntity
  8
_2-7_ビス
  6
Continuous
 62
     7
100
AcDbLine
 10
707.8275003067204
 20
1229.857582118771
 30
0.0
 11
707.8409722878245
 21
1229.894701168072
 31
0.0
  0
LINE
  5
3CB
330
22
100
AcDbEntity
  8
_2-7_ビス
  6
Continuous
 62
     7
100
AcDbLine
 10
707.8409722878245
 20
1229.894701168072
 30
0.0
 11
707.8483767957992
 21
1229.933828251009
 31
0.0
  0
LINE
  5
3CC
330
22
100
AcDbEntity
  8
_2-7_ビス
  6
Continuous
 62
     7
100
AcDbLine
 10
707.8483767957992
 20
1229.933828251009
 30
0.0
 11
707.8494888484162
 21
1229.973774510968
 31
0.0
  0
LINE
  5
3CD
330
22
100
AcDbEntity
  8
_2-7_ビス
  6
Continuous
 62
     7
100
AcDbLine
 10
707.8494888484162
 20
1229.973774510968
 30
0.0
 11
707.8486590973555
 21
1229.984984373792
 31
0.0
  0
LINE
  5
3CE
330
22
100
AcDbEntity
  8
_2-7_ビス
  6
Continuous
 62
     7
100
AcDbLine
 10
707.6569663948263
 20
1228.170949287192
 30
0.0
 11
707.6569663948263
 21
1228.170949287192
 31
0.0
  0
LINE
  5
3CF
330
22
100
AcDbEntity
  8
_2-7_ビス
  6
Continuous
 62
     7
100
AcDbLine
 10
707.6569663948263
 20
1228.170949287192
 30
0.0
 11
707.6914896231614
 21
1228.183462837452
 31
0.0
  0
LINE
  5
3D0
330
22
100
AcDbEntity
  8
_2-7_ビス
  6
Continuous
 62
     7
100
AcDbLine
 10
707.6914896231614
 20
1228.183462837452
 30
0.0
 11
707.7235119015146
 21
1228.20237715823
 31
0.0
  0
LINE
  5
3D1
330
22
100
AcDbEntity
  8
_2-7_ビス
  6
Continuous
 62
     7
100
AcDbLine
 10
707.7235119015146
 20
1228.20237715823
 30
0.0
 11
707.7520602491621
 21
1228.227117547461
 31
0.0
  0
LINE
  5
3D2
330
22
100
AcDbEntity
  8
_2-7_ビス
  6
Continuous
 62
     7
100
AcDbLine
 10
707.7520602491621
 20
1228.227117547461
 30
0.0
 11
707.7762672390069
 21
1228.256932280938
 31
0.0
  0
LINE
  5
3D3
330
22
100
AcDbEntity
  8
_2-7_ビス
  6
Continuous
 62
     7
100
AcDbLine
 10
707.7762672390069
 20
1228.256932280938
 30
0.0
 11
707.795397353912
 21
1228.290915453071
 31
0.0
  0
LINE
  5
3D4
330
22
100
AcDbEntity
  8
_2-7_ビス
  6
Continuous
 62
     7
100
AcDbLine
 10
707.795397353912
 20
1228.290915453071
 30
0.0
 11
707.8088693350162
 21
1228.328034502372
 31
0.0
  0
LINE
  5
3D5
330
22
100
AcDbEntity
  8
_2-7_ビス
  6
Continuous
 62
     7
100
AcDbLine
 10
707.8088693350162
 20
1228.328034502372
 30
0.0
 11
707.8162738429909
 21
1228.367161585309
 31
0.0
  0
LINE
  5
3D6
330
22
100
AcDbEntity
  8
_2-7_ビス
  6
Continuous
 62
     7
100
AcDbLine
 10
707.8162738429909
 20
1228.367161585309
 30
0.0
 11
707.8173858956079
 21
1228.407107845268
 31
0.0
  0
LINE
  5
3D7
330
22
100
AcDbEntity
  8
_2-7_ビス
  6
Continuous
 62
     7
100
AcDbLine
 10
707.8173858956079
 20
1228.407107845268
 30
0.0
 11
707.8165561445471
 21
1228.418317708093
 31
0.0
  0
LINE
  5
3D8
330
22
100
AcDbEntity
  8
_2-7_ビス
  6
Continuous
 62
     7
100
AcDbLine
 10
707.6346514637968
 20
1226.604282621493
 30
0.0
 11
707.6346514637968
 21
1226.604282621493
 31
0.0
  0
LINE
  5
3D9
330
22
100
AcDbEntity
  8
_2-7_ビス
  6
Continuous
 62
     7
100
AcDbLine
 10
707.6346514637968
 20
1226.604282621493
 30
0.0
 11
707.6691746921319
 21
1226.616796171753
 31
0.0
  0
LINE
  5
3DA
330
22
100
AcDbEntity
  8
_2-7_ビス
  6
Continuous
 62
     7
100
AcDbLine
 10
707.6691746921319
 20
1226.616796171753
 30
0.0
 11
707.7011969704849
 21
1226.635710492531
 31
0.0
  0
LINE
  5
3DB
330
22
100
AcDbEntity
  8
_2-7_ビス
  6
Continuous
 62
     7
100
AcDbLine
 10
707.7011969704849
 20
1226.635710492531
 30
0.0
 11
707.7297453181325
 21
1226.660450881762
 31
0.0
  0
LINE
  5
3DC
330
22
100
AcDbEntity
  8
_2-7_ビス
  6
Continuous
 62
     7
100
AcDbLine
 10
707.7297453181325
 20
1226.660450881762
 30
0.0
 11
707.7539523079774
 21
1226.690265615239
 31
0.0
  0
LINE
  5
3DD
330
22
100
AcDbEntity
  8
_2-7_ビス
  6
Continuous
 62
     7
100
AcDbLine
 10
707.7539523079774
 20
1226.690265615239
 30
0.0
 11
707.7730824228825
 21
1226.724248787373
 31
0.0
  0
LINE
  5
3DE
330
22
100
AcDbEntity
  8
_2-7_ビス
  6
Continuous
 62
     7
100
AcDbLine
 10
707.7730824228825
 20
1226.724248787373
 30
0.0
 11
707.7865544039866
 21
1226.761367836673
 31
0.0
  0
LINE
  5
3DF
330
22
100
AcDbEntity
  8
_2-7_ビス
  6
Continuous
 62
     7
100
AcDbLine
 10
707.7865544039866
 20
1226.761367836673
 30
0.0
 11
707.7939589119612
 21
1226.80049491961
 31
0.0
  0
LINE
  5
3E0
330
22
100
AcDbEntity
  8
_2-7_ビス
  6
Continuous
 62
     7
100
AcDbLine
 10
707.7939589119612
 20
1226.80049491961
 30
0.0
 11
707.7950709645783
 21
1226.84044117957
 31
0.0
  0
LINE
  5
3E1
330
22
100
AcDbEntity
  8
_2-7_ビス
  6
Continuous
 62
     7
100
AcDbLine
 10
707.7950709645783
 20
1226.84044117957
 30
0.0
 11
707.7942412135175
 21
1226.851651042394
 31
0.0
  0
LINE
  5
3E2
330
22
100
AcDbEntity
  8
_2-7_ビス
  6
Continuous
 62
     7
100
AcDbLine
 10
707.6438346487289
 20
1225.037615955793
 30
0.0
 11
707.6438346487289
 21
1225.037615955793
 31
0.0
  0
LINE
  5
3E3
330
22
100
AcDbEntity
  8
_2-7_ビス
  6
Continuous
 62
     7
100
AcDbLine
 10
707.6438346487289
 20
1225.037615955793
 30
0.0
 11
707.6709805846678
 21
1225.042711774642
 31
0.0
  0
LINE
  5
3E4
330
22
100
AcDbEntity
  8
_2-7_ビス
  6
Continuous
 62
     7
100
AcDbLine
 10
707.6709805846678
 20
1225.042711774642
 30
0.0
 11
707.6969092488996
 21
1225.052912646453
 31
0.0
  0
LINE
  5
3E5
330
22
100
AcDbEntity
  8
_2-7_ビス
  6
Continuous
 62
     7
100
AcDbLine
 10
707.6969092488996
 20
1225.052912646453
 30
0.0
 11
707.720832812082
 21
1225.0679086229
 31
0.0
  0
LINE
  5
3E6
330
22
100
AcDbEntity
  8
_2-7_ビス
  6
Continuous
 62
     7
100
AcDbLine
 10
707.720832812082
 20
1225.0679086229
 30
0.0
 11
707.7420243688541
 21
1225.087244058825
 31
0.0
  0
LINE
  5
3E7
330
22
100
AcDbEntity
  8
_2-7_ビス
  6
Continuous
 62
     7
100
AcDbLine
 10
707.7420243688541
 20
1225.087244058825
 30
0.0
 11
707.759840024486
 21
1225.110331456793
 31
0.0
  0
LINE
  5
3E8
330
22
100
AcDbEntity
  8
_2-7_ビス
  6
Continuous
 62
     7
100
AcDbLine
 10
707.759840024486
 20
1225.110331456793
 30
0.0
 11
707.773738459297
 21
1225.136469317898
 31
0.0
  0
LINE
  5
3E9
330
22
100
AcDbEntity
  8
_2-7_ビス
  6
Continuous
 62
     7
100
AcDbLine
 10
707.773738459297
 20
1225.136469317898
 30
0.0
 11
707.7832973763783
 21
1225.164863456458
 31
0.0
  0
LINE
  5
3EA
330
22
100
AcDbEntity
  8
_2-7_ビス
  6
Continuous
 62
     7
100
AcDbLine
 10
707.7832973763783
 20
1225.164863456458
 30
0.0
 11
707.7882263328715
 21
1225.194651130941
 31
0.0
  0
LINE
  5
3EB
330
22
100
AcDbEntity
  8
_2-7_ビス
  6
Continuous
 62
     7
100
AcDbLine
 10
707.7882263328715
 20
1225.194651130941
 30
0.0
 11
707.7883755649274
 21
1225.22492725793
 31
0.0
  0
LINE
  5
3EC
330
22
100
AcDbEntity
  8
_2-7_ビス
  6
Continuous
 62
     7
100
AcDbLine
 10
707.7883755649274
 20
1225.22492725793
 30
0.0
 11
707.7837405382058
 21
1225.254771912628
 31
0.0
  0
LINE
  5
3ED
330
22
100
AcDbEntity
  8
_2-7_ビス
  6
Continuous
 62
     7
100
AcDbLine
 10
707.7837405382058
 20
1225.254771912628
 30
0.0
 11
707.7744620856482
 21
1225.283278280304
 31
0.0
  0
LINE
  5
3EE
330
22
100
AcDbEntity
  8
_2-7_ビス
  6
Continuous
 62
     7
100
AcDbLine
 10
707.7744620856482
 20
1225.283278280304
 30
0.0
 11
707.7608221283401
 21
1225.309580209401
 31
0.0
  0
LINE
  5
3EF
330
22
100
AcDbEntity
  8
_2-7_ビス
  6
Continuous
 62
     7
100
AcDbLine
 10
707.7608221283401
 20
1225.309580209401
 30
0.0
 11
707.7607386345832
 21
1225.309712697663
 31
0.0
  0
LINE
  5
3F0
330
22
100
AcDbEntity
  8
_2-7_ビス
  6
Continuous
 62
     7
100
AcDbLine
 10
707.3407258987292
 20
1232.870949284293
 30
0.0
 11
707.3407258987292
 21
1232.870949284293
 31
0.0
  0
LINE
  5
3F1
330
22
100
AcDbEntity
  8
_2-7_ビス
  6
Continuous
 62
     7
100
AcDbLine
 10
707.3407258987292
 20
1232.870949284293
 30
0.0
 11
707.4250517295228
 21
1232.88320924094
 31
0.0
  0
LINE
  5
3F2
330
22
100
AcDbEntity
  8
_2-7_ビス
  6
Continuous
 62
     7
100
AcDbLine
 10
707.4250517295228
 20
1232.88320924094
 30
0.0
 11
707.5061600509813
 21
1232.911381707648
 31
0.0
  0
LINE
  5
3F3
330
22
100
AcDbEntity
  8
_2-7_ビス
  6
Continuous
 62
     7
100
AcDbLine
 10
707.5061600509813
 20
1232.911381707648
 30
0.0
 11
707.5815864277993
 21
1232.954610678269
 31
0.0
  0
LINE
  5
3F4
330
22
100
AcDbEntity
  8
_2-7_ビス
  6
Continuous
 62
     7
100
AcDbLine
 10
707.5815864277993
 20
1232.954610678269
 30
0.0
 11
707.6490390676853
 21
1233.011582662408
 31
0.0
  0
LINE
  5
3F5
330
22
100
AcDbEntity
  8
_2-7_ビス
  6
Continuous
 62
     7
100
AcDbLine
 10
707.6490390676853
 20
1233.011582662408
 30
0.0
 11
707.7064684563087
 21
1233.080566595155
 31
0.0
  0
LINE
  5
3F6
330
22
100
AcDbEntity
  8
_2-7_ビス
  6
Continuous
 62
     7
100
AcDbLine
 10
707.7064684563087
 20
1233.080566595155
 30
0.0
 11
707.7521296307569
 21
1233.159466434621
 31
0.0
  0
LINE
  5
3F7
330
22
100
AcDbEntity
  8
_2-7_ビス
  6
Continuous
 62
     7
100
AcDbLine
 10
707.7521296307569
 20
1233.159466434621
 30
0.0
 11
707.7846351993501
 21
1233.245884849109
 31
0.0
  0
LINE
  5
3F8
330
22
100
AcDbEntity
  8
_2-7_ビス
  6
Continuous
 62
     7
100
AcDbLine
 10
707.7846351993501
 20
1233.245884849109
 30
0.0
 11
707.8029974968351
 21
1233.337196058825
 31
0.0
  0
LINE
  5
3F9
330
22
100
AcDbEntity
  8
_2-7_ビス
  6
Continuous
 62
     7
100
AcDbLine
 10
707.8029974968351
 20
1233.337196058825
 30
0.0
 11
707.8066585940948
 21
1233.430625618867
 31
0.0
  0
LINE
  5
3FA
330
22
100
AcDbEntity
  8
_2-7_ビス
  6
Continuous
 62
     7
100
AcDbLine
 10
707.8066585940948
 20
1233.430625618867
 30
0.0
 11
707.7955072505414
 21
1233.523334719332
 31
0.0
  0
LINE
  5
3FB
330
22
100
AcDbEntity
  8
_2-7_ビス
  6
Continuous
 62
     7
100
AcDbLine
 10
707.7955072505414
 20
1233.523334719332
 30
0.0
 11
707.7698822941059
 21
1233.612506441114
 31
0.0
  0
LINE
  5
3FC
330
22
100
AcDbEntity
  8
_2-7_ビス
  6
Continuous
 62
     7
100
AcDbLine
 10
707.7698822941059
 20
1233.612506441114
 30
0.0
 11
707.7305623261227
 21
1233.69543134657
 31
0.0
  0
LINE
  5
3FD
330
22
100
AcDbEntity
  8
_2-7_ビス
  6
Continuous
 62
     7
100
AcDbLine
 10
707.7305623261227
 20
1233.69543134657
 30
0.0
 11
707.678742063922
 21
1233.769589804411
 31
0.0
  0
LINE
  5
3FE
330
22
100
AcDbEntity
  8
_2-7_ビス
  6
Continuous
 62
     7
100
AcDbLine
 10
707.678742063922
 20
1233.769589804411
 30
0.0
 11
707.615996039949
 21
1233.83272854742
 31
0.0
  0
LINE
  5
3FF
330
22
100
AcDbEntity
  8
_2-7_ビス
  6
Continuous
 62
     7
100
AcDbLine
 10
707.615996039949
 20
1233.83272854742
 30
0.0
 11
707.5442307603903
 21
1233.882929136841
 31
0.0
  0
LINE
  5
400
330
22
100
AcDbEntity
  8
_2-7_ビス
  6
Continuous
 62
     7
100
AcDbLine
 10
707.5442307603903
 20
1233.882929136841
 30
0.0
 11
707.4656267769511
 21
1233.918666253167
 31
0.0
  0
LINE
  5
401
330
22
100
AcDbEntity
  8
_2-7_ビス
  6
Continuous
 62
     7
100
AcDbLine
 10
707.4656267769511
 20
1233.918666253167
 30
0.0
 11
707.382572431892
 21
1233.938854042202
 31
0.0
  0
LINE
  5
402
330
22
100
AcDbEntity
  8
_2-7_ビス
  6
Continuous
 62
     7
100
AcDbLine
 10
707.382572431892
 20
1233.938854042202
 30
0.0
 11
707.3407258987292
 21
1233.942879108193
 31
0.0
  0
LINE
  5
403
330
22
100
AcDbEntity
  8
_2-7_ビス
  6
Continuous
 62
     7
100
AcDbLine
 10
707.3407258987292
 20
1240.704282612793
 30
0.0
 11
707.3407258987292
 21
1240.704282612793
 31
0.0
  0
LINE
  5
404
330
22
100
AcDbEntity
  8
_2-7_ビス
  6
Continuous
 62
     7
100
AcDbLine
 10
707.3407258987292
 20
1240.704282612793
 30
0.0
 11
707.4250517295228
 21
1240.716542569441
 31
0.0
  0
LINE
  5
405
330
22
100
AcDbEntity
  8
_2-7_ビス
  6
Continuous
 62
     7
100
AcDbLine
 10
707.4250517295228
 20
1240.716542569441
 30
0.0
 11
707.5061600509813
 21
1240.744715036148
 31
0.0
  0
LINE
  5
406
330
22
100
AcDbEntity
  8
_2-7_ビス
  6
Continuous
 62
     7
100
AcDbLine
 10
707.5061600509813
 20
1240.744715036148
 30
0.0
 11
707.5815864277993
 21
1240.787944006769
 31
0.0
  0
LINE
  5
407
330
22
100
AcDbEntity
  8
_2-7_ビス
  6
Continuous
 62
     7
100
AcDbLine
 10
707.5815864277993
 20
1240.787944006769
 30
0.0
 11
707.6490390676853
 21
1240.844915990908
 31
0.0
  0
LINE
  5
408
330
22
100
AcDbEntity
  8
_2-7_ビス
  6
Continuous
 62
     7
100
AcDbLine
 10
707.6490390676853
 20
1240.844915990908
 30
0.0
 11
707.7064684563087
 21
1240.913899923655
 31
0.0
  0
LINE
  5
409
330
22
100
AcDbEntity
  8
_2-7_ビス
  6
Continuous
 62
     7
100
AcDbLine
 10
707.7064684563087
 20
1240.913899923655
 30
0.0
 11
707.7521296307569
 21
1240.992799763121
 31
0.0
  0
LINE
  5
40A
330
22
100
AcDbEntity
  8
_2-7_ビス
  6
Continuous
 62
     7
100
AcDbLine
 10
707.7521296307569
 20
1240.992799763121
 30
0.0
 11
707.7846351993501
 21
1241.079218177609
 31
0.0
  0
LINE
  5
40B
330
22
100
AcDbEntity
  8
_2-7_ビス
  6
Continuous
 62
     7
100
AcDbLine
 10
707.7846351993501
 20
1241.079218177609
 30
0.0
 11
707.8029974968351
 21
1241.170529387324
 31
0.0
  0
LINE
  5
40C
330
22
100
AcDbEntity
  8
_2-7_ビス
  6
Continuous
 62
     7
100
AcDbLine
 10
707.8029974968351
 20
1241.170529387324
 30
0.0
 11
707.8066585940948
 21
1241.263958947367
 31
0.0
  0
LINE
  5
40D
330
22
100
AcDbEntity
  8
_2-7_ビス
  6
Continuous
 62
     7
100
AcDbLine
 10
707.8066585940948
 20
1241.263958947367
 30
0.0
 11
707.7955072505414
 21
1241.356668047832
 31
0.0
  0
LINE
  5
40E
330
22
100
AcDbEntity
  8
_2-7_ビス
  6
Continuous
 62
     7
100
AcDbLine
 10
707.7955072505414
 20
1241.356668047832
 30
0.0
 11
707.7698822941059
 21
1241.445839769614
 31
0.0
  0
LINE
  5
40F
330
22
100
AcDbEntity
  8
_2-7_ビス
  6
Continuous
 62
     7
100
AcDbLine
 10
707.7698822941059
 20
1241.445839769614
 30
0.0
 11
707.7305623261227
 21
1241.52876467507
 31
0.0
  0
LINE
  5
410
330
22
100
AcDbEntity
  8
_2-7_ビス
  6
Continuous
 62
     7
100
AcDbLine
 10
707.7305623261227
 20
1241.52876467507
 30
0.0
 11
707.678742063922
 21
1241.602923132911
 31
0.0
  0
LINE
  5
411
330
22
100
AcDbEntity
  8
_2-7_ビス
  6
Continuous
 62
     7
100
AcDbLine
 10
707.678742063922
 20
1241.602923132911
 30
0.0
 11
707.615996039949
 21
1241.66606187592
 31
0.0
  0
LINE
  5
412
330
22
100
AcDbEntity
  8
_2-7_ビス
  6
Continuous
 62
     7
100
AcDbLine
 10
707.615996039949
 20
1241.66606187592
 30
0.0
 11
707.5442307603903
 21
1241.716262465341
 31
0.0
  0
LINE
  5
413
330
22
100
AcDbEntity
  8
_2-7_ビス
  6
Continuous
 62
     7
100
AcDbLine
 10
707.5442307603903
 20
1241.716262465341
 30
0.0
 11
707.4656267769511
 21
1241.751999581667
 31
0.0
  0
LINE
  5
414
330
22
100
AcDbEntity
  8
_2-7_ビス
  6
Continuous
 62
     7
100
AcDbLine
 10
707.4656267769511
 20
1241.751999581667
 30
0.0
 11
707.382572431892
 21
1241.772187370702
 31
0.0
  0
LINE
  5
415
330
22
100
AcDbEntity
  8
_2-7_ビス
  6
Continuous
 62
     7
100
AcDbLine
 10
707.382572431892
 20
1241.772187370702
 30
0.0
 11
707.3407258987292
 21
1241.776212436693
 31
0.0
  0
LINE
  5
416
330
22
100
AcDbEntity
  8
_2-7_ビス
  6
Continuous
 62
     7
100
AcDbLine
 10
707.7162180426187
 20
1222.316563325893
 30
0.0
 11
707.7162180426187
 21
1222.316563325893
 31
0.0
  0
LINE
  5
417
330
22
100
AcDbEntity
  8
_2-7_ビス
  6
Continuous
 62
     7
100
AcDbLine
 10
707.7162180426187
 20
1222.316563325893
 30
0.0
 11
707.7108141181923
 21
1222.455818947808
 31
0.0
  0
LINE
  5
418
330
22
100
AcDbEntity
  8
_2-7_ビス
  6
Continuous
 62
     7
100
AcDbLine
 10
707.7108141181923
 20
1222.455818947808
 30
0.0
 11
707.6834974301731
 21
1222.591927292891
 31
0.0
  0
LINE
  5
419
330
22
100
AcDbEntity
  8
_2-7_ビス
  6
Continuous
 62
     7
100
AcDbLine
 10
707.6834974301731
 20
1222.591927292891
 30
0.0
 11
707.6659427095304
 21
1222.646387887092
 31
0.0
  0
LINE
  5
41A
330
22
100
AcDbEntity
  8
_2-7_ビス
  6
Continuous
 62
     7
100
AcDbLine
 10
708.8071236487281
 20
1220.31723586834
 30
0.0
 11
708.8071236487281
 21
1220.31723586834
 31
0.0
  0
LINE
  5
41B
330
22
100
AcDbEntity
  8
_2-7_ビス
  6
Continuous
 62
     7
100
AcDbLine
 10
708.8071236487281
 20
1220.31723586834
 30
0.0
 11
708.8043018238955
 21
1220.373076062884
 31
0.0
  0
LINE
  5
41C
330
22
100
AcDbEntity
  8
_2-7_ビス
  6
Continuous
 62
     7
100
AcDbLine
 10
708.8043018238955
 20
1220.373076062884
 30
0.0
 11
708.7927031364066
 21
1220.42752920074
 31
0.0
  0
LINE
  5
41D
330
22
100
AcDbEntity
  8
_2-7_ビス
  6
Continuous
 62
     7
100
AcDbLine
 10
708.7927031364066
 20
1220.42752920074
 30
0.0
 11
708.7726800065119
 21
1220.478940750868
 31
0.0
  0
LINE
  5
41E
330
22
100
AcDbEntity
  8
_2-7_ビス
  6
Continuous
 62
     7
100
AcDbLine
 10
708.7726800065119
 20
1220.478940750868
 30
0.0
 11
708.7448408268809
 21
1220.525748599333
 31
0.0
  0
LINE
  5
41F
330
22
100
AcDbEntity
  8
_2-7_ビス
  6
Continuous
 62
     7
100
AcDbLine
 10
708.7448408268809
 20
1220.525748599333
 30
0.0
 11
708.7100314768995
 21
1220.566530513346
 31
0.0
  0
LINE
  5
420
330
22
100
AcDbEntity
  8
_2-7_ビス
  6
Continuous
 62
     7
100
AcDbLine
 10
708.7100314768995
 20
1220.566530513346
 30
0.0
 11
708.6693096210525
 21
1220.600047355086
 31
0.0
  0
LINE
  5
421
330
22
100
AcDbEntity
  8
_2-7_ビス
  6
Continuous
 62
     7
100
AcDbLine
 10
708.6693096210525
 20
1220.600047355086
 30
0.0
 11
708.6239125723237
 21
1220.625280732277
 31
0.0
  0
LINE
  5
422
330
22
100
AcDbEntity
  8
_2-7_ビス
  6
Continuous
 62
     7
100
AcDbLine
 10
708.6239125723237
 20
1220.625280732277
 30
0.0
 11
708.575219697066
 21
1220.641463941521
 31
0.0
  0
LINE
  5
423
330
22
100
AcDbEntity
  8
_2-7_ビス
  6
Continuous
 62
     7
100
AcDbLine
 10
708.575219697066
 20
1220.641463941521
 30
0.0
 11
708.524710503655
 21
1220.648105264196
 31
0.0
  0
LINE
  5
424
330
22
100
AcDbEntity
  8
_2-7_ビス
  6
Continuous
 62
     7
100
AcDbLine
 10
708.524710503655
 20
1220.648105264196
 30
0.0
 11
708.4739196883735
 21
1220.645002907072
 31
0.0
  0
LINE
  5
425
330
22
100
AcDbEntity
  8
_2-7_ビス
  6
Continuous
 62
     7
100
AcDbLine
 10
708.4739196883735
 20
1220.645002907072
 30
0.0
 11
708.4243905044425
 21
1220.6322511337
 31
0.0
  0
LINE
  5
426
330
22
100
AcDbEntity
  8
_2-7_ビス
  6
Continuous
 62
     7
100
AcDbLine
 10
708.4243905044425
 20
1220.6322511337
 30
0.0
 11
708.3776278710526
 21
1220.610237400262
 31
0.0
  0
LINE
  5
427
330
22
100
AcDbEntity
  8
_2-7_ビス
  6
Continuous
 62
     7
100
AcDbLine
 10
708.3776278710526
 20
1220.610237400262
 30
0.0
 11
708.3350526471563
 21
1220.579630582909
 31
0.0
  0
LINE
  5
428
330
22
100
AcDbEntity
  8
_2-7_ビス
  6
Continuous
 62
     7
100
AcDbLine
 10
708.3350526471563
 20
1220.579630582909
 30
0.0
 11
708.2979584593878
 21
1220.541360654298
 31
0.0
  0
LINE
  5
429
330
22
100
AcDbEntity
  8
_2-7_ビス
  6
Continuous
 62
     7
100
AcDbLine
 10
708.2979584593878
 20
1220.541360654298
 30
0.0
 11
708.2674723958714
 21
1220.496590426845
 31
0.0
  0
LINE
  5
42A
330
22
100
AcDbEntity
  8
_2-7_ビス
  6
Continuous
 62
     7
100
AcDbLine
 10
708.2674723958714
 20
1220.496590426845
 30
0.0
 11
708.2445207602209
 21
1220.446680221255
 31
0.0
  0
LINE
  5
42B
330
22
100
AcDbEntity
  8
_2-7_ビス
  6
Continuous
 62
     7
100
AcDbLine
 10
708.2445207602209
 20
1220.446680221255
 30
0.0
 11
708.2298009262712
 21
1220.393146533871
 31
0.0
  0
LINE
  5
42C
330
22
100
AcDbEntity
  8
_2-7_ビス
  6
Continuous
 62
     7
100
AcDbLine
 10
708.2298009262712
 20
1220.393146533871
 30
0.0
 11
708.2237601487284
 21
1220.337615958693
 31
0.0
  0
LINE
  5
42D
330
22
100
AcDbEntity
  8
_2-7_ビス
  6
Continuous
 62
     7
100
AcDbLine
 10
708.2237601487284
 20
1220.337615958693
 30
0.0
 11
708.2237601487284
 21
1220.337615958693
 31
0.0
  0
ENDSEC
  0
SECTION
  2
OBJECTS
  0
DICTIONARY
  5
C
330
0
100
AcDbDictionary
281
     1
  3
ACAD_COLOR
350
1B
  3
ACAD_GROUP
350
D
  3
ACAD_LAYOUT
350
19
  3
ACAD_MATERIAL
350
1A
  3
ACAD_MLINESTYLE
350
16
  3
ACAD_PLOTSETTINGS
350
18
  3
ACAD_PLOTSTYLENAME
350
E
  3
ACAD_TABLESTYLE
350
1C
  3
ACDBHEADERROUNDTRIPXREC
350
435
  3
AcDbVariableDictionary
350
430
  0
DICTIONARY
  5
1B
102
{ACAD_REACTORS
330
C
102
}
330
C
100
AcDbDictionary
281
     1
  0
DICTIONARY
  5
D
102
{ACAD_REACTORS
330
C
102
}
330
C
100
AcDbDictionary
281
     1
  0
DICTIONARY
  5
19
102
{ACAD_REACTORS
330
C
102
}
330
C
100
AcDbDictionary
281
     1
  3
Model
350
25
  3
レイアウト1
350
21
  0
DICTIONARY
  5
1A
102
{ACAD_REACTORS
330
C
102
}
330
C
100
AcDbDictionary
281
     1
  0
DICTIONARY
  5
16
102
{ACAD_REACTORS
330
C
102
}
330
C
100
AcDbDictionary
281
     1
  3
Standard
350
17
  0
DICTIONARY
  5
18
102
{ACAD_REACTORS
330
C
102
}
330
C
100
AcDbDictionary
281
     1
  0
ACDBDICTIONARYWDFLT
  5
E
102
{ACAD_REACTORS
330
C
102
}
330
C
100
AcDbDictionary
281
     1
  3
Normal
350
F
100
AcDbDictionaryWithDefault
340
F
  0
DICTIONARY
  5
1C
102
{ACAD_REACTORS
330
C
102
}
330
C
100
AcDbDictionary
281
     1
  3
Standard
350
1D
  0
DICTIONARY
  5
435
102
{ACAD_REACTORS
330
C
102
}
330
C
100
AcDbDictionary
281
     1
  0
DICTIONARY
  5
430
102
{ACAD_REACTORS
330
C
102
}
330
C
100
AcDbDictionary
281
     1
  3
CTABLESTYLE
350
431
  3
DIMASSOC
350
432
  3
PROJECTNAME
350
433
  0
LAYOUT
  5
25
102
{ACAD_XDICTIONARY
360
438
102
}
102
{ACAD_REACTORS
330
19
102
}
330
19
100
AcDbPlotSettings
  1

  2
PC1665
  4

  6

 40
0.0
 41
0.0
 42
0.0
 43
0.0
 44
0.0
 45
0.0
 46
0.0
 47
0.0
 48
0.0
 49
0.0
140
0.0
141
0.0
142
1.0
143
1.0
 70
  1712
 72
     0
 73
     0
 74
     0
  7

 75
     0
147
1.0
148
0.0
149
0.0
100
AcDbLayout
  1
Model
 70
     1
 71
     0
 10
0.0
 20
0.0
 11
12.0
 21
9.0
 12
0.0
 22
0.0
 32
0.0
 14
0.0
 24
0.0
 34
0.0
 15
0.0
 25
0.0
 35
0.0
146
0.0
 13
0.0
 23
0.0
 33
0.0
 16
1.0
 26
0.0
 36
0.0
 17
0.0
 27
1.0
 37
0.0
 76
     0
330
22
  0
LAYOUT
  5
21
102
{ACAD_XDICTIONARY
360
436
102
}
102
{ACAD_REACTORS
330
19
102
}
330
19
100
AcDbPlotSettings
  1

  2
PC1665
  4

  6

 40
0.0
 41
0.0
 42
0.0
 43
0.0
 44
0.0
 45
0.0
 46
0.0
 47
0.0
 48
0.0
 49
0.0
140
0.0
141
0.0
142
1.0
143
1.0
 70
   688
 72
     0
 73
     0
 74
     5
  7

 75
    16
147
1.0
148
0.0
149
0.0
100
AcDbLayout
  1
レイアウト1
 70
     1
 71
     1
 10
0.0
 20
0.0
 11
12.0
 21
9.0
 12
0.0
 22
0.0
 32
0.0
 14
1.000000000000000E+20
 24
1.000000000000000E+20
 34
1.000000000000000E+20
 15
-1.000000000000000E+20
 25
-1.000000000000000E+20
 35
-1.000000000000000E+20
146
0.0
 13
0.0
 23
0.0
 33
0.0
 16
1.0
 26
0.0
 36
0.0
 17
0.0
 27
1.0
 37
0.0
 76
     0
330
1E
  0
MLINESTYLE
  5
17
102
{ACAD_REACTORS
330
16
102
}
330
16
100
AcDbMlineStyle
  2
STANDARD
 70
     0
  3

 62
   256
 51
90.0
 52
90.0
 71
     2
 49
0.5
 62
   256
  6
BYLAYER
 49
-0.5
 62
   256
  6
BYLAYER
  0
ACDBPLACEHOLDER
  5
F
102
{ACAD_REACTORS
330
E
102
}
330
E
  0
TABLESTYLE
  5
1D
102
{ACAD_REACTORS
330
1C
102
}
330
1C
100
AcDbTableStyle
  3
Standard
 70
     0
 71
     0
 40
0.06
 41
0.06
280
     0
281
     0
  7
STANDARD
140
0.18
170
     2
 62
     0
 63
     7
283
     0
274
    -2
284
     1
 64
     0
275
    -2
285
     1
 65
     0
276
    -2
286
     1
 66
     0
277
    -2
287
     1
 67
     0
278
    -2
288
     1
 68
     0
279
    -2
289
     1
 69
     0
  7
STANDARD
140
0.25
170
     5
 62
     0
 63
     7
283
     0
274
    -2
284
     1
 64
     0
275
    -2
285
     1
 65
     0
276
    -2
286
     1
 66
     0
277
    -2
287
     1
 67
     0
278
    -2
288
     1
 68
     0
279
    -2
289
     1
 69
     0
  7
STANDARD
140
0.18
170
     5
 62
     0
 63
     7
283
     0
274
    -2
284
     1
 64
     0
275
    -2
285
     1
 65
     0
276
    -2
286
     1
 66
     0
277
    -2
287
     1
 67
     0
278
    -2
288
     1
 68
     0
279
    -2
289
     1
 69
     0
  0
DICTIONARYVAR
  5
431
102
{ACAD_REACTORS
330
430
102
}
330
430
100
DictionaryVariables
280
     0
  1
STANDARD
  0
DICTIONARYVAR
  5
432
102
{ACAD_REACTORS
330
430
102
}
330
430
100
DictionaryVariables
280
     0
  1
1
  0
DICTIONARYVAR
  5
433
102
{ACAD_REACTORS
330
430
102
}
330
430
100
DictionaryVariables
280
     0
  1

  0
DICTIONARY
  5
438
330
25
100
AcDbDictionary
280
     1
281
     1
  3
ACAD_XREC_ROUNDTRIP
360
439
  0
DICTIONARY
  5
436
330
21
100
AcDbDictionary
280
     1
281
     1
  3
ACAD_XREC_ROUNDTRIP
360
437
  0
XRECORD
  5
439
102
{ACAD_REACTORS
330
438
102
}
330
438
100
AcDbXrecord
280
     1
102
SHADEPLOT
 70
     0
102
SHADEPLOTRESLEVEL
 70
     2
102
SHADEPLOTCUSTOMDPI
 70
   300
  0
XRECORD
  5
437
102
{ACAD_REACTORS
330
436
102
}
330
436
100
AcDbXrecord
280
     1
102
SHADEPLOT
 70
     0
102
SHADEPLOTRESLEVEL
 70
     2
102
SHADEPLOTCUSTOMDPI
 70
   300
  0
ENDSEC
  0
EOF
