  0
SECTION
  2
HEADER
  9
$ACADVER
  1
AC1015
  9
$ACADMAINTVER
 70
    20
  9
$DWGCODEPAGE
  3
ANSI_932
  9
$INSBASE
 10
0.0
 20
0.0
 30
0.0
  9
$EXTMIN
 10
544.8349054260579
 20
28.05221906636371
 30
-0.0015258207003583
  9
$EXTMAX
 10
1544.911198090891
 20
1458.080752937915
 30
0.0000000349246037
  9
$LIMMIN
 10
0.0
 20
0.0
  9
$LIMMAX
 10
2100.0
 20
1485.0
  9
$ORTHOMODE
 70
     0
  9
$REGENMODE
 70
     1
  9
$FILLMODE
 70
     1
  9
$QTEXTMODE
 70
     0
  9
$MIRRTEXT
 70
     0
  9
$LTSCALE
 40
5.0
  9
$ATTMODE
 70
     1
  9
$TEXTSIZE
 40
0.2
  9
$TRACEWID
 40
0.05
  9
$TEXTSTYLE
  7
STANDARD
  9
$CLAYER
  8
0
  9
$CELTYPE
  6
CONTINUOUS
  9
$CECOLOR
 62
   256
  9
$CELTSCALE
 40
1.0
  9
$DISPSILH
 70
     0
  9
$DIMSCALE
 40
1.0
  9
$DIMASZ
 40
0.18
  9
$DIMEXO
 40
0.0625
  9
$DIMDLI
 40
0.38
  9
$DIMRND
 40
0.0
  9
$DIMDLE
 40
0.0
  9
$DIMEXE
 40
0.18
  9
$DIMTP
 40
0.0
  9
$DIMTM
 40
0.0
  9
$DIMTXT
 40
0.18
  9
$DIMCEN
 40
0.09
  9
$DIMTSZ
 40
0.0
  9
$DIMTOL
 70
     0
  9
$DIMLIM
 70
     0
  9
$DIMTIH
 70
     1
  9
$DIMTOH
 70
     1
  9
$DIMSE1
 70
     0
  9
$DIMSE2
 70
     0
  9
$DIMTAD
 70
     0
  9
$DIMZIN
 70
     0
  9
$DIMBLK
  1

  9
$DIMASO
 70
     1
  9
$DIMSHO
 70
     1
  9
$DIMPOST
  1

  9
$DIMAPOST
  1

  9
$DIMALT
 70
     0
  9
$DIMALTD
 70
     2
  9
$DIMALTF
 40
25.4
  9
$DIMLFAC
 40
1.0
  9
$DIMTOFL
 70
     0
  9
$DIMTVP
 40
0.0
  9
$DIMTIX
 70
     0
  9
$DIMSOXD
 70
     0
  9
$DIMSAH
 70
     0
  9
$DIMBLK1
  1

  9
$DIMBLK2
  1

  9
$DIMSTYLE
  2
Standard
  9
$DIMCLRD
 70
     0
  9
$DIMCLRE
 70
     0
  9
$DIMCLRT
 70
     0
  9
$DIMTFAC
 40
1.0
  9
$DIMGAP
 40
0.09
  9
$DIMJUST
 70
     0
  9
$DIMSD1
 70
     0
  9
$DIMSD2
 70
     0
  9
$DIMTOLJ
 70
     1
  9
$DIMTZIN
 70
     0
  9
$DIMALTZ
 70
     0
  9
$DIMALTTZ
 70
     0
  9
$DIMUPT
 70
     0
  9
$DIMDEC
 70
     4
  9
$DIMTDEC
 70
     4
  9
$DIMALTU
 70
     2
  9
$DIMALTTD
 70
     2
  9
$DIMTXSTY
  7
STANDARD
  9
$DIMAUNIT
 70
     0
  9
$DIMADEC
 70
     0
  9
$DIMALTRND
 40
0.0
  9
$DIMAZIN
 70
     0
  9
$DIMDSEP
 70
    46
  9
$DIMATFIT
 70
     3
  9
$DIMFRAC
 70
     0
  9
$DIMLDRBLK
  1

  9
$DIMLUNIT
 70
     2
  9
$DIMLWD
 70
    -2
  9
$DIMLWE
 70
    -2
  9
$DIMTMOVE
 70
     0
  9
$LUNITS
 70
     2
  9
$LUPREC
 70
     4
  9
$SKETCHINC
 40
0.1
  9
$FILLETRAD
 40
0.0
  9
$AUNITS
 70
     0
  9
$AUPREC
 70
     0
  9
$MENU
  1
.
  9
$ELEVATION
 40
0.0
  9
$PELEVATION
 40
0.0
  9
$THICKNESS
 40
0.0
  9
$LIMCHECK
 70
     0
  9
$CHAMFERA
 40
0.0
  9
$CHAMFERB
 40
0.0
  9
$CHAMFERC
 40
0.0
  9
$CHAMFERD
 40
0.0
  9
$SKPOLY
 70
     0
  9
$TDCREATE
 40
2454846.609630926
  9
$TDUCREATE
 40
2454846.234630926
  9
$TDUPDATE
 40
2454846.618086898
  9
$TDUUPDATE
 40
2454846.243086898
  9
$TDINDWG
 40
0.0084581366
  9
$TDUSRTIMER
 40
0.0084581366
  9
$USRTIMER
 70
     1
  9
$ANGBASE
 50
0.0
  9
$ANGDIR
 70
     0
  9
$PDMODE
 70
     0
  9
$PDSIZE
 40
0.0
  9
$PLINEWID
 40
0.0
  9
$SPLFRAME
 70
     0
  9
$SPLINETYPE
 70
     6
  9
$SPLINESEGS
 70
     8
  9
$HANDSEED
  5
61E
  9
$SURFTAB1
 70
     6
  9
$SURFTAB2
 70
     6
  9
$SURFTYPE
 70
     6
  9
$SURFU
 70
     6
  9
$SURFV
 70
     6
  9
$UCSBASE
  2

  9
$UCSNAME
  2

  9
$UCSORG
 10
0.0
 20
0.0
 30
0.0
  9
$UCSXDIR
 10
1.0
 20
0.0
 30
0.0
  9
$UCSYDIR
 10
0.0
 20
1.0
 30
0.0
  9
$UCSORTHOREF
  2

  9
$UCSORTHOVIEW
 70
     0
  9
$UCSORGTOP
 10
0.0
 20
0.0
 30
0.0
  9
$UCSORGBOTTOM
 10
0.0
 20
0.0
 30
0.0
  9
$UCSORGLEFT
 10
0.0
 20
0.0
 30
0.0
  9
$UCSORGRIGHT
 10
0.0
 20
0.0
 30
0.0
  9
$UCSORGFRONT
 10
0.0
 20
0.0
 30
0.0
  9
$UCSORGBACK
 10
0.0
 20
0.0
 30
0.0
  9
$PUCSBASE
  2

  9
$PUCSNAME
  2

  9
$PUCSORG
 10
0.0
 20
0.0
 30
0.0
  9
$PUCSXDIR
 10
1.0
 20
0.0
 30
0.0
  9
$PUCSYDIR
 10
0.0
 20
1.0
 30
0.0
  9
$PUCSORTHOREF
  2

  9
$PUCSORTHOVIEW
 70
     0
  9
$PUCSORGTOP
 10
0.0
 20
0.0
 30
0.0
  9
$PUCSORGBOTTOM
 10
0.0
 20
0.0
 30
0.0
  9
$PUCSORGLEFT
 10
0.0
 20
0.0
 30
0.0
  9
$PUCSORGRIGHT
 10
0.0
 20
0.0
 30
0.0
  9
$PUCSORGFRONT
 10
0.0
 20
0.0
 30
0.0
  9
$PUCSORGBACK
 10
0.0
 20
0.0
 30
0.0
  9
$USERI1
 70
     0
  9
$USERI2
 70
     0
  9
$USERI3
 70
     0
  9
$USERI4
 70
     0
  9
$USERI5
 70
     0
  9
$USERR1
 40
0.0
  9
$USERR2
 40
0.0
  9
$USERR3
 40
0.0
  9
$USERR4
 40
0.0
  9
$USERR5
 40
0.0
  9
$WORLDVIEW
 70
     1
  9
$SHADEDGE
 70
     3
  9
$SHADEDIF
 70
    70
  9
$TILEMODE
 70
     1
  9
$MAXACTVP
 70
    64
  9
$PINSBASE
 10
0.0
 20
0.0
 30
0.0
  9
$PLIMCHECK
 70
     0
  9
$PEXTMIN
 10
1.000000000000000E+20
 20
1.000000000000000E+20
 30
1.000000000000000E+20
  9
$PEXTMAX
 10
-1.000000000000000E+20
 20
-1.000000000000000E+20
 30
-1.000000000000000E+20
  9
$PLIMMIN
 10
0.0
 20
0.0
  9
$PLIMMAX
 10
12.0
 20
9.0
  9
$UNITMODE
 70
     0
  9
$VISRETAIN
 70
     1
  9
$PLINEGEN
 70
     0
  9
$PSLTSCALE
 70
     1
  9
$TREEDEPTH
 70
  3020
  9
$CMLSTYLE
  2
Standard
  9
$CMLJUST
 70
     0
  9
$CMLSCALE
 40
1.0
  9
$PROXYGRAPHICS
 70
     1
  9
$MEASUREMENT
 70
     0
  9
$CELWEIGHT
370
    -1
  9
$ENDCAPS
280
     0
  9
$JOINSTYLE
280
     0
  9
$LWDISPLAY
290
     0
  9
$INSUNITS
 70
     0
  9
$HYPERLINKBASE
  1

  9
$STYLESHEET
  1

  9
$XEDIT
290
     1
  9
$CEPSNTYPE
380
     0
  9
$PSTYLEMODE
290
     1
  9
$FINGERPRINTGUID
  2
{A4449AD3-C1DF-4E40-A995-94EEA7BC1364}
  9
$VERSIONGUID
  2
{D599F5FE-C1F4-48E2-BADC-956AC51D5C5C}
  9
$EXTNAMES
290
     1
  9
$PSVPSCALE
 40
0.0
  9
$OLESTARTUP
290
     0
  0
ENDSEC
  0
SECTION
  2
CLASSES
  0
CLASS
  1
ACDBDICTIONARYWDFLT
  2
AcDbDictionaryWithDefault
  3
ObjectDBX Classes
 90
        0
280
     0
281
     0
  0
CLASS
  1
TABLESTYLE
  2
AcDbTableStyle
  3
ObjectDBX Classes
 90
     2047
280
     0
281
     0
  0
CLASS
  1
DICTIONARYVAR
  2
AcDbDictionaryVar
  3
ObjectDBX Classes
 90
        0
280
     0
281
     0
  0
CLASS
  1
ACDBPLACEHOLDER
  2
AcDbPlaceHolder
  3
ObjectDBX Classes
 90
        0
280
     0
281
     0
  0
CLASS
  1
LAYOUT
  2
AcDbLayout
  3
ObjectDBX Classes
 90
        0
280
     0
281
     0
  0
ENDSEC
  0
SECTION
  2
TABLES
  0
TABLE
  2
VPORT
  5
8
330
0
100
AcDbSymbolTable
 70
     2
  0
VPORT
  5
618
330
8
100
AcDbSymbolTableRecord
100
AcDbViewportTableRecord
  2
*Active
 70
     0
 10
0.0
 20
0.0
 11
1.0
 21
1.0
 12
1044.873051758474
 22
743.0664860021396
 13
0.0
 23
0.0
 14
1.0
 24
1.0
 15
0.0
 25
0.0
 16
0.0
 26
0.0
 36
1.0
 17
0.0
 27
0.0
 37
0.0
 40
1443.009125706997
 41
2.069696969696969
 42
50.0
 43
0.0
 44
0.0
 50
0.0
 51
0.0
 71
     0
 72
   100
 73
     1
 74
     1
 75
     0
 76
     0
 77
     0
 78
     0
281
     0
 65
     1
110
0.0
120
0.0
130
0.0
111
1.0
121
0.0
131
0.0
112
0.0
122
1.0
132
0.0
 79
     0
146
0.0
  0
ENDTAB
  0
TABLE
  2
LTYPE
  5
5
330
0
100
AcDbSymbolTable
 70
    35
  0
LTYPE
  5
13
330
5
100
AcDbSymbolTableRecord
100
AcDbLinetypeTableRecord
  2
ByBlock
 70
     0
  3

 72
    65
 73
     0
 40
0.0
  0
LTYPE
  5
14
330
5
100
AcDbSymbolTableRecord
100
AcDbLinetypeTableRecord
  2
ByLayer
 70
     0
  3

 72
    65
 73
     0
 40
0.0
  0
LTYPE
  5
15
330
5
100
AcDbSymbolTableRecord
100
AcDbLinetypeTableRecord
  2
CONTINUOUS
 70
     0
  3
実線
 72
    65
 73
     0
 40
0.0
  0
LTYPE
  5
26
330
5
100
AcDbSymbolTableRecord
100
AcDbLinetypeTableRecord
  2
DASHED1
 70
     0
  3
--  --  --  --  --  --  --  --  
 72
    65
 73
     2
 40
2.5
 49
1.25
 74
     0
 49
-1.25
 74
     0
  0
LTYPE
  5
27
330
5
100
AcDbSymbolTableRecord
100
AcDbLinetypeTableRecord
  2
DASHED2
 70
     0
  3
----    ----    ----    ----    
 72
    65
 73
     2
 40
5.0
 49
2.5
 74
     0
 49
-2.5
 74
     0
  0
LTYPE
  5
28
330
5
100
AcDbSymbolTableRecord
100
AcDbLinetypeTableRecord
  2
DASHED3
 70
     0
  3
------  ------  ------  ------  
 72
    65
 73
     2
 40
5.0
 49
3.75
 74
     0
 49
-1.25
 74
     0
  0
LTYPE
  5
29
330
5
100
AcDbSymbolTableRecord
100
AcDbLinetypeTableRecord
  2
CENTER1
 70
     0
  3
----- - ----- - ----- - ----- - 
 72
    65
 73
     4
 40
10.0
 49
6.25
 74
     0
 49
-1.25
 74
     0
 49
1.25
 74
     0
 49
-1.25
 74
     0
  0
LTYPE
  5
2A
330
5
100
AcDbSymbolTableRecord
100
AcDbLinetypeTableRecord
  2
CENTER2
 70
     0
  3
----------  --  ----------  --  
 72
    65
 73
     4
 40
20.0
 49
12.5
 74
     0
 49
-2.5
 74
     0
 49
2.5
 74
     0
 49
-2.5
 74
     0
  0
LTYPE
  5
2B
330
5
100
AcDbSymbolTableRecord
100
AcDbLinetypeTableRecord
  2
PHANTOM1
 70
     0
  3
--- - - --- - - --- - - --- - - 
 72
    65
 73
     6
 40
10.0
 49
3.25
 74
     0
 49
-1.25
 74
     0
 49
1.25
 74
     0
 49
-1.25
 74
     0
 49
1.25
 74
     0
 49
-1.25
 74
     0
  0
LTYPE
  5
2C
330
5
100
AcDbSymbolTableRecord
100
AcDbLinetypeTableRecord
  2
PHANTOM2
 70
     0
  3
--------  -  -  --------  -  -  
 72
    65
 73
     6
 40
20.0
 49
10.0
 74
     0
 49
-2.5
 74
     0
 49
1.25
 74
     0
 49
-2.5
 74
     0
 49
1.25
 74
     0
 49
-2.5
 74
     0
  0
LTYPE
  5
2D
330
5
100
AcDbSymbolTableRecord
100
AcDbLinetypeTableRecord
  2
DOT
 70
     0
  3
-   -   -   -   -   -   -   -   
 72
    65
 73
     2
 40
2.5
 49
0.625
 74
     0
 49
-1.875
 74
     0
  0
LTYPE
  5
2E
330
5
100
AcDbSymbolTableRecord
100
AcDbLinetypeTableRecord
  2
DUMMY
 70
     0
  3
ダミー
 72
    65
 73
     0
 40
0.0
  0
LTYPE
  5
2F
330
5
100
AcDbSymbolTableRecord
100
AcDbLinetypeTableRecord
  2
RAND1
 70
     0
  3
ランダム線1
 72
    65
 73
     4
 40
10.0
 49
1.0
 74
     0
 49
-2.0
 74
     0
 49
3.0
 74
     0
 49
-4.0
 74
     0
  0
LTYPE
  5
30
330
5
100
AcDbSymbolTableRecord
100
AcDbLinetypeTableRecord
  2
RAND2
 70
     0
  3
ランダム線2
 72
    65
 73
     4
 40
14.0
 49
2.0
 74
     0
 49
-3.0
 74
     0
 49
4.0
 74
     0
 49
-5.0
 74
     0
  0
LTYPE
  5
31
330
5
100
AcDbSymbolTableRecord
100
AcDbLinetypeTableRecord
  2
RAND3
 70
     0
  3
ランダム線3
 72
    65
 73
     4
 40
18.0
 49
3.0
 74
     0
 49
-4.0
 74
     0
 49
5.0
 74
     0
 49
-6.0
 74
     0
  0
LTYPE
  5
32
330
5
100
AcDbSymbolTableRecord
100
AcDbLinetypeTableRecord
  2
RAND4
 70
     0
  3
ランダム線4
 72
    65
 73
     4
 40
22.0
 49
4.0
 74
     0
 49
-5.0
 74
     0
 49
6.0
 74
     0
 49
-7.0
 74
     0
  0
LTYPE
  5
33
330
5
100
AcDbSymbolTableRecord
100
AcDbLinetypeTableRecord
  2
RAND5
 70
     0
  3
ランダム線5
 72
    65
 73
     4
 40
26.0
 49
5.0
 74
     0
 49
-6.0
 74
     0
 49
7.0
 74
     0
 49
-8.0
 74
     0
  0
LTYPE
  5
34
330
5
100
AcDbSymbolTableRecord
100
AcDbLinetypeTableRecord
  2
LONG1
 70
     0
  3
----------  --  ----------  --  
 72
    65
 73
     4
 40
40.0
 49
32.5
 74
     0
 49
-2.5
 74
     0
 49
2.5
 74
     0
 49
-2.5
 74
     0
  0
LTYPE
  5
35
330
5
100
AcDbSymbolTableRecord
100
AcDbLinetypeTableRecord
  2
LONG2
 70
     0
  3
--------  -  -  --------  -  -  
 72
    65
 73
     6
 40
40.0
 49
30.0
 74
     0
 49
-2.5
 74
     0
 49
1.25
 74
     0
 49
-2.5
 74
     0
 49
1.25
 74
     0
 49
-2.5
 74
     0
  0
LTYPE
  5
36
330
5
100
AcDbSymbolTableRecord
100
AcDbLinetypeTableRecord
  2
LONG3
 70
     0
  3
+++++++++++++++..+++++++++++++++
 72
    65
 73
     2
 40
40.0
 49
37.5
 74
     0
 49
-2.5
 74
     0
  0
LTYPE
  5
37
330
5
100
AcDbSymbolTableRecord
100
AcDbLinetypeTableRecord
  2
LONG4
 70
     0
  3
+++++++++++++++..+++++++++++++++
 72
    65
 73
     2
 40
80.0
 49
75.0
 74
     0
 49
-5.0
 74
     0
  0
LTYPE
  5
38
330
5
100
AcDbSymbolTableRecord
100
AcDbLinetypeTableRecord
  2
LONG5
 70
     0
  3
----------  --  ----------  --  
 72
    65
 73
     4
 40
60.0
 49
37.5
 74
     0
 49
-7.5
 74
     0
 49
7.5
 74
     0
 49
-7.5
 74
     0
  0
LTYPE
  5
39
330
5
100
AcDbSymbolTableRecord
100
AcDbLinetypeTableRecord
  2
DASHED
 70
     0
  3
-------   -------------   ------
 72
    65
 73
     2
 40
7.5
 49
6.0
 74
     0
 49
-1.5
 74
     0
  0
LTYPE
  5
3A
330
5
100
AcDbSymbolTableRecord
100
AcDbLinetypeTableRecord
  2
DASHED_SPACED
 70
     0
  3
----        --------        ----
 72
    65
 73
     2
 40
12.0
 49
6.0
 74
     0
 49
-6.0
 74
     0
  0
LTYPE
  5
3B
330
5
100
AcDbSymbolTableRecord
100
AcDbLinetypeTableRecord
  2
LONG_DASHED_DOTTED
 70
     0
  3
------------- --- --------------
 72
    65
 73
     4
 40
15.25
 49
12.0
 74
     0
 49
-1.5
 74
     0
 49
0.25
 74
     0
 49
-1.5
 74
     0
  0
LTYPE
  5
3C
330
5
100
AcDbSymbolTableRecord
100
AcDbLinetypeTableRecord
  2
LONG_DASHED_DOUBLE-DOTTED
 70
     0
  3
----------- --- --- ------------
 72
    65
 73
     6
 40
17.0
 49
12.0
 74
     0
 49
-1.5
 74
     0
 49
0.25
 74
     0
 49
-1.5
 74
     0
 49
0.25
 74
     0
 49
-1.5
 74
     0
  0
LTYPE
  5
3D
330
5
100
AcDbSymbolTableRecord
100
AcDbLinetypeTableRecord
  2
LONG_DASHED_TRIPLICATE-DOTTED
 70
     0
  3
--------- --- --- --- ----------
 72
    65
 73
     8
 40
18.75
 49
12.0
 74
     0
 49
-1.5
 74
     0
 49
0.25
 74
     0
 49
-1.5
 74
     0
 49
0.25
 74
     0
 49
-1.5
 74
     0
 49
0.25
 74
     0
 49
-1.5
 74
     0
  0
LTYPE
  5
3E
330
5
100
AcDbSymbolTableRecord
100
AcDbLinetypeTableRecord
  2
DOTTED
 70
     0
  3
   -       -       -       -    
 72
    65
 73
     2
 40
1.75
 49
0.25
 74
     0
 49
-1.5
 74
     0
  0
LTYPE
  5
3F
330
5
100
AcDbSymbolTableRecord
100
AcDbLinetypeTableRecord
  2
CHAIN
 70
     0
  3
-------------- -- --------------
 72
    65
 73
     4
 40
18.5
 49
12.0
 74
     0
 49
-1.5
 74
     0
 49
3.5
 74
     0
 49
-1.5
 74
     0
  0
LTYPE
  5
40
330
5
100
AcDbSymbolTableRecord
100
AcDbLinetypeTableRecord
  2
CHAIN_DOUBLE_DASH
 70
     0
  3
------------ -- -- -------------
 72
    65
 73
     6
 40
23.5
 49
12.0
 74
     0
 49
-1.5
 74
     0
 49
3.5
 74
     0
 49
-1.5
 74
     0
 49
3.5
 74
     0
 49
-1.5
 74
     0
  0
LTYPE
  5
41
330
5
100
AcDbSymbolTableRecord
100
AcDbLinetypeTableRecord
  2
DASHED_DOTTED
 70
     0
  3
-----------     -     ----------
 72
    65
 73
     4
 40
9.25
 49
6.0
 74
     0
 49
-1.5
 74
     0
 49
0.25
 74
     0
 49
-1.5
 74
     0
  0
LTYPE
  5
42
330
5
100
AcDbSymbolTableRecord
100
AcDbLinetypeTableRecord
  2
DOUBLE-DASHED_DOTTED
 70
     0
  3
------   -----------   -   -----
 72
    65
 73
     6
 40
16.75
 49
6.0
 74
     0
 49
-1.5
 74
     0
 49
6.0
 74
     0
 49
-1.5
 74
     0
 49
0.25
 74
     0
 49
-1.5
 74
     0
  0
LTYPE
  5
43
330
5
100
AcDbSymbolTableRecord
100
AcDbLinetypeTableRecord
  2
DASHED_DOUBLE-DOTTED
 70
     0
  3
---------    -    -    ---------
 72
    65
 73
     6
 40
11.0
 49
6.0
 74
     0
 49
-1.5
 74
     0
 49
0.25
 74
     0
 49
-1.5
 74
     0
 49
0.25
 74
     0
 49
-1.5
 74
     0
  0
LTYPE
  5
44
330
5
100
AcDbSymbolTableRecord
100
AcDbLinetypeTableRecord
  2
DOUBLE-DASHED_DOUBLE-DOTTED
 70
     0
  3
-----   ---------   -   -   ----
 72
    65
 73
     8
 40
18.5
 49
6.0
 74
     0
 49
-1.5
 74
     0
 49
6.0
 74
     0
 49
-1.5
 74
     0
 49
0.25
 74
     0
 49
-1.5
 74
     0
 49
0.25
 74
     0
 49
-1.5
 74
     0
  0
LTYPE
  5
45
330
5
100
AcDbSymbolTableRecord
100
AcDbLinetypeTableRecord
  2
DASHED_TRIPLICATE-DOTTED
 70
     0
  3
-------    -    -    -    ------
 72
    65
 73
     8
 40
12.75
 49
6.0
 74
     0
 49
-1.5
 74
     0
 49
0.25
 74
     0
 49
-1.5
 74
     0
 49
0.25
 74
     0
 49
-1.5
 74
     0
 49
0.25
 74
     0
 49
-1.5
 74
     0
  0
LTYPE
  5
46
330
5
100
AcDbSymbolTableRecord
100
AcDbLinetypeTableRecord
  2
DOUBLE-DASHED_TRIPLICATE-DOTTED
 70
     0
  3
-----  ---------  -  -  -  -----
 72
    65
 73
    10
 40
20.25
 49
6.0
 74
     0
 49
-1.5
 74
     0
 49
6.0
 74
     0
 49
-1.5
 74
     0
 49
0.25
 74
     0
 49
-1.5
 74
     0
 49
0.25
 74
     0
 49
-1.5
 74
     0
 49
0.25
 74
     0
 49
-1.5
 74
     0
  0
LTYPE
  5
47
330
5
100
AcDbSymbolTableRecord
100
AcDbLinetypeTableRecord
  2
UNDEFINED
 70
     0
  3
--------------------------------
 72
    65
 73
     0
 40
0.0
  0
ENDTAB
  0
TABLE
  2
LAYER
  5
2
330
0
100
AcDbSymbolTable
 70
    17
  0
LAYER
  5
10
330
2
100
AcDbSymbolTableRecord
100
AcDbLayerTableRecord
  2
0
 70
     0
 62
     7
  6
CONTINUOUS
370
    -3
390
F
  0
LAYER
  5
49
330
2
100
AcDbSymbolTableRecord
100
AcDbLayerTableRecord
  2
_2-1_
 70
     0
 62
     7
  6
CONTINUOUS
370
    -3
390
F
  0
LAYER
  5
4A
330
2
100
AcDbSymbolTableRecord
100
AcDbLayerTableRecord
  2
_2-2_IN_LINE
 70
     0
 62
     7
  6
CONTINUOUS
370
    -3
390
F
  0
LAYER
  5
4B
330
2
100
AcDbSymbolTableRecord
100
AcDbLayerTableRecord
  2
_2-3_
 70
     0
 62
     7
  6
CONTINUOUS
370
    -3
390
F
  0
LAYER
  5
4C
330
2
100
AcDbSymbolTableRecord
100
AcDbLayerTableRecord
  2
_2-4_OUT_LINE
 70
     0
 62
     7
  6
CONTINUOUS
370
    -3
390
F
  0
LAYER
  5
4D
330
2
100
AcDbSymbolTableRecord
100
AcDbLayerTableRecord
  2
_2-7_ビス
 70
     0
 62
     7
  6
CONTINUOUS
370
    -3
390
F
  0
LAYER
  5
4E
330
2
100
AcDbSymbolTableRecord
100
AcDbLayerTableRecord
  2
_2-8_DRAIN他
 70
     0
 62
     7
  6
CONTINUOUS
370
    -3
390
F
  0
LAYER
  5
4F
330
2
100
AcDbSymbolTableRecord
100
AcDbLayerTableRecord
  2
_2-A_MOJI
 70
     0
 62
     7
  6
CONTINUOUS
370
    -3
390
F
  0
LAYER
  5
50
330
2
100
AcDbSymbolTableRecord
100
AcDbLayerTableRecord
  2
_2-B_DIM
 70
     0
 62
     7
  6
CONTINUOUS
370
    -3
390
F
  0
LAYER
  5
51
330
2
100
AcDbSymbolTableRecord
100
AcDbLayerTableRecord
  2
_2-D_ハッチ他
 70
     0
 62
     7
  6
CONTINUOUS
370
    -3
390
F
  0
LAYER
  5
52
330
2
100
AcDbSymbolTableRecord
100
AcDbLayerTableRecord
  2
_2-E_CON他
 70
     0
 62
     7
  6
CONTINUOUS
370
    -3
390
F
  0
LAYER
  5
53
330
2
100
AcDbSymbolTableRecord
100
AcDbLayerTableRecord
  2
_F-2_
 70
     0
 62
     7
  6
CONTINUOUS
370
    -3
390
F
  0
LAYER
  5
54
330
2
100
AcDbSymbolTableRecord
100
AcDbLayerTableRecord
  2
_F-5_
 70
     0
 62
     7
  6
CONTINUOUS
370
    -3
390
F
  0
LAYER
  5
55
330
2
100
AcDbSymbolTableRecord
100
AcDbLayerTableRecord
  2
_F-7_
 70
     0
 62
     7
  6
CONTINUOUS
370
    -3
390
F
  0
LAYER
  5
56
330
2
100
AcDbSymbolTableRecord
100
AcDbLayerTableRecord
  2
_F-8_
 70
     0
 62
     7
  6
CONTINUOUS
370
    -3
390
F
  0
LAYER
  5
57
330
2
100
AcDbSymbolTableRecord
100
AcDbLayerTableRecord
  2
_F-A_
 70
     0
 62
     7
  6
CONTINUOUS
370
    -3
390
F
  0
LAYER
  5
58
330
2
100
AcDbSymbolTableRecord
100
AcDbLayerTableRecord
  2
ADD_LINE
 70
     0
 62
     7
  6
CONTINUOUS
370
    -3
390
F
  0
ENDTAB
  0
TABLE
  2
STYLE
  5
3
330
0
100
AcDbSymbolTable
 70
     2
  0
STYLE
  5
11
330
3
100
AcDbSymbolTableRecord
100
AcDbTextStyleTableRecord
  2
STANDARD
 70
     0
 40
0.0
 41
1.0
 50
0.0
 71
     0
 42
0.2
  3
txt
  4
bigfont.shx
  0
STYLE
  5
48
330
3
100
AcDbSymbolTableRecord
100
AcDbTextStyleTableRecord
  2
TATEGAKI
 70
     4
 40
0.0
 41
1.0
 50
0.0
 71
     0
 42
1.0
  3
txt
  4
bigfont.shx
  0
ENDTAB
  0
TABLE
  2
VIEW
  5
6
330
0
100
AcDbSymbolTable
 70
     0
  0
ENDTAB
  0
TABLE
  2
UCS
  5
7
330
0
100
AcDbSymbolTable
 70
     0
  0
ENDTAB
  0
TABLE
  2
APPID
  5
9
330
0
100
AcDbSymbolTable
 70
     1
  0
APPID
  5
12
330
9
100
AcDbSymbolTableRecord
100
AcDbRegAppTableRecord
  2
ACAD
 70
     0
  0
ENDTAB
  0
TABLE
  2
DIMSTYLE
  5
A
330
0
100
AcDbSymbolTable
 70
     1
100
AcDbDimStyleTable
 71
     0
  0
DIMSTYLE
105
612
330
A
100
AcDbSymbolTableRecord
100
AcDbDimStyleTableRecord
  2
Standard
 70
     0
340
11
  0
ENDTAB
  0
TABLE
  2
BLOCK_RECORD
  5
1
330
0
100
AcDbSymbolTable
 70
     0
  0
BLOCK_RECORD
  5
22
330
1
100
AcDbSymbolTableRecord
100
AcDbBlockTableRecord
  2
*Model_Space
340
25
  0
BLOCK_RECORD
  5
1E
330
1
100
AcDbSymbolTableRecord
100
AcDbBlockTableRecord
  2
*Paper_Space
340
21
  0
ENDTAB
  0
ENDSEC
  0
SECTION
  2
BLOCKS
  0
BLOCK
  5
23
330
22
100
AcDbEntity
  8
0
100
AcDbBlockBegin
  2
*Model_Space
 70
     0
 10
0.0
 20
0.0
 30
0.0
  3
*Model_Space
  1

  0
ENDBLK
  5
24
330
22
100
AcDbEntity
  8
0
100
AcDbBlockEnd
  0
BLOCK
  5
1F
330
1E
100
AcDbEntity
 67
     1
  8
0
100
AcDbBlockBegin
  2
*Paper_Space
 70
     0
 10
0.0
 20
0.0
 30
0.0
  3
*Paper_Space
  1

  0
ENDBLK
  5
20
330
1E
100
AcDbEntity
 67
     1
  8
0
100
AcDbBlockEnd
  0
ENDSEC
  0
SECTION
  2
ENTITIES
  0
LINE
  5
5C
330
22
100
AcDbEntity
  8
ADD_LINE
  6
DOT
 62
   136
100
AcDbLine
 10
1544.868343282044
 20
28.07665329025894
 30
0.0
 11
544.8683432820419
 21
28.07665329025894
 31
0.0
  0
LINE
  5
5D
330
22
100
AcDbEntity
  8
ADD_LINE
  6
DOT
 62
   136
100
AcDbLine
 10
1544.868343282044
 20
1458.076653290258
 30
0.0
 11
1544.868343282044
 21
28.07665329025894
 31
0.0
  0
LINE
  5
5E
330
22
100
AcDbEntity
  8
ADD_LINE
  6
DOT
 62
   136
100
AcDbLine
 10
544.8683432820441
 20
1458.076653290258
 30
0.0
 11
1544.868343282044
 21
1458.076653290258
 31
0.0
  0
LINE
  5
5F
330
22
100
AcDbEntity
  8
ADD_LINE
  6
DOT
 62
   136
100
AcDbLine
 10
544.8683432820441
 20
1458.076653290258
 30
0.0
 11
544.8683432820441
 21
28.07665329025894
 31
0.0
  0
LINE
  5
60
330
22
100
AcDbEntity
  8
ADD_LINE
  6
DOT
 62
   136
100
AcDbLine
 10
644.8683432820441
 20
788.0766532902566
 30
0.0
 11
1444.868343282044
 21
788.0766532902566
 31
0.0
  0
LINE
  5
61
330
22
100
AcDbEntity
  8
ADD_LINE
  6
DOT
 62
   136
100
AcDbLine
 10
664.8683432820441
 20
808.0766532902567
 30
0.0
 11
664.8683432820441
 21
768.0766532902566
 31
0.0
  0
LINE
  5
62
330
22
100
AcDbEntity
  8
ADD_LINE
  6
DOT
 62
   136
100
AcDbLine
 10
949.868343282044
 20
808.0766532902567
 30
0.0
 11
949.868343282044
 21
768.0766532902566
 31
0.0
  0
LINE
  5
63
330
22
100
AcDbEntity
  8
ADD_LINE
  6
DOT
 62
   136
100
AcDbLine
 10
799.868343282044
 20
808.0766532902567
 30
0.0
 11
799.868343282044
 21
768.0766532902566
 31
0.0
  0
LINE
  5
64
330
22
100
AcDbEntity
  8
ADD_LINE
  6
DOT
 62
   136
100
AcDbLine
 10
644.8683432820441
 20
148.076653290259
 30
0.0
 11
1444.868343282044
 21
148.076653290259
 31
0.0
  0
LINE
  5
65
330
22
100
AcDbEntity
  8
ADD_LINE
  6
DOT
 62
   136
100
AcDbLine
 10
664.8683432820441
 20
168.0766532902589
 30
0.0
 11
664.8683432820441
 21
128.0766532902589
 31
0.0
  0
LINE
  5
66
330
22
100
AcDbEntity
  8
ADD_LINE
  6
DOT
 62
   136
100
AcDbLine
 10
949.868343282044
 20
168.0766532902589
 30
0.0
 11
949.868343282044
 21
128.0766532902589
 31
0.0
  0
LINE
  5
67
330
22
100
AcDbEntity
  8
ADD_LINE
  6
DOT
 62
   136
100
AcDbLine
 10
799.868343282044
 20
168.0766532902589
 30
0.0
 11
799.868343282044
 21
128.0766532902589
 31
0.0
  0
LINE
  5
68
330
22
100
AcDbEntity
  8
ADD_LINE
  6
DOT
 62
   136
100
AcDbLine
 10
1329.868343282044
 20
808.0766532902567
 30
0.0
 11
1329.868343282044
 21
768.0766532902566
 31
0.0
  0
LINE
  5
69
330
22
100
AcDbEntity
  8
ADD_LINE
  6
DOT
 62
   136
100
AcDbLine
 10
1224.868343282044
 20
808.0766532902567
 30
0.0
 11
1224.868343282044
 21
768.0766532902566
 31
0.0
  0
LINE
  5
6A
330
22
100
AcDbEntity
  8
ADD_LINE
  6
DOT
 62
   136
100
AcDbLine
 10
1329.868343282044
 20
168.0766532902589
 30
0.0
 11
1329.868343282044
 21
128.0766532902589
 31
0.0
  0
LINE
  5
6B
330
22
100
AcDbEntity
  8
ADD_LINE
  6
DOT
 62
   136
100
AcDbLine
 10
1224.868343282044
 20
168.0766532902589
 30
0.0
 11
1224.868343282044
 21
128.0766532902589
 31
0.0
  0
LINE
  5
6C
330
22
100
AcDbEntity
  8
_2-3_
  6
Continuous
 62
     3
100
AcDbLine
 10
942.5305200793264
 20
532.7610826708195
 30
0.0
 11
942.5305200793264
 21
393.2766532902588
 31
0.0
  0
ARC
  5
6D
330
22
100
AcDbEntity
  8
_2-3_
  6
Continuous
 62
     3
100
AcDbCircle
 10
941.5305200793277
 20
532.7610826708195
 30
0.0
 40
1.0
100
AcDbArc
 50
0.0
 51
90.0
  0
LINE
  5
6E
330
22
100
AcDbEntity
  8
_F-7_
  6
Continuous
 62
     1
100
AcDbLine
 10
644.8683432820441
 20
768.0766532902566
 30
0.0
 11
1444.868343282044
 21
768.0766532902566
 31
0.0
  0
LINE
  5
6F
330
22
100
AcDbEntity
  8
_F-7_
  6
Continuous
 62
     1
100
AcDbLine
 10
644.8683432820441
 20
718.0766532902567
 30
0.0
 11
1444.868343282044
 21
718.0766532902567
 31
0.0
  0
LINE
  5
70
330
22
100
AcDbEntity
  8
_F-5_
  6
Continuous
 62
     6
100
AcDbLine
 10
644.8683432820441
 20
808.0766532902567
 30
0.0
 11
1444.868343282044
 21
808.0766532902567
 31
0.0
  0
LINE
  5
71
330
22
100
AcDbEntity
  8
_F-2_
  6
Continuous
 62
     7
100
AcDbLine
 10
934.868343282044
 20
808.0766532902567
 30
0.0
 11
934.868343282044
 21
768.0766532902566
 31
0.0
  0
TEXT
  5
72
330
22
100
AcDbEntity
  8
_F-A_
 62
     7
100
AcDbText
 10
664.8683432820441
 20
778.0766532902567
 30
0.0
 40
20.0
  1
１１０仕様
100
AcDbText
  0
LINE
  5
73
330
22
100
AcDbEntity
  8
_F-7_
  6
Continuous
 62
     1
100
AcDbLine
 10
644.8683432820441
 20
128.0766532902589
 30
0.0
 11
1444.868343282044
 21
128.0766532902589
 31
0.0
  0
LINE
  5
74
330
22
100
AcDbEntity
  8
_F-5_
  6
Continuous
 62
     6
100
AcDbLine
 10
644.8683432820441
 20
168.0766532902589
 30
0.0
 11
1444.868343282044
 21
168.0766532902589
 31
0.0
  0
LINE
  5
75
330
22
100
AcDbEntity
  8
_F-2_
  6
Continuous
 62
     7
100
AcDbLine
 10
934.868343282044
 20
168.0766532902589
 30
0.0
 11
934.868343282044
 21
128.0766532902589
 31
0.0
  0
TEXT
  5
76
330
22
100
AcDbEntity
  8
_F-A_
 62
     7
100
AcDbText
 10
664.8683432820441
 20
138.0766532902589
 30
0.0
 40
20.0
  1
１１０仕様
100
AcDbText
  0
LINE
  5
77
330
22
100
AcDbEntity
  8
_F-5_
  6
Continuous
 62
     6
100
AcDbLine
 10
784.8683432820441
 20
808.0766532902567
 30
0.0
 11
784.8683432820441
 21
768.0766532902566
 31
0.0
  0
LINE
  5
78
330
22
100
AcDbEntity
  8
_F-5_
  6
Continuous
 62
     6
100
AcDbLine
 10
784.8683432820441
 20
168.0766532902589
 30
0.0
 11
784.8683432820441
 21
128.0766532902589
 31
0.0
  0
LINE
  5
79
330
22
100
AcDbEntity
  8
_F-7_
  6
Continuous
 62
     1
100
AcDbLine
 10
1444.868343282044
 20
1358.076653290257
 30
0.0
 11
1444.868343282044
 21
768.0766532902566
 31
0.0
  0
LINE
  5
7A
330
22
100
AcDbEntity
  8
_F-7_
  6
Continuous
 62
     1
100
AcDbLine
 10
644.8683432820441
 20
1358.076653290257
 30
0.0
 11
1444.868343282044
 21
1358.076653290257
 31
0.0
  0
LINE
  5
7B
330
22
100
AcDbEntity
  8
_F-7_
  6
Continuous
 62
     1
100
AcDbLine
 10
644.8683432820441
 20
1358.076653290257
 30
0.0
 11
644.8683432820441
 21
768.0766532902566
 31
0.0
  0
LINE
  5
7C
330
22
100
AcDbEntity
  8
_F-7_
  6
Continuous
 62
     1
100
AcDbLine
 10
644.8683432820441
 20
718.0766532902567
 30
0.0
 11
644.8683432820441
 21
128.0766532902589
 31
0.0
  0
LINE
  5
7D
330
22
100
AcDbEntity
  8
_F-7_
  6
Continuous
 62
     1
100
AcDbLine
 10
1444.868343282044
 20
718.0766532902567
 30
0.0
 11
1444.868343282044
 21
128.0766532902589
 31
0.0
  0
TEXT
  5
7E
330
22
100
AcDbEntity
  8
_F-A_
 62
     7
100
AcDbText
 10
799.868343282044
 20
778.0766532902567
 30
0.0
 40
17.5
  1
下地：ＲＣ
100
AcDbText
  0
TEXT
  5
7F
330
22
100
AcDbEntity
  8
_F-A_
 62
     7
100
AcDbText
 10
799.868343282044
 20
138.0766532902589
 30
0.0
 40
17.5
  1
下地：ＲＣ
100
AcDbText
  0
TEXT
  5
80
330
22
100
AcDbEntity
  8
_F-A_
 62
     7
100
AcDbText
 10
949.868343282044
 20
138.0766532902589
 30
0.0
 40
17.5
  1
部位：ステンレスベントロン
100
AcDbText
  0
TEXT
  5
81
330
22
100
AcDbEntity
  8
_F-A_
 62
     7
100
AcDbText
 10
949.868343282044
 20
778.0766532902567
 30
0.0
 40
17.5
  1
部位：脱気盤３０Ｌ
100
AcDbText
  0
LINE
  5
82
330
22
100
AcDbEntity
  8
_F-2_
  6
Continuous
 62
     7
100
AcDbLine
 10
1314.868343282044
 20
808.0766532902567
 30
0.0
 11
1314.868343282044
 21
768.0766532902566
 31
0.0
  0
LINE
  5
83
330
22
100
AcDbEntity
  8
_F-2_
  6
Continuous
 62
     7
100
AcDbLine
 10
1209.868343282044
 20
808.0766532902567
 30
0.0
 11
1209.868343282044
 21
768.0766532902566
 31
0.0
  0
TEXT
  5
84
330
22
100
AcDbEntity
  8
_F-A_
 62
     7
100
AcDbText
 10
1329.868343282044
 20
778.0766532902567
 30
0.0
 40
15.0
  1
図番
100
AcDbText
  0
LINE
  5
85
330
22
100
AcDbEntity
  8
_F-2_
  6
Continuous
 62
     7
100
AcDbLine
 10
1314.868343282044
 20
168.0766532902589
 30
0.0
 11
1314.868343282044
 21
128.0766532902589
 31
0.0
  0
LINE
  5
86
330
22
100
AcDbEntity
  8
_F-2_
  6
Continuous
 62
     7
100
AcDbLine
 10
1209.868343282044
 20
168.0766532902589
 30
0.0
 11
1209.868343282044
 21
128.0766532902589
 31
0.0
  0
TEXT
  5
87
330
22
100
AcDbEntity
  8
_F-A_
 62
     7
100
AcDbText
 10
1329.868343282044
 20
138.0766532902589
 30
0.0
 40
15.0
  1
図番
100
AcDbText
  0
TEXT
  5
88
330
22
100
AcDbEntity
  8
_F-A_
 62
     7
100
AcDbText
 10
1224.868343282044
 20
778.0766532902567
 30
0.0
 40
15.0
  1
Ｓ＝１：５
100
AcDbText
  0
TEXT
  5
89
330
22
100
AcDbEntity
  8
_F-A_
 62
     7
100
AcDbText
 10
1224.868343282044
 20
138.0766532902589
 30
0.0
 40
15.0
  1
Ｓ＝１：５
100
AcDbText
  0
TEXT
  5
8A
330
22
100
AcDbEntity
  8
_F-A_
 62
     7
100
AcDbText
 10
1376.286012006151
 20
778.0766532902567
 30
0.0
 40
15.0
  1
１－２６
100
AcDbText
  0
TEXT
  5
8B
330
22
100
AcDbEntity
  8
_F-A_
 62
     7
100
AcDbText
 10
1376.286012006151
 20
138.0766532902567
 30
0.0
 40
15.0
  1
１－２７
100
AcDbText
  0
LINE
  5
8C
330
22
100
AcDbEntity
  8
_2-E_CON他
  6
Continuous
 62
     4
100
AcDbLine
 10
901.0385451566314
 20
218.0766532902589
 30
0.0
 11
1051.038545156631
 21
368.0766532902589
 31
0.0
  0
LINE
  5
8D
330
22
100
AcDbEntity
  8
_2-E_CON他
  6
Continuous
 62
     4
100
AcDbLine
 10
915.1806807803611
 20
218.0766532902589
 30
0.0
 11
1065.180680780362
 21
368.0766532902589
 31
0.0
  0
LINE
  5
8E
330
22
100
AcDbEntity
  8
_2-E_CON他
  6
Continuous
 62
     4
100
AcDbLine
 10
908.109612968497
 20
218.0766532902589
 30
0.0
 11
1058.109612968497
 21
368.0766532902589
 31
0.0
  0
LINE
  5
8F
330
22
100
AcDbEntity
  8
_2-E_CON他
  6
Continuous
 62
     4
100
AcDbLine
 10
1108.109612968497
 20
218.0766532902589
 30
0.0
 11
1258.109612968496
 21
368.0766532902589
 31
0.0
  0
LINE
  5
90
330
22
100
AcDbEntity
  8
_2-E_CON他
  6
Continuous
 62
     4
100
AcDbLine
 10
1115.180680780361
 20
218.0766532902589
 30
0.0
 11
1265.180680780362
 21
368.0766532902589
 31
0.0
  0
LINE
  5
91
330
22
100
AcDbEntity
  8
_2-E_CON他
  6
Continuous
 62
     4
100
AcDbLine
 10
1101.038545156631
 20
218.0766532902589
 30
0.0
 11
1251.038545156631
 21
368.0766532902589
 31
0.0
  0
LINE
  5
92
330
22
100
AcDbEntity
  8
_2-E_CON他
  6
Continuous
 62
     4
100
AcDbLine
 10
719.868343282044
 20
236.9064514156708
 30
0.0
 11
851.0385451566314
 21
368.0766532902589
 31
0.0
  0
LINE
  5
93
330
22
100
AcDbEntity
  8
_2-E_CON他
  6
Continuous
 62
     4
100
AcDbLine
 10
719.868343282044
 20
222.764315791942
 30
0.0
 11
865.1806807803621
 21
368.0766532902589
 31
0.0
  0
LINE
  5
94
330
22
100
AcDbEntity
  8
_2-E_CON他
  6
Continuous
 62
     4
100
AcDbLine
 10
719.868343282044
 20
229.8353836038064
 30
0.0
 11
858.1096129684965
 21
368.0766532902589
 31
0.0
  0
LINE
  5
95
330
22
100
AcDbEntity
  8
_2-E_CON他
  6
Continuous
 62
     4
100
AcDbLine
 10
1301.038545156631
 20
218.0766532902589
 30
0.0
 11
1369.868343282044
 21
286.9064514156708
 31
0.0
  0
LINE
  5
96
330
22
100
AcDbEntity
  8
_2-E_CON他
  6
Continuous
 62
     4
100
AcDbLine
 10
1315.180680780361
 20
218.0766532902589
 30
0.0
 11
1369.868343282044
 21
272.764315791942
 31
0.0
  0
LINE
  5
97
330
22
100
AcDbEntity
  8
_2-E_CON他
  6
Continuous
 62
     4
100
AcDbLine
 10
1308.109612968497
 20
218.0766532902589
 30
0.0
 11
1369.868343282044
 21
279.8353836038064
 31
0.0
  0
LINE
  5
98
330
22
100
AcDbEntity
  8
_2-B_DIM
  6
Continuous
 62
     7
100
AcDbLine
 10
941.3305200793264
 20
320.0845912056502
 30
0.0
 11
991.3305200793264
 21
320.0845912056502
 31
0.0
  0
POINT
  5
99
330
22
100
AcDbEntity
  8
_2-B_DIM
 62
     7
100
AcDbPoint
 10
941.3305200793264
 20
320.0845912056502
 30
0.0
  0
POINT
  5
9A
330
22
100
AcDbEntity
  8
_2-B_DIM
 62
     7
100
AcDbPoint
 10
991.3305200793264
 20
320.0845912056502
 30
0.0
  0
LINE
  5
9B
330
22
100
AcDbEntity
  8
_2-B_DIM
  6
Continuous
 62
     7
100
AcDbLine
 10
941.3305200793264
 20
320.0845912056502
 30
0.0
 11
941.3305200793264
 21
361.6134896334234
 31
0.0
  0
LINE
  5
9C
330
22
100
AcDbEntity
  8
_2-B_DIM
  6
Continuous
 62
     7
100
AcDbLine
 10
991.3305200793264
 20
320.0845912056502
 30
0.0
 11
991.3305200793264
 21
361.6134896334234
 31
0.0
  0
TEXT
  5
9D
330
22
100
AcDbEntity
  8
_2-B_DIM
 62
     7
100
AcDbText
 10
944.2487440609012
 20
323.0241913788086
 30
0.0
 40
15.0
  1
50～60
100
AcDbText
  0
LINE
  5
9E
330
22
100
AcDbEntity
  8
_2-B_DIM
  6
Continuous
 62
     7
100
AcDbLine
 10
941.3305200793264
 20
1010.024076451575
 30
0.0
 11
991.3305200793264
 21
1010.024076451575
 31
0.0
  0
POINT
  5
9F
330
22
100
AcDbEntity
  8
_2-B_DIM
 62
     7
100
AcDbPoint
 10
941.3305200793264
 20
1010.024076451575
 30
0.0
  0
POINT
  5
A0
330
22
100
AcDbEntity
  8
_2-B_DIM
 62
     7
100
AcDbPoint
 10
991.3305200793264
 20
1010.024076451575
 30
0.0
  0
LINE
  5
A1
330
22
100
AcDbEntity
  8
_2-B_DIM
  6
Continuous
 62
     7
100
AcDbLine
 10
941.3305200793264
 20
1010.024076451575
 30
0.0
 11
941.3305200793264
 21
1051.552974879348
 31
0.0
  0
LINE
  5
A2
330
22
100
AcDbEntity
  8
_2-B_DIM
  6
Continuous
 62
     7
100
AcDbLine
 10
991.3305200793264
 20
1010.024076451575
 30
0.0
 11
991.3305200793264
 21
1051.552974879348
 31
0.0
  0
TEXT
  5
A3
330
22
100
AcDbEntity
  8
_2-B_DIM
 62
     7
100
AcDbText
 10
944.2487440609012
 20
1012.963676624733
 30
0.0
 40
15.0
  1
50～60
100
AcDbText
  0
LINE
  5
A4
330
22
100
AcDbEntity
  8
_2-E_CON他
  6
Continuous
 62
     4
100
AcDbLine
 10
901.0385451566314
 20
908.0161385361838
 30
0.0
 11
1051.038545156631
 21
1058.016138536184
 31
0.0
  0
LINE
  5
A5
330
22
100
AcDbEntity
  8
_2-E_CON他
  6
Continuous
 62
     4
100
AcDbLine
 10
915.1806807803611
 20
908.0161385361838
 30
0.0
 11
1065.180680780362
 21
1058.016138536184
 31
0.0
  0
LINE
  5
A6
330
22
100
AcDbEntity
  8
_2-E_CON他
  6
Continuous
 62
     4
100
AcDbLine
 10
908.109612968497
 20
908.0161385361838
 30
0.0
 11
1058.109612968497
 21
1058.016138536184
 31
0.0
  0
LINE
  5
A7
330
22
100
AcDbEntity
  8
_2-E_CON他
  6
Continuous
 62
     4
100
AcDbLine
 10
1108.109612968497
 20
908.0161385361838
 30
0.0
 11
1258.109612968496
 21
1058.016138536184
 31
0.0
  0
LINE
  5
A8
330
22
100
AcDbEntity
  8
_2-E_CON他
  6
Continuous
 62
     4
100
AcDbLine
 10
1115.180680780361
 20
908.0161385361838
 30
0.0
 11
1265.180680780362
 21
1058.016138536184
 31
0.0
  0
LINE
  5
A9
330
22
100
AcDbEntity
  8
_2-E_CON他
  6
Continuous
 62
     4
100
AcDbLine
 10
1101.038545156631
 20
908.0161385361838
 30
0.0
 11
1251.038545156631
 21
1058.016138536184
 31
0.0
  0
LINE
  5
AA
330
22
100
AcDbEntity
  8
_2-E_CON他
  6
Continuous
 62
     4
100
AcDbLine
 10
719.868343282044
 20
926.8459366615955
 30
0.0
 11
851.0385451566314
 21
1058.016138536184
 31
0.0
  0
LINE
  5
AB
330
22
100
AcDbEntity
  8
_2-E_CON他
  6
Continuous
 62
     4
100
AcDbLine
 10
719.868343282044
 20
912.7038010378667
 30
0.0
 11
865.1806807803621
 21
1058.016138536184
 31
0.0
  0
LINE
  5
AC
330
22
100
AcDbEntity
  8
_2-E_CON他
  6
Continuous
 62
     4
100
AcDbLine
 10
719.868343282044
 20
919.7748688497313
 30
0.0
 11
858.1096129684965
 21
1058.016138536184
 31
0.0
  0
LINE
  5
AD
330
22
100
AcDbEntity
  8
_2-E_CON他
  6
Continuous
 62
     4
100
AcDbLine
 10
1301.038545156631
 20
908.0161385361838
 30
0.0
 11
1369.868343282044
 21
976.8459366615955
 31
0.0
  0
LINE
  5
AE
330
22
100
AcDbEntity
  8
_2-E_CON他
  6
Continuous
 62
     4
100
AcDbLine
 10
1315.180680780361
 20
908.0161385361838
 30
0.0
 11
1369.868343282044
 21
962.7038010378667
 31
0.0
  0
LINE
  5
AF
330
22
100
AcDbEntity
  8
_2-E_CON他
  6
Continuous
 62
     4
100
AcDbLine
 10
1308.109612968497
 20
908.0161385361838
 30
0.0
 11
1369.868343282044
 21
969.7748688497313
 31
0.0
  0
LINE
  5
B0
330
22
100
AcDbEntity
  8
_2-8_DRAIN他
  6
Continuous
 62
     3
100
AcDbLine
 10
945.9596402576895
 20
1088.016138536184
 30
0.0
 11
966.3305200793264
 21
1088.016138536184
 31
0.0
  0
LINE
  5
B1
330
22
100
AcDbEntity
  8
_2-8_DRAIN他
  6
Continuous
 62
     7
100
AcDbLine
 10
929.2470598217551
 20
1079.797589626021
 30
0.0
 11
887.293432097163
 21
1063.016138536184
 31
0.0
  0
ARC
  5
B2
330
22
100
AcDbEntity
  8
_2-8_DRAIN他
  6
Continuous
 62
     7
100
AcDbCircle
 10
945.9596402576895
 20
1038.016138536184
 30
0.0
 40
45.0
100
AcDbArc
 50
90.0
 51
111.8014094863517
  0
LINE
  5
B3
330
22
100
AcDbEntity
  8
_2-8_DRAIN他
  6
Continuous
 62
     7
100
AcDbLine
 10
945.9596402576895
 20
1083.016138536184
 30
0.0
 11
966.3305200793264
 21
1083.016138536184
 31
0.0
  0
LINE
  5
B4
330
22
100
AcDbEntity
  8
_2-8_DRAIN他
  6
Continuous
 62
     7
100
AcDbLine
 10
986.7013999009634
 20
1083.016138536184
 30
0.0
 11
966.3305200793264
 21
1083.016138536184
 31
0.0
  0
ARC
  5
B5
330
22
100
AcDbEntity
  8
_2-8_DRAIN他
  6
Continuous
 62
     7
100
AcDbCircle
 10
986.7013999009634
 20
1038.016138536184
 30
0.0
 40
45.0
100
AcDbArc
 50
68.19859051364826
 51
90.0
  0
LINE
  5
B6
330
22
100
AcDbEntity
  8
_2-8_DRAIN他
  6
Continuous
 62
     7
100
AcDbLine
 10
1003.413980336899
 20
1079.797589626021
 30
0.0
 11
1045.36760806149
 21
1063.016138536184
 31
0.0
  0
LINE
  5
B7
330
22
100
AcDbEntity
  8
_2-8_DRAIN他
  6
Continuous
 62
     4
100
AcDbLine
 10
1063.811039792495
 20
1063.016138536184
 30
0.0
 11
1063.811039792495
 21
1068.016138536184
 31
0.0
  0
LINE
  5
B8
330
22
100
AcDbEntity
  8
_2-8_DRAIN他
  6
Continuous
 62
     4
100
AcDbLine
 10
1058.811039792495
 20
1063.016138536184
 30
0.0
 11
1058.811039792495
 21
1068.016138536184
 31
0.0
  0
LINE
  5
B9
330
22
100
AcDbEntity
  8
_2-8_DRAIN他
  6
Continuous
 62
     4
100
AcDbLine
 10
1053.811039792495
 20
1063.016138536184
 30
0.0
 11
1053.811039792495
 21
1068.016138536184
 31
0.0
  0
LINE
  5
BA
330
22
100
AcDbEntity
  8
_2-8_DRAIN他
  6
Continuous
 62
     4
100
AcDbLine
 10
1048.811039792495
 20
1063.016138536184
 30
0.0
 11
1048.811039792495
 21
1068.016138536184
 31
0.0
  0
LINE
  5
BB
330
22
100
AcDbEntity
  8
_2-8_DRAIN他
  6
Continuous
 62
     4
100
AcDbLine
 10
1043.811039792495
 20
1063.638765843782
 30
0.0
 11
1043.811039792495
 21
1069.023930650917
 31
0.0
  0
LINE
  5
BC
330
22
100
AcDbEntity
  8
_2-8_DRAIN他
  6
Continuous
 62
     4
100
AcDbLine
 10
1038.811039792495
 20
1065.638765843782
 30
0.0
 11
1038.811039792495
 21
1071.023930650917
 31
0.0
  0
LINE
  5
BD
330
22
100
AcDbEntity
  8
_2-8_DRAIN他
  6
Continuous
 62
     4
100
AcDbLine
 10
1033.811039792495
 20
1067.638765843782
 30
0.0
 11
1033.811039792495
 21
1073.023930650915
 31
0.0
  0
LINE
  5
BE
330
22
100
AcDbEntity
  8
_2-8_DRAIN他
  6
Continuous
 62
     4
100
AcDbLine
 10
1028.811039792495
 20
1069.638765843781
 30
0.0
 11
1028.811039792495
 21
1075.023930650916
 31
0.0
  0
LINE
  5
BF
330
22
100
AcDbEntity
  8
_2-8_DRAIN他
  6
Continuous
 62
     4
100
AcDbLine
 10
1023.811039792495
 20
1071.638765843781
 30
0.0
 11
1023.811039792495
 21
1077.023930650916
 31
0.0
  0
LINE
  5
C0
330
22
100
AcDbEntity
  8
_2-8_DRAIN他
  6
Continuous
 62
     4
100
AcDbLine
 10
1018.811039792495
 20
1073.638765843782
 30
0.0
 11
1018.811039792495
 21
1079.023930650917
 31
0.0
  0
LINE
  5
C1
330
22
100
AcDbEntity
  8
_2-8_DRAIN他
  6
Continuous
 62
     4
100
AcDbLine
 10
1013.811039792495
 20
1075.638765843782
 30
0.0
 11
1013.811039792495
 21
1081.023930650917
 31
0.0
  0
LINE
  5
C2
330
22
100
AcDbEntity
  8
_2-8_DRAIN他
  6
Continuous
 62
     4
100
AcDbLine
 10
1008.811039792495
 20
1077.638765843782
 30
0.0
 11
1008.811039792495
 21
1083.023930650915
 31
0.0
  0
LINE
  5
C3
330
22
100
AcDbEntity
  8
_2-8_DRAIN他
  6
Continuous
 62
     4
100
AcDbLine
 10
1003.811039792495
 20
1079.638765843781
 30
0.0
 11
1003.811039792495
 21
1084.99762662226
 31
0.0
  0
LINE
  5
C4
330
22
100
AcDbEntity
  8
_2-8_DRAIN他
  6
Continuous
 62
     4
100
AcDbLine
 10
998.8110397924948
 20
1081.356150323188
 30
0.0
 11
998.8110397924948
 21
1086.527545665819
 31
0.0
  0
LINE
  5
C5
330
22
100
AcDbEntity
  8
_2-8_DRAIN他
  6
Continuous
 62
     4
100
AcDbLine
 10
993.8110397924948
 20
1082.450956197706
 30
0.0
 11
993.8110397924948
 21
1087.508087584617
 31
0.0
  0
LINE
  5
C6
330
22
100
AcDbEntity
  8
_2-8_DRAIN他
  6
Continuous
 62
     4
100
AcDbLine
 10
988.8110397924949
 20
1082.96666044114
 30
0.0
 11
988.8110397924949
 21
1087.971612906146
 31
0.0
  0
LINE
  5
C7
330
22
100
AcDbEntity
  8
_2-8_DRAIN他
  6
Continuous
 62
     4
100
AcDbLine
 10
983.8110397924948
 20
1083.016138536184
 30
0.0
 11
983.8110397924948
 21
1088.016138536184
 31
0.0
  0
LINE
  5
C8
330
22
100
AcDbEntity
  8
_2-8_DRAIN他
  6
Continuous
 62
     4
100
AcDbLine
 10
978.8110397924949
 20
1083.016138536184
 30
0.0
 11
978.8110397924949
 21
1088.016138536184
 31
0.0
  0
LINE
  5
C9
330
22
100
AcDbEntity
  8
_2-8_DRAIN他
  6
Continuous
 62
     4
100
AcDbLine
 10
973.8110397924948
 20
1083.016138536184
 30
0.0
 11
973.8110397924948
 21
1088.016138536184
 31
0.0
  0
LINE
  5
CA
330
22
100
AcDbEntity
  8
_2-8_DRAIN他
  6
Continuous
 62
     4
100
AcDbLine
 10
968.8110397924948
 20
1083.016138536184
 30
0.0
 11
968.8110397924948
 21
1088.016138536184
 31
0.0
  0
LINE
  5
CB
330
22
100
AcDbEntity
  8
_2-8_DRAIN他
  6
Continuous
 62
     4
100
AcDbLine
 10
963.8110397924949
 20
1083.016138536184
 30
0.0
 11
963.8110397924949
 21
1088.016138536184
 31
0.0
  0
LINE
  5
CC
330
22
100
AcDbEntity
  8
_2-8_DRAIN他
  6
Continuous
 62
     4
100
AcDbLine
 10
958.8110397924948
 20
1083.016138536184
 30
0.0
 11
958.8110397924948
 21
1088.016138536184
 31
0.0
  0
LINE
  5
CD
330
22
100
AcDbEntity
  8
_2-8_DRAIN他
  6
Continuous
 62
     4
100
AcDbLine
 10
953.8110397924949
 20
1083.016138536184
 30
0.0
 11
953.8110397924949
 21
1088.016138536184
 31
0.0
  0
LINE
  5
CE
330
22
100
AcDbEntity
  8
_2-8_DRAIN他
  6
Continuous
 62
     4
100
AcDbLine
 10
948.8110397924948
 20
1083.016138536184
 30
0.0
 11
948.8110397924948
 21
1088.016138536184
 31
0.0
  0
LINE
  5
CF
330
22
100
AcDbEntity
  8
_2-8_DRAIN他
  6
Continuous
 62
     4
100
AcDbLine
 10
943.8110397924948
 20
1082.96481500214
 30
0.0
 11
943.8110397924948
 21
1087.969952364972
 31
0.0
  0
LINE
  5
D0
330
22
100
AcDbEntity
  8
_2-8_DRAIN他
  6
Continuous
 62
     4
100
AcDbLine
 10
938.8110397924949
 20
1082.444704925262
 30
0.0
 11
938.8110397924949
 21
1087.50247514932
 31
0.0
  0
LINE
  5
D1
330
22
100
AcDbEntity
  8
_2-8_DRAIN他
  6
Continuous
 62
     4
100
AcDbLine
 10
933.8110397924948
 20
1081.345245459095
 30
0.0
 11
933.8110397924948
 21
1086.51780352551
 31
0.0
  0
LINE
  5
D2
330
22
100
AcDbEntity
  8
_2-8_DRAIN他
  6
Continuous
 62
     4
100
AcDbLine
 10
928.8110397924949
 20
1079.623181614315
 30
0.0
 11
928.8110397924949
 21
1084.983419723037
 31
0.0
  0
LINE
  5
D3
330
22
100
AcDbEntity
  8
_2-8_DRAIN他
  6
Continuous
 62
     4
100
AcDbLine
 10
923.8110397924948
 20
1077.623181614317
 30
0.0
 11
923.8110397924948
 21
1083.00834642145
 31
0.0
  0
LINE
  5
D4
330
22
100
AcDbEntity
  8
_2-8_DRAIN他
  6
Continuous
 62
     4
100
AcDbLine
 10
918.8110397924948
 20
1075.623181614317
 30
0.0
 11
918.8110397924948
 21
1081.008346421451
 31
0.0
  0
LINE
  5
D5
330
22
100
AcDbEntity
  8
_2-8_DRAIN他
  6
Continuous
 62
     4
100
AcDbLine
 10
913.8110397924949
 20
1073.623181614316
 30
0.0
 11
913.8110397924949
 21
1079.008346421451
 31
0.0
  0
LINE
  5
D6
330
22
100
AcDbEntity
  8
_2-8_DRAIN他
  6
Continuous
 62
     4
100
AcDbLine
 10
908.8110397924948
 20
1071.623181614316
 30
0.0
 11
908.8110397924948
 21
1077.008346421451
 31
0.0
  0
LINE
  5
D7
330
22
100
AcDbEntity
  8
_2-8_DRAIN他
  6
Continuous
 62
     4
100
AcDbLine
 10
903.8110397924949
 20
1069.623181614315
 30
0.0
 11
903.8110397924949
 21
1075.00834642145
 31
0.0
  0
LINE
  5
D8
330
22
100
AcDbEntity
  8
_2-8_DRAIN他
  6
Continuous
 62
     4
100
AcDbLine
 10
898.8110397924948
 20
1067.623181614317
 30
0.0
 11
898.8110397924948
 21
1073.00834642145
 31
0.0
  0
LINE
  5
D9
330
22
100
AcDbEntity
  8
_2-8_DRAIN他
  6
Continuous
 62
     4
100
AcDbLine
 10
893.8110397924948
 20
1065.623181614316
 30
0.0
 11
893.8110397924948
 21
1071.008346421451
 31
0.0
  0
LINE
  5
DA
330
22
100
AcDbEntity
  8
_2-8_DRAIN他
  6
Continuous
 62
     4
100
AcDbLine
 10
888.8110397924949
 20
1063.623181614316
 30
0.0
 11
888.8110397924949
 21
1069.008346421451
 31
0.0
  0
LINE
  5
DB
330
22
100
AcDbEntity
  8
_2-8_DRAIN他
  6
Continuous
 62
     4
100
AcDbLine
 10
883.8110397924937
 20
1063.016138536184
 30
0.0
 11
883.8110397924937
 21
1068.016138536184
 31
0.0
  0
LINE
  5
DC
330
22
100
AcDbEntity
  8
_2-8_DRAIN他
  6
Continuous
 62
     4
100
AcDbLine
 10
878.8110397924937
 20
1063.016138536184
 30
0.0
 11
878.8110397924937
 21
1068.016138536184
 31
0.0
  0
LINE
  5
DD
330
22
100
AcDbEntity
  8
_2-8_DRAIN他
  6
Continuous
 62
     4
100
AcDbLine
 10
873.8110397924938
 20
1063.016138536184
 30
0.0
 11
873.8110397924938
 21
1068.016138536184
 31
0.0
  0
LINE
  5
DE
330
22
100
AcDbEntity
  8
_2-8_DRAIN他
  6
Continuous
 62
     4
100
AcDbLine
 10
868.8110397924937
 20
1063.016138536184
 30
0.0
 11
868.8110397924937
 21
1068.016138536184
 31
0.0
  0
LINE
  5
DF
330
22
100
AcDbEntity
  8
_2-8_DRAIN他
  6
Continuous
 62
     7
100
AcDbLine
 10
892.2934320971629
 20
1065.016138536184
 30
0.0
 11
1040.36760806149
 21
1065.016138536184
 31
0.0
  0
LINE
  5
E0
330
22
100
AcDbEntity
  8
_2-4_OUT_LINE
  6
Continuous
 62
     2
100
AcDbLine
 10
991.3305200793264
 20
1063.016138536184
 30
0.0
 11
1369.868343282043
 21
1063.016138536184
 31
0.0
  0
LINE
  5
E1
330
22
100
AcDbEntity
  8
_2-4_OUT_LINE
  6
Continuous
 62
     2
100
AcDbLine
 10
719.868343282043
 20
1063.016138536184
 30
0.0
 11
941.3305200793264
 21
1063.016138536184
 31
0.0
  0
LINE
  5
E2
330
22
100
AcDbEntity
  8
_2-A_MOJI
  6
Continuous
 62
     7
100
AcDbLine
 10
1170.462205667301
 20
1120.805017156422
 30
0.0
 11
1145.625299668417
 21
1120.805017156422
 31
0.0
  0
LINE
  5
E3
330
22
100
AcDbEntity
  8
_2-3_
  6
Continuous
 62
     3
100
AcDbLine
 10
1005.27093371867
 20
1084.439973080445
 30
0.0
 11
1046.330520079326
 21
1068.016138536184
 31
0.0
  0
ARC
  5
E4
330
22
100
AcDbEntity
  8
_2-3_
  6
Continuous
 62
     3
100
AcDbCircle
 10
986.7013999009634
 20
1038.016138536184
 30
0.0
 40
50.0
100
AcDbArc
 50
68.19859051364824
 51
90.0
  0
LINE
  5
E5
330
22
100
AcDbEntity
  8
_2-3_
  6
Continuous
 62
     3
100
AcDbLine
 10
986.7013999009634
 20
1088.016138536184
 30
0.0
 11
966.3305200793264
 21
1088.016138536184
 31
0.0
  0
ARC
  5
E6
330
22
100
AcDbEntity
  8
_2-3_
  6
Continuous
 62
     3
100
AcDbCircle
 10
945.9596402576895
 20
1038.016138536184
 30
0.0
 40
50.0
100
AcDbArc
 50
90.0
 51
111.8014094863517
  0
LINE
  5
E7
330
22
100
AcDbEntity
  8
_2-3_
  6
Continuous
 62
     3
100
AcDbLine
 10
927.3901064399845
 20
1084.439973080445
 30
0.0
 11
886.3305200793265
 21
1068.016138536184
 31
0.0
  0
LINE
  5
E8
330
22
100
AcDbEntity
  8
_2-8_DRAIN他
  6
Continuous
 62
     7
100
AcDbLine
 10
991.3305200793264
 20
1065.016138536184
 30
0.0
 11
991.3305200793264
 21
1058.016138536184
 31
0.0
  0
LINE
  5
E9
330
22
100
AcDbEntity
  8
_2-8_DRAIN他
  6
Continuous
 62
     7
100
AcDbLine
 10
941.3305200793264
 20
1065.016138536184
 30
0.0
 11
941.3305200793264
 21
1058.016138536184
 31
0.0
  0
LINE
  5
EA
330
22
100
AcDbEntity
  8
_2-A_MOJI
  6
Continuous
 62
     7
100
AcDbLine
 10
1112.260875040856
 20
1063.016138536184
 30
0.0
 11
1145.625299668417
 21
1120.805017156422
 31
0.0
  0
TEXT
  5
EB
330
22
100
AcDbEntity
  8
_2-A_MOJI
 62
     7
100
AcDbText
 10
1180.462205667301
 20
1113.305017156422
 30
0.0
 40
15.0
  1
塩ビシート 接着工法
100
AcDbText
  0
LINE
  5
EC
330
22
100
AcDbEntity
  8
_2-1_
  6
Continuous
 62
     4
100
AcDbLine
 10
986.3305200793263
 20
383.076653290259
 30
0.0
 11
966.3305200793264
 21
383.076653290259
 31
0.0
  0
LINE
  5
ED
330
22
100
AcDbEntity
  8
_2-1_
  6
Continuous
 62
     4
100
AcDbLine
 10
983.5020929545795
 20
385.0766532902594
 30
0.0
 11
966.3305200793264
 21
385.0766532902594
 31
0.0
  0
ARC
  5
EE
330
22
100
AcDbEntity
  8
_2-3_
  6
Continuous
 62
     3
100
AcDbCircle
 10
1031.330520079326
 20
377.2259989072563
 30
0.0
 40
3.0
100
AcDbArc
 50
70.42687416958987
 51
179.9999999999999
  0
ARC
  5
EF
330
22
100
AcDbEntity
  8
_2-3_
  6
Continuous
 62
     3
100
AcDbCircle
 10
1013.330520079326
 20
382.0766532902599
 30
0.0
 40
3.0
100
AcDbArc
 50
0.0
 51
90.0
  0
ARC
  5
F0
330
22
100
AcDbEntity
  8
_2-3_
  6
Continuous
 62
     3
100
AcDbCircle
 10
1017.330520079327
 20
376.0766532902585
 30
0.0
 40
3.0
100
AcDbArc
 50
180.0
 51
270.0
  0
ARC
  5
F1
330
22
100
AcDbEntity
  8
_2-3_
  6
Continuous
 62
     3
100
AcDbCircle
 10
1027.330520079325
 20
376.0766532902585
 30
0.0
 40
3.0
100
AcDbArc
 50
270.0
 51
0.0
  0
LINE
  5
F2
330
22
100
AcDbEntity
  8
_2-3_
  6
Continuous
 62
     3
100
AcDbLine
 10
1030.330520079326
 20
377.2259989072563
 30
0.0
 11
1030.330520079326
 21
376.0766532902585
 31
0.0
  0
ARC
  5
F3
330
22
100
AcDbEntity
  8
_2-3_
  6
Continuous
 62
     3
100
AcDbCircle
 10
1031.330520079325
 20
377.2259989072563
 30
0.0
 40
1.0
100
AcDbArc
 50
70.42687416959059
 51
180.0
  0
LINE
  5
F4
330
22
100
AcDbEntity
  8
_2-3_
  6
Continuous
 62
     3
100
AcDbLine
 10
1028.330520079326
 20
376.0766532902585
 30
0.0
 11
1028.330520079326
 21
377.2259989072563
 31
0.0
  0
ARC
  5
F5
330
22
100
AcDbEntity
  8
_2-3_
  6
Continuous
 62
     3
100
AcDbCircle
 10
1027.330520079325
 20
376.0766532902585
 30
0.0
 40
1.0
100
AcDbArc
 50
270.0
 51
0.0
  0
LINE
  5
F6
330
22
100
AcDbEntity
  8
_2-3_
  6
Continuous
 62
     3
100
AcDbLine
 10
1017.330520079325
 20
375.0766532902594
 30
0.0
 11
1027.330520079325
 21
375.0766532902594
 31
0.0
  0
LINE
  5
F7
330
22
100
AcDbEntity
  8
_2-3_
  6
Continuous
 62
     3
100
AcDbLine
 10
1016.330520079327
 20
376.0766532902585
 30
0.0
 11
1016.330520079327
 21
382.0766532902599
 31
0.0
  0
ARC
  5
F8
330
22
100
AcDbEntity
  8
_2-3_
  6
Continuous
 62
     3
100
AcDbCircle
 10
1017.330520079325
 20
376.0766532902585
 30
0.0
 40
1.0
100
AcDbArc
 50
180.0
 51
270.0
  0
LINE
  5
F9
330
22
100
AcDbEntity
  8
_2-3_
  6
Continuous
 62
     3
100
AcDbLine
 10
1014.330520079326
 20
382.0766532902599
 30
0.0
 11
1014.330520079326
 21
376.0766532902585
 31
0.0
  0
ARC
  5
FA
330
22
100
AcDbEntity
  8
_2-3_
  6
Continuous
 62
     3
100
AcDbCircle
 10
1013.330520079326
 20
382.0766532902599
 30
0.0
 40
1.0
100
AcDbArc
 50
0.0
 51
90.0
  0
LINE
  5
FB
330
22
100
AcDbEntity
  8
_2-3_
  6
Continuous
 62
     3
100
AcDbLine
 10
986.3305200793263
 20
383.076653290259
 30
0.0
 11
1013.330520079326
 21
383.076653290259
 31
0.0
  0
ARC
  5
FC
330
22
100
AcDbEntity
  8
_2-3_
  6
Continuous
 62
     3
100
AcDbCircle
 10
986.3305200793263
 20
386.0766532902585
 30
0.0
 40
3.0
100
AcDbArc
 50
180.0
 51
270.0
  0
ARC
  5
FD
330
22
100
AcDbEntity
  8
_2-3_
  6
Continuous
 62
     3
100
AcDbCircle
 10
986.3305200793263
 20
386.0766532902585
 30
0.0
 40
1.0
100
AcDbArc
 50
180.0
 51
270.0
  0
LINE
  5
FE
330
22
100
AcDbEntity
  8
_2-3_
  6
Continuous
 62
     3
100
AcDbLine
 10
985.3305200793263
 20
386.0766532902585
 30
0.0
 11
985.3305200793263
 21
485.0766532902594
 31
0.0
  0
LINE
  5
FF
330
22
100
AcDbEntity
  8
_2-3_
  6
Continuous
 62
     3
100
AcDbLine
 10
983.3305200793258
 20
386.0766532902585
 30
0.0
 11
983.3305200793258
 21
485.0766532902594
 31
0.0
  0
LINE
  5
100
330
22
100
AcDbEntity
  8
_2-3_
  6
Continuous
 62
     3
100
AcDbLine
 10
1040.360543111196
 20
375.0766532902594
 30
0.0
 11
1041.030562446506
 21
376.9610826708186
 31
0.0
  0
LINE
  5
101
330
22
100
AcDbEntity
  8
_2-3_
  6
Continuous
 62
     3
100
AcDbLine
 10
1031.66552974698
 20
378.1682135975369
 30
0.0
 11
1040.360543111196
 21
375.0766532902594
 31
0.0
  0
LINE
  5
102
330
22
100
AcDbEntity
  8
_2-3_
  6
Continuous
 62
     3
100
AcDbLine
 10
986.3305200793263
 20
385.0766532902594
 30
0.0
 11
1013.330520079326
 21
385.0766532902594
 31
0.0
  0
LINE
  5
103
330
22
100
AcDbEntity
  8
_2-3_
  6
Continuous
 62
     3
100
AcDbLine
 10
1032.33554908229
 20
380.0526429780939
 30
0.0
 11
1041.030562446506
 21
376.9610826708186
 31
0.0
  0
LINE
  5
104
330
22
100
AcDbEntity
  8
_2-3_
  6
Continuous
 62
     3
100
AcDbLine
 10
993.3305200793258
 20
391.3266532902594
 30
0.0
 11
1018.330520079326
 21
391.3266532902594
 31
0.0
  0
ARC
  5
105
330
22
100
AcDbEntity
  8
_2-3_
  6
Continuous
 62
     3
100
AcDbCircle
 10
993.3305200793258
 20
393.3266532902576
 30
0.0
 40
2.0
100
AcDbArc
 50
180.0
 51
270.0
  0
LINE
  5
106
330
22
100
AcDbEntity
  8
_2-3_
  6
Continuous
 62
     3
100
AcDbLine
 10
993.3305200793258
 20
390.0766532902594
 30
0.0
 11
1018.264158898447
 21
390.0766532902594
 31
0.0
  0
ARC
  5
107
330
22
100
AcDbEntity
  8
_2-3_
  6
Continuous
 62
     3
100
AcDbCircle
 10
993.3305200793258
 20
393.2766532902588
 30
0.0
 40
3.2
100
AcDbArc
 50
180.0
 51
270.0
  0
LINE
  5
108
330
22
100
AcDbEntity
  8
_2-3_
  6
Continuous
 62
     3
100
AcDbLine
 10
1064.330520079326
 20
378.0766532902589
 30
0.0
 11
1064.330520079326
 21
379.2766532902578
 31
0.0
  0
LINE
  5
109
330
22
100
AcDbEntity
  8
_2-3_
  6
Continuous
 62
     3
100
AcDbLine
 10
1052.221145079323
 20
379.2766532902578
 30
0.0
 11
1064.330520079326
 21
379.2766532902578
 31
0.0
  0
LINE
  5
10A
330
22
100
AcDbEntity
  8
_2-3_
  6
Continuous
 62
     3
100
AcDbLine
 10
1018.330520079326
 20
391.3266532902594
 30
0.0
 11
1052.221145079323
 21
379.2766532902578
 31
0.0
  0
LINE
  5
10B
330
22
100
AcDbEntity
  8
_2-3_
  6
Continuous
 62
     3
100
AcDbLine
 10
1052.014158898445
 20
378.0766532902589
 30
0.0
 11
1064.330520079326
 21
378.0766532902589
 31
0.0
  0
LINE
  5
10C
330
22
100
AcDbEntity
  8
_2-3_
  6
Continuous
 62
     3
100
AcDbLine
 10
1018.264158898447
 20
390.0766532902594
 30
0.0
 11
1052.014158898445
 21
378.0766532902589
 31
0.0
  0
LINE
  5
10D
330
22
100
AcDbEntity
  8
_2-4_OUT_LINE
  6
Continuous
 62
     2
100
AcDbLine
 10
1101.955520079325
 20
373.076653290259
 30
0.0
 11
1101.955520079325
 21
378.0766532902589
 31
0.0
  0
LINE
  5
10E
330
22
100
AcDbEntity
  8
_2-4_OUT_LINE
  6
Continuous
 62
     2
100
AcDbLine
 10
1064.330520079326
 20
378.0766532902589
 30
0.0
 11
1101.955520079325
 21
378.0766532902589
 31
0.0
  0
LINE
  5
10F
330
22
100
AcDbEntity
  8
_2-4_OUT_LINE
  6
Continuous
 62
     2
100
AcDbLine
 10
1101.955520079325
 20
373.076653290259
 30
0.0
 11
1369.868343282043
 21
373.076653290259
 31
0.0
  0
LINE
  5
110
330
22
100
AcDbEntity
  8
_2-8_DRAIN他
  6
Continuous
 62
     7
100
AcDbLine
 10
1095.958388012392
 20
378.0766532902589
 30
0.0
 11
1095.976606799916
 21
378.2075582369408
 31
0.0
  0
LINE
  5
111
330
22
100
AcDbEntity
  8
_2-8_DRAIN他
  6
Continuous
 62
     7
100
AcDbLine
 10
1095.976606799916
 20
378.2075582369408
 30
0.0
 11
1096.009673579577
 21
378.4326321719595
 31
0.0
  0
LINE
  5
112
330
22
100
AcDbEntity
  8
_2-8_DRAIN他
  6
Continuous
 62
     7
100
AcDbLine
 10
1096.009673579577
 20
378.4326321719595
 30
0.0
 11
1096.047337795443
 21
378.6559720822174
 31
0.0
  0
LINE
  5
113
330
22
100
AcDbEntity
  8
_2-8_DRAIN他
  6
Continuous
 62
     7
100
AcDbLine
 10
1096.047337795443
 20
378.6559720822174
 30
0.0
 11
1096.092509217266
 21
378.8764804836888
 31
0.0
  0
LINE
  5
114
330
22
100
AcDbEntity
  8
_2-8_DRAIN他
  6
Continuous
 62
     7
100
AcDbLine
 10
1096.092509217266
 20
378.8764804836888
 30
0.0
 11
1096.148097614797
 21
379.0930598923456
 31
0.0
  0
LINE
  5
115
330
22
100
AcDbEntity
  8
_2-8_DRAIN他
  6
Continuous
 62
     7
100
AcDbLine
 10
1096.148097614797
 20
379.0930598923456
 30
0.0
 11
1096.217012757786
 21
379.3046128241645
 31
0.0
  0
LINE
  5
116
330
22
100
AcDbEntity
  8
_2-8_DRAIN他
  6
Continuous
 62
     7
100
AcDbLine
 10
1096.217012757786
 20
379.3046128241645
 30
0.0
 11
1096.264236456078
 21
379.4245779271569
 31
0.0
  0
LINE
  5
117
330
22
100
AcDbEntity
  8
_2-8_DRAIN他
  6
Continuous
 62
     7
100
AcDbLine
 10
1096.264236456078
 20
379.4245779271569
 30
0.0
 11
1096.305177517342
 21
379.5166947667485
 31
0.0
  0
LINE
  5
118
330
22
100
AcDbEntity
  8
_2-8_DRAIN他
  6
Continuous
 62
     7
100
AcDbLine
 10
1096.305177517342
 20
379.5166947667485
 30
0.0
 11
1096.383592690024
 21
379.6724090697603
 31
0.0
  0
LINE
  5
119
330
22
100
AcDbEntity
  8
_2-8_DRAIN他
  6
Continuous
 62
     7
100
AcDbLine
 10
1096.383592690024
 20
379.6724090697603
 30
0.0
 11
1096.47069970435
 21
379.8244126726422
 31
0.0
  0
LINE
  5
11A
330
22
100
AcDbEntity
  8
_2-8_DRAIN他
  6
Continuous
 62
     7
100
AcDbLine
 10
1096.47069970435
 20
379.8244126726422
 30
0.0
 11
1096.565084693499
 21
379.9729651884423
 31
0.0
  0
LINE
  5
11B
330
22
100
AcDbEntity
  8
_2-8_DRAIN他
  6
Continuous
 62
     7
100
AcDbLine
 10
1096.565084693499
 20
379.9729651884423
 30
0.0
 11
1096.665333790643
 21
380.1183262302128
 31
0.0
  0
LINE
  5
11C
330
22
100
AcDbEntity
  8
_2-8_DRAIN他
  6
Continuous
 62
     7
100
AcDbLine
 10
1096.665333790643
 20
380.1183262302128
 30
0.0
 11
1096.77003312896
 21
380.2607554110091
 31
0.0
  0
LINE
  5
11D
330
22
100
AcDbEntity
  8
_2-8_DRAIN他
  6
Continuous
 62
     7
100
AcDbLine
 10
1096.77003312896
 20
380.2607554110091
 30
0.0
 11
1096.832240708638
 21
380.3421232582151
 31
0.0
  0
LINE
  5
11E
330
22
100
AcDbEntity
  8
_2-8_DRAIN他
  6
Continuous
 62
     7
100
AcDbLine
 10
1096.832240708638
 20
380.3421232582151
 30
0.0
 11
1096.906456982574
 21
380.4368068510166
 31
0.0
  0
LINE
  5
11F
330
22
100
AcDbEntity
  8
_2-8_DRAIN他
  6
Continuous
 62
     7
100
AcDbLine
 10
1096.906456982574
 20
380.4368068510166
 30
0.0
 11
1097.036681922678
 21
380.5975256448778
 31
0.0
  0
LINE
  5
120
330
22
100
AcDbEntity
  8
_2-8_DRAIN他
  6
Continuous
 62
     7
100
AcDbLine
 10
1097.036681922678
 20
380.5975256448778
 30
0.0
 11
1097.169533741898
 21
380.7553924072703
 31
0.0
  0
LINE
  5
121
330
22
100
AcDbEntity
  8
_2-8_DRAIN他
  6
Continuous
 62
     7
100
AcDbLine
 10
1097.169533741898
 20
380.7553924072703
 30
0.0
 11
1097.304731880026
 21
380.9108129007359
 31
0.0
  0
LINE
  5
122
330
22
100
AcDbEntity
  8
_2-8_DRAIN他
  6
Continuous
 62
     7
100
AcDbLine
 10
1097.304731880026
 20
380.9108129007359
 30
0.0
 11
1097.44199577685
 21
381.0641928878226
 31
0.0
  0
LINE
  5
123
330
22
100
AcDbEntity
  8
_2-8_DRAIN他
  6
Continuous
 62
     7
100
AcDbLine
 10
1097.44199577685
 20
381.0641928878226
 30
0.0
 11
1097.581044872159
 21
381.2159381310788
 31
0.0
  0
LINE
  5
124
330
22
100
AcDbEntity
  8
_2-8_DRAIN他
  6
Continuous
 62
     7
100
AcDbLine
 10
1097.581044872159
 20
381.2159381310788
 30
0.0
 11
1097.662400770071
 21
381.3033612240838
 31
0.0
  0
LINE
  5
125
330
22
100
AcDbEntity
  8
_2-8_DRAIN他
  6
Continuous
 62
     7
100
AcDbLine
 10
1097.662400770071
 20
381.3033612240838
 30
0.0
 11
1097.748035843485
 21
381.3944313984826
 31
0.0
  0
LINE
  5
126
330
22
100
AcDbEntity
  8
_2-8_DRAIN他
  6
Continuous
 62
     7
100
AcDbLine
 10
1097.748035843485
 20
381.3944313984826
 30
0.0
 11
1097.897233201793
 21
381.5501331473161
 31
0.0
  0
LINE
  5
127
330
22
100
AcDbEntity
  8
_2-8_DRAIN他
  6
Continuous
 62
     7
100
AcDbLine
 10
1097.897233201793
 20
381.5501331473161
 30
0.0
 11
1098.048983415363
 21
381.7034791257152
 31
0.0
  0
LINE
  5
128
330
22
100
AcDbEntity
  8
_2-8_DRAIN他
  6
Continuous
 62
     7
100
AcDbLine
 10
1098.048983415363
 20
381.7034791257152
 30
0.0
 11
1098.203972494866
 21
381.8536667646368
 31
0.0
  0
LINE
  5
129
330
22
100
AcDbEntity
  8
_2-8_DRAIN他
  6
Continuous
 62
     7
100
AcDbLine
 10
1098.203972494866
 20
381.8536667646368
 30
0.0
 11
1098.362886450973
 21
381.9998934950331
 31
0.0
  0
LINE
  5
12A
330
22
100
AcDbEntity
  8
_2-8_DRAIN他
  6
Continuous
 62
     7
100
AcDbLine
 10
1098.362886450973
 20
381.9998934950331
 30
0.0
 11
1098.526411294354
 21
382.1413567478611
 31
0.0
  0
LINE
  5
12B
330
22
100
AcDbEntity
  8
_2-8_DRAIN他
  6
Continuous
 62
     7
100
AcDbLine
 10
1098.526411294354
 20
382.1413567478611
 30
0.0
 11
1098.62363873594
 21
382.2209065551419
 31
0.0
  0
LINE
  5
12C
330
22
100
AcDbEntity
  8
_2-8_DRAIN他
  6
Continuous
 62
     7
100
AcDbLine
 10
1098.62363873594
 20
382.2209065551419
 30
0.0
 11
1098.711292435484
 21
382.2896319076381
 31
0.0
  0
LINE
  5
12D
330
22
100
AcDbEntity
  8
_2-8_DRAIN他
  6
Continuous
 62
     7
100
AcDbLine
 10
1098.711292435484
 20
382.2896319076381
 30
0.0
 11
1098.865905535404
 21
382.4038446754388
 31
0.0
  0
LINE
  5
12E
330
22
100
AcDbEntity
  8
_2-8_DRAIN他
  6
Continuous
 62
     7
100
AcDbLine
 10
1098.865905535404
 20
382.4038446754388
 30
0.0
 11
1099.024870678593
 21
382.5118173643705
 31
0.0
  0
LINE
  5
12F
330
22
100
AcDbEntity
  8
_2-8_DRAIN他
  6
Continuous
 62
     7
100
AcDbLine
 10
1099.024870678593
 20
382.5118173643705
 30
0.0
 11
1099.188117335819
 21
382.6125925957968
 31
0.0
  0
LINE
  5
130
330
22
100
AcDbEntity
  8
_2-8_DRAIN他
  6
Continuous
 62
     7
100
AcDbLine
 10
1099.188117335819
 20
382.6125925957968
 30
0.0
 11
1099.355574977851
 21
382.7052129910817
 31
0.0
  0
LINE
  5
131
330
22
100
AcDbEntity
  8
_2-8_DRAIN他
  6
Continuous
 62
     7
100
AcDbLine
 10
1099.355574977851
 20
382.7052129910817
 30
0.0
 11
1099.527173075456
 21
382.7887211715938
 31
0.0
  0
LINE
  5
132
330
22
100
AcDbEntity
  8
_2-8_DRAIN他
  6
Continuous
 62
     7
100
AcDbLine
 10
1099.527173075456
 20
382.7887211715938
 30
0.0
 11
1099.628569336624
 21
382.832603442514
 31
0.0
  0
LINE
  5
133
330
22
100
AcDbEntity
  8
_2-8_DRAIN他
  6
Continuous
 62
     7
100
AcDbLine
 10
1099.628569336624
 20
382.832603442514
 30
0.0
 11
1099.742474829362
 21
382.8771321557769
 31
0.0
  0
LINE
  5
134
330
22
100
AcDbEntity
  8
_2-8_DRAIN他
  6
Continuous
 62
     7
100
AcDbLine
 10
1099.742474829362
 20
382.8771321557769
 30
0.0
 11
1099.942363287217
 21
382.9444427841917
 31
0.0
  0
LINE
  5
135
330
22
100
AcDbEntity
  8
_2-8_DRAIN他
  6
Continuous
 62
     7
100
AcDbLine
 10
1099.942363287217
 20
382.9444427841917
 30
0.0
 11
1100.146065386075
 21
383.0010463356894
 31
0.0
  0
LINE
  5
136
330
22
100
AcDbEntity
  8
_2-8_DRAIN他
  6
Continuous
 62
     7
100
AcDbLine
 10
1100.146065386075
 20
383.0010463356894
 30
0.0
 11
1100.352864462884
 21
383.0484212094212
 31
0.0
  0
LINE
  5
137
330
22
100
AcDbEntity
  8
_2-8_DRAIN他
  6
Continuous
 62
     7
100
AcDbLine
 10
1100.352864462884
 20
383.0484212094212
 30
0.0
 11
1100.562043854593
 21
383.0880458045294
 31
0.0
  0
LINE
  5
138
330
22
100
AcDbEntity
  8
_2-8_DRAIN他
  6
Continuous
 62
     7
100
AcDbLine
 10
1100.562043854593
 20
383.0880458045294
 30
0.0
 11
1100.772886898149
 21
383.1213985201657
 31
0.0
  0
LINE
  5
139
330
22
100
AcDbEntity
  8
_2-8_DRAIN他
  6
Continuous
 62
     7
100
AcDbLine
 10
1100.772886898149
 20
383.1213985201657
 30
0.0
 11
1100.895655746179
 21
383.1384518862
 31
0.0
  0
LINE
  5
13A
330
22
100
AcDbEntity
  8
_2-8_DRAIN他
  6
Continuous
 62
     7
100
AcDbLine
 10
1100.895655746179
 20
383.1384518862
 30
0.0
 11
1101.044112716262
 21
383.1571688854661
 31
0.0
  0
LINE
  5
13B
330
22
100
AcDbEntity
  8
_2-8_DRAIN他
  6
Continuous
 62
     7
100
AcDbLine
 10
1101.044112716262
 20
383.1571688854661
 30
0.0
 11
1101.300432981547
 21
383.1840756465568
 31
0.0
  0
LINE
  5
13C
330
22
100
AcDbEntity
  8
_2-8_DRAIN他
  6
Continuous
 62
     7
100
AcDbLine
 10
1101.300432981547
 20
383.1840756465568
 30
0.0
 11
1101.556828310128
 21
383.202933893856
 31
0.0
  0
LINE
  5
13D
330
22
100
AcDbEntity
  8
_2-8_DRAIN他
  6
Continuous
 62
     7
100
AcDbLine
 10
1101.556828310128
 20
383.202933893856
 30
0.0
 11
1101.812856146759
 21
383.2122799850413
 31
0.0
  0
LINE
  5
13E
330
22
100
AcDbEntity
  8
_2-8_DRAIN他
  6
Continuous
 62
     7
100
AcDbLine
 10
1101.812856146759
 20
383.2122799850413
 30
0.0
 11
1102.068073936194
 21
383.2106502777946
 31
0.0
  0
LINE
  5
13F
330
22
100
AcDbEntity
  8
_2-8_DRAIN他
  6
Continuous
 62
     7
100
AcDbLine
 10
1102.068073936194
 20
383.2106502777946
 30
0.0
 11
1102.322039123185
 21
383.1965811297914
 31
0.0
  0
LINE
  5
140
330
22
100
AcDbEntity
  8
_2-8_DRAIN他
  6
Continuous
 62
     7
100
AcDbLine
 10
1102.322039123185
 20
383.1965811297914
 30
0.0
 11
1102.46859059942
 21
383.182144521013
 31
0.0
  0
LINE
  5
141
330
22
100
AcDbEntity
  8
_2-8_DRAIN他
  6
Continuous
 62
     7
100
AcDbLine
 10
1102.46859059942
 20
383.182144521013
 30
0.0
 11
1102.575934790988
 21
383.1684547349277
 31
0.0
  0
LINE
  5
142
330
22
100
AcDbEntity
  8
_2-8_DRAIN他
  6
Continuous
 62
     7
100
AcDbLine
 10
1102.575934790988
 20
383.1684547349277
 30
0.0
 11
1102.760384851756
 21
383.1394951036849
 31
0.0
  0
LINE
  5
143
330
22
100
AcDbEntity
  8
_2-8_DRAIN他
  6
Continuous
 62
     7
100
AcDbLine
 10
1102.760384851756
 20
383.1394951036849
 30
0.0
 11
1102.944355709198
 21
383.1051796221482
 31
0.0
  0
LINE
  5
144
330
22
100
AcDbEntity
  8
_2-8_DRAIN他
  6
Continuous
 62
     7
100
AcDbLine
 10
1102.944355709198
 20
383.1051796221482
 30
0.0
 11
1103.128211745056
 21
383.0671647961208
 31
0.0
  0
LINE
  5
145
330
22
100
AcDbEntity
  8
_2-8_DRAIN他
  6
Continuous
 62
     7
100
AcDbLine
 10
1103.128211745056
 20
383.0671647961208
 30
0.0
 11
1103.312317341075
 21
383.0271071314132
 31
0.0
  0
LINE
  5
146
330
22
100
AcDbEntity
  8
_2-8_DRAIN他
  6
Continuous
 62
     7
100
AcDbLine
 10
1103.312317341075
 20
383.0271071314132
 30
0.0
 11
1103.497036879004
 21
382.9866631338382
 31
0.0
  0
LINE
  5
147
330
22
100
AcDbEntity
  8
_2-8_DRAIN他
  6
Continuous
 62
     7
100
AcDbLine
 10
1103.497036879004
 20
382.9866631338382
 30
0.0
 11
1103.60459910454
 21
382.9636813469505
 31
0.0
  0
LINE
  5
148
330
22
100
AcDbEntity
  8
_2-8_DRAIN他
  6
Continuous
 62
     7
100
AcDbLine
 10
1103.60459910454
 20
382.9636813469505
 30
0.0
 11
1103.726710335868
 21
382.938407625452
 31
0.0
  0
LINE
  5
149
330
22
100
AcDbEntity
  8
_2-8_DRAIN他
  6
Continuous
 62
     7
100
AcDbLine
 10
1103.726710335868
 20
382.938407625452
 30
0.0
 11
1103.937508359432
 21
382.8950581092182
 31
0.0
  0
LINE
  5
14A
330
22
100
AcDbEntity
  8
_2-8_DRAIN他
  6
Continuous
 62
     7
100
AcDbLine
 10
1103.937508359432
 20
382.8950581092182
 30
0.0
 11
1104.147213583269
 21
382.8489249510698
 31
0.0
  0
LINE
  5
14B
330
22
100
AcDbEntity
  8
_2-8_DRAIN他
  6
Continuous
 62
     7
100
AcDbLine
 10
1104.147213583269
 20
382.8489249510698
 30
0.0
 11
1104.354170532537
 21
382.7964389093655
 31
0.0
  0
LINE
  5
14C
330
22
100
AcDbEntity
  8
_2-8_DRAIN他
  6
Continuous
 62
     7
100
AcDbLine
 10
1104.354170532537
 20
382.7964389093655
 30
0.0
 11
1104.556723732392
 21
382.7340307424673
 31
0.0
  0
LINE
  5
14D
330
22
100
AcDbEntity
  8
_2-8_DRAIN他
  6
Continuous
 62
     7
100
AcDbLine
 10
1104.556723732392
 20
382.7340307424673
 30
0.0
 11
1104.75321770799
 21
382.6581312087319
 31
0.0
  0
LINE
  5
14E
330
22
100
AcDbEntity
  8
_2-8_DRAIN他
  6
Continuous
 62
     7
100
AcDbLine
 10
1104.75321770799
 20
382.6581312087319
 30
0.0
 11
1104.863755534111
 21
382.606521268076
 31
0.0
  0
LINE
  5
14F
330
22
100
AcDbEntity
  8
_2-8_DRAIN他
  6
Continuous
 62
     7
100
AcDbLine
 10
1104.863755534111
 20
382.606521268076
 30
0.0
 11
1104.963077765291
 21
382.5534357961533
 31
0.0
  0
LINE
  5
150
330
22
100
AcDbEntity
  8
_2-8_DRAIN他
  6
Continuous
 62
     7
100
AcDbLine
 10
1104.963077765291
 20
382.5534357961533
 30
0.0
 11
1105.128501680481
 21
382.4501495150548
 31
0.0
  0
LINE
  5
151
330
22
100
AcDbEntity
  8
_2-8_DRAIN他
  6
Continuous
 62
     7
100
AcDbLine
 10
1105.128501680481
 20
382.4501495150548
 30
0.0
 11
1105.28655325184
 21
382.3335998833226
 31
0.0
  0
LINE
  5
152
330
22
100
AcDbEntity
  8
_2-8_DRAIN他
  6
Continuous
 62
     7
100
AcDbLine
 10
1105.28655325184
 20
382.3335998833226
 30
0.0
 11
1105.437228298258
 21
382.2056732100077
 31
0.0
  0
LINE
  5
153
330
22
100
AcDbEntity
  8
_2-8_DRAIN他
  6
Continuous
 62
     7
100
AcDbLine
 10
1105.437228298258
 20
382.2056732100077
 30
0.0
 11
1105.580522638623
 21
382.0682558041609
 31
0.0
  0
LINE
  5
154
330
22
100
AcDbEntity
  8
_2-8_DRAIN他
  6
Continuous
 62
     7
100
AcDbLine
 10
1105.580522638623
 20
382.0682558041609
 30
0.0
 11
1105.716432091828
 21
381.9232339748305
 31
0.0
  0
LINE
  5
155
330
22
100
AcDbEntity
  8
_2-8_DRAIN他
  6
Continuous
 62
     7
100
AcDbLine
 10
1105.716432091828
 20
381.9232339748305
 30
0.0
 11
1105.791874171814
 21
381.8363802708336
 31
0.0
  0
LINE
  5
156
330
22
100
AcDbEntity
  8
_2-8_DRAIN他
  6
Continuous
 62
     7
100
AcDbLine
 10
1105.791874171814
 20
381.8363802708336
 30
0.0
 11
1105.876169196186
 21
381.7338128828419
 31
0.0
  0
LINE
  5
157
330
22
100
AcDbEntity
  8
_2-8_DRAIN他
  6
Continuous
 62
     7
100
AcDbLine
 10
1105.876169196186
 20
381.7338128828419
 30
0.0
 11
1106.014341055453
 21
381.5525278731071
 31
0.0
  0
LINE
  5
158
330
22
100
AcDbEntity
  8
_2-8_DRAIN他
  6
Continuous
 62
     7
100
AcDbLine
 10
1106.014341055453
 20
381.5525278731071
 30
0.0
 11
1106.144451322473
 21
381.3663031984857
 31
0.0
  0
LINE
  5
159
330
22
100
AcDbEntity
  8
_2-8_DRAIN他
  6
Continuous
 62
     7
100
AcDbLine
 10
1106.144451322473
 20
381.3663031984857
 30
0.0
 11
1106.267671224459
 21
381.1759371373955
 31
0.0
  0
LINE
  5
15A
330
22
100
AcDbEntity
  8
_2-8_DRAIN他
  6
Continuous
 62
     7
100
AcDbLine
 10
1106.267671224459
 20
381.1759371373955
 30
0.0
 11
1106.385171988628
 21
380.982227968252
 31
0.0
  0
LINE
  5
15B
330
22
100
AcDbEntity
  8
_2-8_DRAIN他
  6
Continuous
 62
     7
100
AcDbLine
 10
1106.385171988628
 20
380.982227968252
 30
0.0
 11
1106.498124842197
 21
380.7859739694709
 31
0.0
  0
LINE
  5
15C
330
22
100
AcDbEntity
  8
_2-8_DRAIN他
  6
Continuous
 62
     7
100
AcDbLine
 10
1106.498124842197
 20
380.7859739694709
 30
0.0
 11
1106.562015169056
 21
380.6712951724421
 31
0.0
  0
LINE
  5
15D
330
22
100
AcDbEntity
  8
_2-8_DRAIN他
  6
Continuous
 62
     7
100
AcDbLine
 10
1106.562015169056
 20
380.6712951724421
 30
0.0
 11
1106.629282536563
 21
380.5482285803055
 31
0.0
  0
LINE
  5
15E
330
22
100
AcDbEntity
  8
_2-8_DRAIN他
  6
Continuous
 62
     7
100
AcDbLine
 10
1106.629282536563
 20
380.5482285803055
 30
0.0
 11
1106.743263777771
 21
380.3350218239369
 31
0.0
  0
LINE
  5
15F
330
22
100
AcDbEntity
  8
_2-8_DRAIN他
  6
Continuous
 62
     7
100
AcDbLine
 10
1106.743263777771
 20
380.3350218239369
 30
0.0
 11
1106.855378326135
 21
380.1207248244008
 31
0.0
  0
LINE
  5
160
330
22
100
AcDbEntity
  8
_2-8_DRAIN他
  6
Continuous
 62
     7
100
AcDbLine
 10
1106.855378326135
 20
380.1207248244008
 30
0.0
 11
1106.966394935382
 21
379.9055755633253
 31
0.0
  0
LINE
  5
161
330
22
100
AcDbEntity
  8
_2-8_DRAIN他
  6
Continuous
 62
     7
100
AcDbLine
 10
1106.966394935382
 20
379.9055755633253
 30
0.0
 11
1107.077082359241
 21
379.6898120223455
 31
0.0
  0
LINE
  5
162
330
22
100
AcDbEntity
  8
_2-8_DRAIN他
  6
Continuous
 62
     7
100
AcDbLine
 10
1107.077082359241
 20
379.6898120223455
 30
0.0
 11
1107.188209351439
 21
379.4736721830896
 31
0.0
  0
LINE
  5
163
330
22
100
AcDbEntity
  8
_2-8_DRAIN他
  6
Continuous
 62
     7
100
AcDbLine
 10
1107.188209351439
 20
379.4736721830896
 30
0.0
 11
1107.25316734607
 21
379.3482324335877
 31
0.0
  0
LINE
  5
164
330
22
100
AcDbEntity
  8
_2-8_DRAIN他
  6
Continuous
 62
     7
100
AcDbLine
 10
1107.25316734607
 20
379.3482324335877
 30
0.0
 11
1107.341580800245
 21
379.1794042505831
 31
0.0
  0
LINE
  5
165
330
22
100
AcDbEntity
  8
_2-8_DRAIN他
  6
Continuous
 62
     7
100
AcDbLine
 10
1107.341580800245
 20
379.1794042505831
 30
0.0
 11
1107.498085616174
 21
378.8900084846955
 31
0.0
  0
LINE
  5
166
330
22
100
AcDbEntity
  8
_2-8_DRAIN他
  6
Continuous
 62
     7
100
AcDbLine
 10
1107.498085616174
 20
378.8900084846955
 30
0.0
 11
1107.662307209403
 21
378.6053003084431
 31
0.0
  0
LINE
  5
167
330
22
100
AcDbEntity
  8
_2-8_DRAIN他
  6
Continuous
 62
     7
100
AcDbLine
 10
1107.662307209403
 20
378.6053003084431
 30
0.0
 11
1107.837231196787
 21
378.3282468804259
 31
0.0
  0
LINE
  5
168
330
22
100
AcDbEntity
  8
_2-8_DRAIN他
  6
Continuous
 62
     7
100
AcDbLine
 10
1107.837231196787
 20
378.3282468804259
 30
0.0
 11
1108.025843195188
 21
378.06181535924
 31
0.0
  0
LINE
  5
169
330
22
100
AcDbEntity
  8
_2-8_DRAIN他
  6
Continuous
 62
     7
100
AcDbLine
 10
1108.025843195188
 20
378.06181535924
 30
0.0
 11
1108.231128821463
 21
377.8089729034809
 31
0.0
  0
LINE
  5
16A
330
22
100
AcDbEntity
  8
_2-8_DRAIN他
  6
Continuous
 62
     7
100
AcDbLine
 10
1108.231128821463
 20
377.8089729034809
 30
0.0
 11
1108.359010829289
 21
377.6697200037006
 31
0.0
  0
LINE
  5
16B
330
22
100
AcDbEntity
  8
_2-8_DRAIN他
  6
Continuous
 62
     7
100
AcDbLine
 10
1108.359010829289
 20
377.6697200037006
 30
0.0
 11
1108.405226001594
 21
377.6226149977902
 31
0.0
  0
LINE
  5
16C
330
22
100
AcDbEntity
  8
_2-8_DRAIN他
  6
Continuous
 62
     7
100
AcDbLine
 10
1108.405226001594
 20
377.6226149977902
 30
0.0
 11
1108.486925263135
 21
377.5432699027557
 31
0.0
  0
LINE
  5
16D
330
22
100
AcDbEntity
  8
_2-8_DRAIN他
  6
Continuous
 62
     7
100
AcDbLine
 10
1108.486925263135
 20
377.5432699027557
 30
0.0
 11
1108.571127655465
 21
377.4664697933145
 31
0.0
  0
LINE
  5
16E
330
22
100
AcDbEntity
  8
_2-8_DRAIN他
  6
Continuous
 62
     7
100
AcDbLine
 10
1108.571127655465
 20
377.4664697933145
 30
0.0
 11
1108.65777363096
 21
377.3924208899871
 31
0.0
  0
LINE
  5
16F
330
22
100
AcDbEntity
  8
_2-8_DRAIN他
  6
Continuous
 62
     7
100
AcDbLine
 10
1108.65777363096
 20
377.3924208899871
 30
0.0
 11
1108.746803641996
 21
377.3213294132983
 31
0.0
  0
LINE
  5
170
330
22
100
AcDbEntity
  8
_2-8_DRAIN他
  6
Continuous
 62
     7
100
AcDbLine
 10
1108.746803641996
 20
377.3213294132983
 30
0.0
 11
1108.838158140948
 21
377.2534015837688
 31
0.0
  0
LINE
  5
171
330
22
100
AcDbEntity
  8
_2-8_DRAIN他
  6
Continuous
 62
     7
100
AcDbLine
 10
1108.838158140948
 20
377.2534015837688
 30
0.0
 11
1108.892185365842
 21
377.2155342873794
 31
0.0
  0
LINE
  5
172
330
22
100
AcDbEntity
  8
_2-8_DRAIN他
  6
Continuous
 62
     7
100
AcDbLine
 10
1108.892185365842
 20
377.2155342873794
 30
0.0
 11
1108.98178677693
 21
377.1562415969993
 31
0.0
  0
LINE
  5
173
330
22
100
AcDbEntity
  8
_2-8_DRAIN他
  6
Continuous
 62
     7
100
AcDbLine
 10
1108.98178677693
 20
377.1562415969993
 30
0.0
 11
1109.139978221101
 21
377.0598283328058
 31
0.0
  0
LINE
  5
174
330
22
100
AcDbEntity
  8
_2-8_DRAIN他
  6
Continuous
 62
     7
100
AcDbLine
 10
1109.139978221101
 20
377.0598283328058
 30
0.0
 11
1109.301389508134
 21
376.9684999237347
 31
0.0
  0
LINE
  5
175
330
22
100
AcDbEntity
  8
_2-8_DRAIN他
  6
Continuous
 62
     7
100
AcDbLine
 10
1109.301389508134
 20
376.9684999237347
 30
0.0
 11
1109.464309456426
 21
376.8796092152843
 31
0.0
  0
LINE
  5
176
330
22
100
AcDbEntity
  8
_2-8_DRAIN他
  6
Continuous
 62
     7
100
AcDbLine
 10
1109.464309456426
 20
376.8796092152843
 30
0.0
 11
1109.627026884379
 21
376.7905090529485
 31
0.0
  0
LINE
  5
177
330
22
100
AcDbEntity
  8
_2-8_DRAIN他
  6
Continuous
 62
     7
100
AcDbLine
 10
1109.627026884379
 20
376.7905090529485
 30
0.0
 11
1109.787830610392
 21
376.6985522822233
 31
0.0
  0
LINE
  5
178
330
22
100
AcDbEntity
  8
_2-8_DRAIN他
  6
Continuous
 62
     7
100
AcDbLine
 10
1109.787830610392
 20
376.6985522822233
 30
0.0
 11
1109.879545618717
 21
376.6428653407115
 31
0.0
  0
LINE
  5
179
330
22
100
AcDbEntity
  8
_2-8_DRAIN他
  6
Continuous
 62
     7
100
AcDbLine
 10
1109.879545618717
 20
376.6428653407115
 30
0.0
 11
1109.971956611116
 21
376.5835005708392
 31
0.0
  0
LINE
  5
17A
330
22
100
AcDbEntity
  8
_2-8_DRAIN他
  6
Continuous
 62
     7
100
AcDbLine
 10
1109.971956611116
 20
376.5835005708392
 30
0.0
 11
1110.12789961327
 21
376.4759988090714
 31
0.0
  0
LINE
  5
17B
330
22
100
AcDbEntity
  8
_2-8_DRAIN他
  6
Continuous
 62
     7
100
AcDbLine
 10
1110.12789961327
 20
376.4759988090714
 30
0.0
 11
1110.280222155492
 21
376.3630156191017
 31
0.0
  0
LINE
  5
17C
330
22
100
AcDbEntity
  8
_2-8_DRAIN他
  6
Continuous
 62
     7
100
AcDbLine
 10
1110.280222155492
 20
376.3630156191017
 30
0.0
 11
1110.429698644227
 21
376.2457555667061
 31
0.0
  0
LINE
  5
17D
330
22
100
AcDbEntity
  8
_2-8_DRAIN他
  6
Continuous
 62
     7
100
AcDbLine
 10
1110.429698644227
 20
376.2457555667061
 30
0.0
 11
1110.57710348592
 21
376.1254232176589
 31
0.0
  0
LINE
  5
17E
330
22
100
AcDbEntity
  8
_2-8_DRAIN他
  6
Continuous
 62
     7
100
AcDbLine
 10
1110.57710348592
 20
376.1254232176589
 30
0.0
 11
1110.723211087017
 21
376.0032231377341
 31
0.0
  0
LINE
  5
17F
330
22
100
AcDbEntity
  8
_2-8_DRAIN他
  6
Continuous
 62
     7
100
AcDbLine
 10
1110.723211087017
 20
376.0032231377341
 30
0.0
 11
1110.80766425642
 21
375.9319659586413
 31
0.0
  0
LINE
  5
180
330
22
100
AcDbEntity
  8
_2-8_DRAIN他
  6
Continuous
 62
     7
100
AcDbLine
 10
1110.80766425642
 20
375.9319659586413
 30
0.0
 11
1110.913506120038
 21
375.8424853747397
 31
0.0
  0
LINE
  5
181
330
22
100
AcDbEntity
  8
_2-8_DRAIN他
  6
Continuous
 62
     7
100
AcDbLine
 10
1110.913506120038
 20
375.8424853747397
 30
0.0
 11
1111.095078898347
 21
375.6874023209456
 31
0.0
  0
LINE
  5
182
330
22
100
AcDbEntity
  8
_2-8_DRAIN他
  6
Continuous
 62
     7
100
AcDbLine
 10
1111.095078898347
 20
375.6874023209456
 30
0.0
 11
1111.274253550973
 21
375.5300131527042
 31
0.0
  0
LINE
  5
183
330
22
100
AcDbEntity
  8
_2-8_DRAIN他
  6
Continuous
 62
     7
100
AcDbLine
 10
1111.274253550973
 20
375.5300131527042
 30
0.0
 11
1111.449585677197
 21
375.3688229547766
 31
0.0
  0
LINE
  5
184
330
22
100
AcDbEntity
  8
_2-8_DRAIN他
  6
Continuous
 62
     7
100
AcDbLine
 10
1111.449585677197
 20
375.3688229547766
 30
0.0
 11
1111.619630876307
 21
375.2023368119285
 31
0.0
  0
LINE
  5
185
330
22
100
AcDbEntity
  8
_2-8_DRAIN他
  6
Continuous
 62
     7
100
AcDbLine
 10
1111.619630876307
 20
375.2023368119285
 30
0.0
 11
1111.782944747585
 21
375.0290598089192
 31
0.0
  0
LINE
  5
186
330
22
100
AcDbEntity
  8
_2-8_DRAIN他
  6
Continuous
 62
     7
100
AcDbLine
 10
1111.782944747585
 20
375.0290598089192
 30
0.0
 11
1111.874013329525
 21
374.9248585007081
 31
0.0
  0
LINE
  5
187
330
22
100
AcDbEntity
  8
_2-8_DRAIN他
  6
Continuous
 62
     7
100
AcDbLine
 10
1111.874013329525
 20
374.9248585007081
 30
0.0
 11
1111.925672602161
 21
374.8627712251845
 31
0.0
  0
LINE
  5
188
330
22
100
AcDbEntity
  8
_2-8_DRAIN他
  6
Continuous
 62
     7
100
AcDbLine
 10
1111.925672602161
 20
374.8627712251845
 30
0.0
 11
1112.011997712467
 21
374.7532984853478
 31
0.0
  0
LINE
  5
189
330
22
100
AcDbEntity
  8
_2-8_DRAIN他
  6
Continuous
 62
     7
100
AcDbLine
 10
1112.011997712467
 20
374.7532984853478
 30
0.0
 11
1112.094357584599
 21
374.640797227587
 31
0.0
  0
LINE
  5
18A
330
22
100
AcDbEntity
  8
_2-8_DRAIN他
  6
Continuous
 62
     7
100
AcDbLine
 10
1112.094357584599
 20
374.640797227587
 30
0.0
 11
1112.172178275345
 21
374.5253162948757
 31
0.0
  0
LINE
  5
18B
330
22
100
AcDbEntity
  8
_2-8_DRAIN他
  6
Continuous
 62
     7
100
AcDbLine
 10
1112.172178275345
 20
374.5253162948757
 30
0.0
 11
1112.244885841489
 21
374.4069045301831
 31
0.0
  0
LINE
  5
18C
330
22
100
AcDbEntity
  8
_2-8_DRAIN他
  6
Continuous
 62
     7
100
AcDbLine
 10
1112.244885841489
 20
374.4069045301831
 30
0.0
 11
1112.311906339818
 21
374.2856107764806
 31
0.0
  0
LINE
  5
18D
330
22
100
AcDbEntity
  8
_2-8_DRAIN他
  6
Continuous
 62
     7
100
AcDbLine
 10
1112.311906339818
 20
374.2856107764806
 30
0.0
 11
1112.347946250904
 21
374.2139591186378
 31
0.0
  0
LINE
  5
18E
330
22
100
AcDbEntity
  8
_2-8_DRAIN他
  6
Continuous
 62
     7
100
AcDbLine
 10
1112.347946250904
 20
374.2139591186378
 30
0.0
 11
1112.394598104263
 21
374.1124832275887
 31
0.0
  0
LINE
  5
18F
330
22
100
AcDbEntity
  8
_2-8_DRAIN他
  6
Continuous
 62
     7
100
AcDbLine
 10
1112.394598104263
 20
374.1124832275887
 30
0.0
 11
1112.466084862614
 21
373.9337188485365
 31
0.0
  0
LINE
  5
190
330
22
100
AcDbEntity
  8
_2-8_DRAIN他
  6
Continuous
 62
     7
100
AcDbLine
 10
1112.466084862614
 20
373.9337188485365
 30
0.0
 11
1112.528036201237
 21
373.7508984303895
 31
0.0
  0
LINE
  5
191
330
22
100
AcDbEntity
  8
_2-8_DRAIN他
  6
Continuous
 62
     7
100
AcDbLine
 10
1112.528036201237
 20
373.7508984303895
 30
0.0
 11
1112.582534089505
 21
373.564907571199
 31
0.0
  0
LINE
  5
192
330
22
100
AcDbEntity
  8
_2-8_DRAIN他
  6
Continuous
 62
     7
100
AcDbLine
 10
1112.582534089505
 20
373.564907571199
 30
0.0
 11
1112.631660496793
 21
373.3766318690232
 31
0.0
  0
LINE
  5
193
330
22
100
AcDbEntity
  8
_2-8_DRAIN他
  6
Continuous
 62
     7
100
AcDbLine
 10
1112.631660496793
 20
373.3766318690232
 30
0.0
 11
1112.67749739247
 21
373.1869569219202
 31
0.0
  0
LINE
  5
194
330
22
100
AcDbEntity
  8
_2-8_DRAIN他
  6
Continuous
 62
     7
100
AcDbLine
 10
1112.67749739247
 20
373.1869569219202
 30
0.0
 11
1112.70339594194
 21
373.076653290259
 31
0.0
  0
LINE
  5
195
330
22
100
AcDbEntity
  8
_2-8_DRAIN他
  6
Continuous
 62
     7
100
AcDbLine
 10
991.3305200793264
 20
373.076653290259
 30
0.0
 11
991.3305200793264
 21
368.0766532902589
 31
0.0
  0
LINE
  5
196
330
22
100
AcDbEntity
  8
_2-8_DRAIN他
  6
Continuous
 62
     7
100
AcDbLine
 10
941.3305200793264
 20
373.076653290259
 30
0.0
 11
941.3305200793264
 21
368.0766532902589
 31
0.0
  0
LINE
  5
197
330
22
100
AcDbEntity
  8
_2-1_
  6
Continuous
 62
     4
100
AcDbLine
 10
970.3305200793263
 20
390.0766532902594
 30
0.0
 11
970.3305200793263
 21
531.1266532902573
 31
0.0
  0
LINE
  5
198
330
22
100
AcDbEntity
  8
_2-1_
  6
Continuous
 62
     4
100
AcDbLine
 10
946.3305200793262
 20
383.076653290259
 30
0.0
 11
966.3305200793264
 21
383.076653290259
 31
0.0
  0
LINE
  5
199
330
22
100
AcDbEntity
  8
_2-1_
  6
Continuous
 62
     4
100
AcDbLine
 10
949.1589472040734
 20
385.0766532902594
 30
0.0
 11
966.3305200793264
 21
385.0766532902594
 31
0.0
  0
ARC
  5
19A
330
22
100
AcDbEntity
  8
_2-3_
  6
Continuous
 62
     3
100
AcDbCircle
 10
946.3305200793262
 20
386.0766532902585
 30
0.0
 40
3.0
100
AcDbArc
 50
270.0
 51
0.0
  0
ARC
  5
19B
330
22
100
AcDbEntity
  8
_2-3_
  6
Continuous
 62
     3
100
AcDbCircle
 10
946.3305200793262
 20
386.0766532902585
 30
0.0
 40
1.0
100
AcDbArc
 50
270.0
 51
0.0
  0
LINE
  5
19C
330
22
100
AcDbEntity
  8
_2-3_
  6
Continuous
 62
     3
100
AcDbLine
 10
947.3305200793269
 20
386.0766532902585
 30
0.0
 11
947.3305200793269
 21
485.0766532902594
 31
0.0
  0
LINE
  5
19D
330
22
100
AcDbEntity
  8
_2-3_
  6
Continuous
 62
     3
100
AcDbLine
 10
949.3305200793273
 20
386.0766532902585
 30
0.0
 11
949.3305200793273
 21
485.0766532902594
 31
0.0
  0
LINE
  5
19E
330
22
100
AcDbEntity
  8
_2-3_
  6
Continuous
 62
     3
100
AcDbLine
 10
939.3305200793273
 20
391.3266532902594
 30
0.0
 11
914.3305200793273
 21
391.3266532902594
 31
0.0
  0
ARC
  5
19F
330
22
100
AcDbEntity
  8
_2-3_
  6
Continuous
 62
     3
100
AcDbCircle
 10
939.3305200793273
 20
393.3266532902576
 30
0.0
 40
2.0
100
AcDbArc
 50
270.0
 51
0.0
  0
LINE
  5
1A0
330
22
100
AcDbEntity
  8
_2-3_
  6
Continuous
 62
     3
100
AcDbLine
 10
939.3305200793273
 20
390.0766532902594
 30
0.0
 11
914.3968812602055
 21
390.0766532902594
 31
0.0
  0
ARC
  5
1A1
330
22
100
AcDbEntity
  8
_2-3_
  6
Continuous
 62
     3
100
AcDbCircle
 10
939.3305200793273
 20
393.2766532902588
 30
0.0
 40
3.2
100
AcDbArc
 50
270.0
 51
0.0
  0
LINE
  5
1A2
330
22
100
AcDbEntity
  8
_2-3_
  6
Continuous
 62
     3
100
AcDbLine
 10
868.3305200793268
 20
378.0766532902589
 30
0.0
 11
868.3305200793268
 21
379.2766532902578
 31
0.0
  0
LINE
  5
1A3
330
22
100
AcDbEntity
  8
_2-3_
  6
Continuous
 62
     3
100
AcDbLine
 10
880.4398950793295
 20
379.2766532902578
 30
0.0
 11
868.3305200793268
 21
379.2766532902578
 31
0.0
  0
LINE
  5
1A4
330
22
100
AcDbEntity
  8
_2-3_
  6
Continuous
 62
     3
100
AcDbLine
 10
914.3305200793273
 20
391.3266532902594
 30
0.0
 11
880.4398950793295
 21
379.2766532902578
 31
0.0
  0
LINE
  5
1A5
330
22
100
AcDbEntity
  8
_2-3_
  6
Continuous
 62
     3
100
AcDbLine
 10
880.6468812602078
 20
378.0766532902589
 30
0.0
 11
868.3305200793268
 21
378.0766532902589
 31
0.0
  0
LINE
  5
1A6
330
22
100
AcDbEntity
  8
_2-3_
  6
Continuous
 62
     3
100
AcDbLine
 10
914.3968812602055
 20
390.0766532902594
 30
0.0
 11
880.6468812602078
 21
378.0766532902589
 31
0.0
  0
LINE
  5
1A7
330
22
100
AcDbEntity
  8
_2-4_OUT_LINE
  6
Continuous
 62
     2
100
AcDbLine
 10
868.3305200793268
 20
378.0766532902589
 30
0.0
 11
830.7055200793277
 21
378.0766532902589
 31
0.0
  0
LINE
  5
1A8
330
22
100
AcDbEntity
  8
_2-8_DRAIN他
  6
Continuous
 62
     7
100
AcDbLine
 10
836.7026521462607
 20
378.0766532902589
 30
0.0
 11
836.6844333587373
 21
378.2075582369408
 31
0.0
  0
LINE
  5
1A9
330
22
100
AcDbEntity
  8
_2-8_DRAIN他
  6
Continuous
 62
     7
100
AcDbLine
 10
836.6844333587373
 20
378.2075582369408
 30
0.0
 11
836.6513665790765
 21
378.4326321719595
 31
0.0
  0
LINE
  5
1AA
330
22
100
AcDbEntity
  8
_2-8_DRAIN他
  6
Continuous
 62
     7
100
AcDbLine
 10
836.6513665790765
 20
378.4326321719595
 30
0.0
 11
836.61370236321
 21
378.6559720822174
 31
0.0
  0
LINE
  5
1AB
330
22
100
AcDbEntity
  8
_2-8_DRAIN他
  6
Continuous
 62
     7
100
AcDbLine
 10
836.61370236321
 20
378.6559720822174
 30
0.0
 11
836.5685309413871
 21
378.8764804836888
 31
0.0
  0
LINE
  5
1AC
330
22
100
AcDbEntity
  8
_2-8_DRAIN他
  6
Continuous
 62
     7
100
AcDbLine
 10
836.5685309413871
 20
378.8764804836888
 30
0.0
 11
836.5129425438558
 21
379.0930598923456
 31
0.0
  0
LINE
  5
1AD
330
22
100
AcDbEntity
  8
_2-8_DRAIN他
  6
Continuous
 62
     7
100
AcDbLine
 10
836.5129425438558
 20
379.0930598923456
 30
0.0
 11
836.4440274008668
 21
379.3046128241645
 31
0.0
  0
LINE
  5
1AE
330
22
100
AcDbEntity
  8
_2-8_DRAIN他
  6
Continuous
 62
     7
100
AcDbLine
 10
836.4440274008668
 20
379.3046128241645
 30
0.0
 11
836.3968037025747
 21
379.4245779271569
 31
0.0
  0
LINE
  5
1AF
330
22
100
AcDbEntity
  8
_2-8_DRAIN他
  6
Continuous
 62
     7
100
AcDbLine
 10
836.3968037025747
 20
379.4245779271569
 30
0.0
 11
836.3558626413112
 21
379.5166947667485
 31
0.0
  0
LINE
  5
1B0
330
22
100
AcDbEntity
  8
_2-8_DRAIN他
  6
Continuous
 62
     7
100
AcDbLine
 10
836.3558626413112
 20
379.5166947667485
 30
0.0
 11
836.2774474686286
 21
379.6724090697603
 31
0.0
  0
LINE
  5
1B1
330
22
100
AcDbEntity
  8
_2-8_DRAIN他
  6
Continuous
 62
     7
100
AcDbLine
 10
836.2774474686286
 20
379.6724090697603
 30
0.0
 11
836.1903404543024
 21
379.8244126726422
 31
0.0
  0
LINE
  5
1B2
330
22
100
AcDbEntity
  8
_2-8_DRAIN他
  6
Continuous
 62
     7
100
AcDbLine
 10
836.1903404543024
 20
379.8244126726422
 30
0.0
 11
836.0959554651538
 21
379.9729651884423
 31
0.0
  0
LINE
  5
1B3
330
22
100
AcDbEntity
  8
_2-8_DRAIN他
  6
Continuous
 62
     7
100
AcDbLine
 10
836.0959554651538
 20
379.9729651884423
 30
0.0
 11
835.99570636801
 21
380.1183262302128
 31
0.0
  0
LINE
  5
1B4
330
22
100
AcDbEntity
  8
_2-8_DRAIN他
  6
Continuous
 62
     7
100
AcDbLine
 10
835.99570636801
 20
380.1183262302128
 30
0.0
 11
835.891007029693
 21
380.2607554110091
 31
0.0
  0
LINE
  5
1B5
330
22
100
AcDbEntity
  8
_2-8_DRAIN他
  6
Continuous
 62
     7
100
AcDbLine
 10
835.891007029693
 20
380.2607554110091
 30
0.0
 11
835.8287994500143
 21
380.3421232582151
 31
0.0
  0
LINE
  5
1B6
330
22
100
AcDbEntity
  8
_2-8_DRAIN他
  6
Continuous
 62
     7
100
AcDbLine
 10
835.8287994500143
 20
380.3421232582151
 30
0.0
 11
835.7545831760788
 21
380.4368068510166
 31
0.0
  0
LINE
  5
1B7
330
22
100
AcDbEntity
  8
_2-8_DRAIN他
  6
Continuous
 62
     7
100
AcDbLine
 10
835.7545831760788
 20
380.4368068510166
 30
0.0
 11
835.6243582359754
 21
380.5975256448778
 31
0.0
  0
LINE
  5
1B8
330
22
100
AcDbEntity
  8
_2-8_DRAIN他
  6
Continuous
 62
     7
100
AcDbLine
 10
835.6243582359754
 20
380.5975256448778
 30
0.0
 11
835.4915064167542
 21
380.7553924072703
 31
0.0
  0
LINE
  5
1B9
330
22
100
AcDbEntity
  8
_2-8_DRAIN他
  6
Continuous
 62
     7
100
AcDbLine
 10
835.4915064167542
 20
380.7553924072703
 30
0.0
 11
835.3563082786266
 21
380.9108129007359
 31
0.0
  0
LINE
  5
1BA
330
22
100
AcDbEntity
  8
_2-8_DRAIN他
  6
Continuous
 62
     7
100
AcDbLine
 10
835.3563082786266
 20
380.9108129007359
 30
0.0
 11
835.2190443818033
 21
381.0641928878226
 31
0.0
  0
LINE
  5
1BB
330
22
100
AcDbEntity
  8
_2-8_DRAIN他
  6
Continuous
 62
     7
100
AcDbLine
 10
835.2190443818033
 20
381.0641928878226
 30
0.0
 11
835.0799952864942
 21
381.2159381310788
 31
0.0
  0
LINE
  5
1BC
330
22
100
AcDbEntity
  8
_2-8_DRAIN他
  6
Continuous
 62
     7
100
AcDbLine
 10
835.0799952864942
 20
381.2159381310788
 30
0.0
 11
834.9986393885822
 21
381.3033612240838
 31
0.0
  0
LINE
  5
1BD
330
22
100
AcDbEntity
  8
_2-8_DRAIN他
  6
Continuous
 62
     7
100
AcDbLine
 10
834.9986393885822
 20
381.3033612240838
 30
0.0
 11
834.9130043151674
 21
381.3944313984826
 31
0.0
  0
LINE
  5
1BE
330
22
100
AcDbEntity
  8
_2-8_DRAIN他
  6
Continuous
 62
     7
100
AcDbLine
 10
834.9130043151674
 20
381.3944313984826
 30
0.0
 11
834.7638069568599
 21
381.5501331473161
 31
0.0
  0
LINE
  5
1BF
330
22
100
AcDbEntity
  8
_2-8_DRAIN他
  6
Continuous
 62
     7
100
AcDbLine
 10
834.7638069568599
 20
381.5501331473161
 30
0.0
 11
834.6120567432901
 21
381.7034791257152
 31
0.0
  0
LINE
  5
1C0
330
22
100
AcDbEntity
  8
_2-8_DRAIN他
  6
Continuous
 62
     7
100
AcDbLine
 10
834.6120567432901
 20
381.7034791257152
 30
0.0
 11
834.4570676637864
 21
381.8536667646368
 31
0.0
  0
LINE
  5
1C1
330
22
100
AcDbEntity
  8
_2-8_DRAIN他
  6
Continuous
 62
     7
100
AcDbLine
 10
834.4570676637864
 20
381.8536667646368
 30
0.0
 11
834.29815370768
 21
381.9998934950331
 31
0.0
  0
LINE
  5
1C2
330
22
100
AcDbEntity
  8
_2-8_DRAIN他
  6
Continuous
 62
     7
100
AcDbLine
 10
834.29815370768
 20
381.9998934950331
 30
0.0
 11
834.1346288642993
 21
382.1413567478611
 31
0.0
  0
LINE
  5
1C3
330
22
100
AcDbEntity
  8
_2-8_DRAIN他
  6
Continuous
 62
     7
100
AcDbLine
 10
834.1346288642993
 20
382.1413567478611
 30
0.0
 11
834.0374014227121
 21
382.2209065551419
 31
0.0
  0
LINE
  5
1C4
330
22
100
AcDbEntity
  8
_2-8_DRAIN他
  6
Continuous
 62
     7
100
AcDbLine
 10
834.0374014227121
 20
382.2209065551419
 30
0.0
 11
833.9497477231692
 21
382.2896319076381
 31
0.0
  0
LINE
  5
1C5
330
22
100
AcDbEntity
  8
_2-8_DRAIN他
  6
Continuous
 62
     7
100
AcDbLine
 10
833.9497477231692
 20
382.2896319076381
 30
0.0
 11
833.795134623249
 21
382.4038446754388
 31
0.0
  0
LINE
  5
1C6
330
22
100
AcDbEntity
  8
_2-8_DRAIN他
  6
Continuous
 62
     7
100
AcDbLine
 10
833.795134623249
 20
382.4038446754388
 30
0.0
 11
833.6361694800599
 21
382.5118173643705
 31
0.0
  0
LINE
  5
1C7
330
22
100
AcDbEntity
  8
_2-8_DRAIN他
  6
Continuous
 62
     7
100
AcDbLine
 10
833.6361694800599
 20
382.5118173643705
 30
0.0
 11
833.4729228228335
 21
382.6125925957968
 31
0.0
  0
LINE
  5
1C8
330
22
100
AcDbEntity
  8
_2-8_DRAIN他
  6
Continuous
 62
     7
100
AcDbLine
 10
833.4729228228335
 20
382.6125925957968
 30
0.0
 11
833.3054651808019
 21
382.7052129910817
 31
0.0
  0
LINE
  5
1C9
330
22
100
AcDbEntity
  8
_2-8_DRAIN他
  6
Continuous
 62
     7
100
AcDbLine
 10
833.3054651808019
 20
382.7052129910817
 30
0.0
 11
833.1338670831977
 21
382.7887211715938
 31
0.0
  0
LINE
  5
1CA
330
22
100
AcDbEntity
  8
_2-8_DRAIN他
  6
Continuous
 62
     7
100
AcDbLine
 10
833.1338670831977
 20
382.7887211715938
 30
0.0
 11
833.0324708220295
 21
382.832603442514
 31
0.0
  0
LINE
  5
1CB
330
22
100
AcDbEntity
  8
_2-8_DRAIN他
  6
Continuous
 62
     7
100
AcDbLine
 10
833.0324708220295
 20
382.832603442514
 30
0.0
 11
832.9185653292908
 21
382.8771321557769
 31
0.0
  0
LINE
  5
1CC
330
22
100
AcDbEntity
  8
_2-8_DRAIN他
  6
Continuous
 62
     7
100
AcDbLine
 10
832.9185653292908
 20
382.8771321557769
 30
0.0
 11
832.7186768714355
 21
382.9444427841917
 31
0.0
  0
LINE
  5
1CD
330
22
100
AcDbEntity
  8
_2-8_DRAIN他
  6
Continuous
 62
     7
100
AcDbLine
 10
832.7186768714355
 20
382.9444427841917
 30
0.0
 11
832.5149747725777
 21
383.0010463356894
 31
0.0
  0
LINE
  5
1CE
330
22
100
AcDbEntity
  8
_2-8_DRAIN他
  6
Continuous
 62
     7
100
AcDbLine
 10
832.5149747725777
 20
383.0010463356894
 30
0.0
 11
832.3081756957687
 21
383.0484212094212
 31
0.0
  0
LINE
  5
1CF
330
22
100
AcDbEntity
  8
_2-8_DRAIN他
  6
Continuous
 62
     7
100
AcDbLine
 10
832.3081756957687
 20
383.0484212094212
 30
0.0
 11
832.0989963040599
 21
383.0880458045294
 31
0.0
  0
LINE
  5
1D0
330
22
100
AcDbEntity
  8
_2-8_DRAIN他
  6
Continuous
 62
     7
100
AcDbLine
 10
832.0989963040599
 20
383.0880458045294
 30
0.0
 11
831.8881532605043
 21
383.1213985201657
 31
0.0
  0
LINE
  5
1D1
330
22
100
AcDbEntity
  8
_2-8_DRAIN他
  6
Continuous
 62
     7
100
AcDbLine
 10
831.8881532605043
 20
383.1213985201657
 30
0.0
 11
831.7653844124734
 21
383.1384518862
 31
0.0
  0
LINE
  5
1D2
330
22
100
AcDbEntity
  8
_2-8_DRAIN他
  6
Continuous
 62
     7
100
AcDbLine
 10
831.7653844124734
 20
383.1384518862
 30
0.0
 11
831.6169274423911
 21
383.1571688854661
 31
0.0
  0
LINE
  5
1D3
330
22
100
AcDbEntity
  8
_2-8_DRAIN他
  6
Continuous
 62
     7
100
AcDbLine
 10
831.6169274423911
 20
383.1571688854661
 30
0.0
 11
831.3606071771054
 21
383.1840756465568
 31
0.0
  0
LINE
  5
1D4
330
22
100
AcDbEntity
  8
_2-8_DRAIN他
  6
Continuous
 62
     7
100
AcDbLine
 10
831.3606071771054
 20
383.1840756465568
 30
0.0
 11
831.104211848525
 21
383.202933893856
 31
0.0
  0
LINE
  5
1D5
330
22
100
AcDbEntity
  8
_2-8_DRAIN他
  6
Continuous
 62
     7
100
AcDbLine
 10
831.104211848525
 20
383.202933893856
 30
0.0
 11
830.8481840118941
 21
383.2122799850413
 31
0.0
  0
LINE
  5
1D6
330
22
100
AcDbEntity
  8
_2-8_DRAIN他
  6
Continuous
 62
     7
100
AcDbLine
 10
830.8481840118941
 20
383.2122799850413
 30
0.0
 11
830.5929662224595
 21
383.2106502777946
 31
0.0
  0
LINE
  5
1D7
330
22
100
AcDbEntity
  8
_2-8_DRAIN他
  6
Continuous
 62
     7
100
AcDbLine
 10
830.5929662224595
 20
383.2106502777946
 30
0.0
 11
830.3390010354679
 21
383.1965811297914
 31
0.0
  0
LINE
  5
1D8
330
22
100
AcDbEntity
  8
_2-8_DRAIN他
  6
Continuous
 62
     7
100
AcDbLine
 10
830.3390010354679
 20
383.1965811297914
 30
0.0
 11
830.1924495592325
 21
383.182144521013
 31
0.0
  0
LINE
  5
1D9
330
22
100
AcDbEntity
  8
_2-8_DRAIN他
  6
Continuous
 62
     7
100
AcDbLine
 10
830.1924495592325
 20
383.182144521013
 30
0.0
 11
830.085105367665
 21
383.1684547349277
 31
0.0
  0
LINE
  5
1DA
330
22
100
AcDbEntity
  8
_2-8_DRAIN他
  6
Continuous
 62
     7
100
AcDbLine
 10
830.085105367665
 20
383.1684547349277
 30
0.0
 11
829.9006553068968
 21
383.1394951036849
 31
0.0
  0
LINE
  5
1DB
330
22
100
AcDbEntity
  8
_2-8_DRAIN他
  6
Continuous
 62
     7
100
AcDbLine
 10
829.9006553068968
 20
383.1394951036849
 30
0.0
 11
829.7166844494554
 21
383.1051796221482
 31
0.0
  0
LINE
  5
1DC
330
22
100
AcDbEntity
  8
_2-8_DRAIN他
  6
Continuous
 62
     7
100
AcDbLine
 10
829.7166844494554
 20
383.1051796221482
 30
0.0
 11
829.5328284135976
 21
383.0671647961208
 31
0.0
  0
LINE
  5
1DD
330
22
100
AcDbEntity
  8
_2-8_DRAIN他
  6
Continuous
 62
     7
100
AcDbLine
 10
829.5328284135976
 20
383.0671647961208
 30
0.0
 11
829.3487228175777
 21
383.0271071314132
 31
0.0
  0
LINE
  5
1DE
330
22
100
AcDbEntity
  8
_2-8_DRAIN他
  6
Continuous
 62
     7
100
AcDbLine
 10
829.3487228175777
 20
383.0271071314132
 30
0.0
 11
829.164003279649
 21
382.9866631338382
 31
0.0
  0
LINE
  5
1DF
330
22
100
AcDbEntity
  8
_2-8_DRAIN他
  6
Continuous
 62
     7
100
AcDbLine
 10
829.164003279649
 20
382.9866631338382
 30
0.0
 11
829.0564410541129
 21
382.9636813469505
 31
0.0
  0
LINE
  5
1E0
330
22
100
AcDbEntity
  8
_2-8_DRAIN他
  6
Continuous
 62
     7
100
AcDbLine
 10
829.0564410541129
 20
382.9636813469505
 30
0.0
 11
828.9343298227844
 21
382.938407625452
 31
0.0
  0
LINE
  5
1E1
330
22
100
AcDbEntity
  8
_2-8_DRAIN他
  6
Continuous
 62
     7
100
AcDbLine
 10
828.9343298227844
 20
382.938407625452
 30
0.0
 11
828.7235317992214
 21
382.8950581092182
 31
0.0
  0
LINE
  5
1E2
330
22
100
AcDbEntity
  8
_2-8_DRAIN他
  6
Continuous
 62
     7
100
AcDbLine
 10
828.7235317992214
 20
382.8950581092182
 30
0.0
 11
828.5138265753836
 21
382.8489249510698
 31
0.0
  0
LINE
  5
1E3
330
22
100
AcDbEntity
  8
_2-8_DRAIN他
  6
Continuous
 62
     7
100
AcDbLine
 10
828.5138265753836
 20
382.8489249510698
 30
0.0
 11
828.3068696261162
 21
382.7964389093655
 31
0.0
  0
LINE
  5
1E4
330
22
100
AcDbEntity
  8
_2-8_DRAIN他
  6
Continuous
 62
     7
100
AcDbLine
 10
828.3068696261162
 20
382.7964389093655
 30
0.0
 11
828.1043164262611
 21
382.7340307424673
 31
0.0
  0
LINE
  5
1E5
330
22
100
AcDbEntity
  8
_2-8_DRAIN他
  6
Continuous
 62
     7
100
AcDbLine
 10
828.1043164262611
 20
382.7340307424673
 30
0.0
 11
827.9078224506623
 21
382.6581312087319
 31
0.0
  0
LINE
  5
1E6
330
22
100
AcDbEntity
  8
_2-8_DRAIN他
  6
Continuous
 62
     7
100
AcDbLine
 10
827.9078224506623
 20
382.6581312087319
 30
0.0
 11
827.7972846245418
 21
382.606521268076
 31
0.0
  0
LINE
  5
1E7
330
22
100
AcDbEntity
  8
_2-8_DRAIN他
  6
Continuous
 62
     7
100
AcDbLine
 10
827.7972846245418
 20
382.606521268076
 30
0.0
 11
827.6979623933621
 21
382.5534357961533
 31
0.0
  0
LINE
  5
1E8
330
22
100
AcDbEntity
  8
_2-8_DRAIN他
  6
Continuous
 62
     7
100
AcDbLine
 10
827.6979623933621
 20
382.5534357961533
 30
0.0
 11
827.5325384781719
 21
382.4501495150548
 31
0.0
  0
LINE
  5
1E9
330
22
100
AcDbEntity
  8
_2-8_DRAIN他
  6
Continuous
 62
     7
100
AcDbLine
 10
827.5325384781719
 20
382.4501495150548
 30
0.0
 11
827.3744869068131
 21
382.3335998833226
 31
0.0
  0
LINE
  5
1EA
330
22
100
AcDbEntity
  8
_2-8_DRAIN他
  6
Continuous
 62
     7
100
AcDbLine
 10
827.3744869068131
 20
382.3335998833226
 30
0.0
 11
827.2238118603949
 21
382.2056732100077
 31
0.0
  0
LINE
  5
1EB
330
22
100
AcDbEntity
  8
_2-8_DRAIN他
  6
Continuous
 62
     7
100
AcDbLine
 10
827.2238118603949
 20
382.2056732100077
 30
0.0
 11
827.0805175200294
 21
382.0682558041609
 31
0.0
  0
LINE
  5
1EC
330
22
100
AcDbEntity
  8
_2-8_DRAIN他
  6
Continuous
 62
     7
100
AcDbLine
 10
827.0805175200294
 20
382.0682558041609
 30
0.0
 11
826.9446080668252
 21
381.9232339748305
 31
0.0
  0
LINE
  5
1ED
330
22
100
AcDbEntity
  8
_2-8_DRAIN他
  6
Continuous
 62
     7
100
AcDbLine
 10
826.9446080668252
 20
381.9232339748305
 30
0.0
 11
826.8691659868386
 21
381.8363802708336
 31
0.0
  0
LINE
  5
1EE
330
22
100
AcDbEntity
  8
_2-8_DRAIN他
  6
Continuous
 62
     7
100
AcDbLine
 10
826.8691659868386
 20
381.8363802708336
 30
0.0
 11
826.7848709624674
 21
381.7338128828419
 31
0.0
  0
LINE
  5
1EF
330
22
100
AcDbEntity
  8
_2-8_DRAIN他
  6
Continuous
 62
     7
100
AcDbLine
 10
826.7848709624674
 20
381.7338128828419
 30
0.0
 11
826.6466991031999
 21
381.5525278731071
 31
0.0
  0
LINE
  5
1F0
330
22
100
AcDbEntity
  8
_2-8_DRAIN他
  6
Continuous
 62
     7
100
AcDbLine
 10
826.6466991031999
 20
381.5525278731071
 30
0.0
 11
826.5165888361799
 21
381.3663031984857
 31
0.0
  0
LINE
  5
1F1
330
22
100
AcDbEntity
  8
_2-8_DRAIN他
  6
Continuous
 62
     7
100
AcDbLine
 10
826.5165888361799
 20
381.3663031984857
 30
0.0
 11
826.3933689341936
 21
381.1759371373955
 31
0.0
  0
LINE
  5
1F2
330
22
100
AcDbEntity
  8
_2-8_DRAIN他
  6
Continuous
 62
     7
100
AcDbLine
 10
826.3933689341936
 20
381.1759371373955
 30
0.0
 11
826.2758681700244
 21
380.982227968252
 31
0.0
  0
LINE
  5
1F3
330
22
100
AcDbEntity
  8
_2-8_DRAIN他
  6
Continuous
 62
     7
100
AcDbLine
 10
826.2758681700244
 20
380.982227968252
 30
0.0
 11
826.1629153164554
 21
380.7859739694709
 31
0.0
  0
LINE
  5
1F4
330
22
100
AcDbEntity
  8
_2-8_DRAIN他
  6
Continuous
 62
     7
100
AcDbLine
 10
826.1629153164554
 20
380.7859739694709
 30
0.0
 11
826.0990249895966
 21
380.6712951724421
 31
0.0
  0
LINE
  5
1F5
330
22
100
AcDbEntity
  8
_2-8_DRAIN他
  6
Continuous
 62
     7
100
AcDbLine
 10
826.0990249895966
 20
380.6712951724421
 30
0.0
 11
826.0317576220895
 21
380.5482285803055
 31
0.0
  0
LINE
  5
1F6
330
22
100
AcDbEntity
  8
_2-8_DRAIN他
  6
Continuous
 62
     7
100
AcDbLine
 10
826.0317576220895
 20
380.5482285803055
 30
0.0
 11
825.9177763808818
 21
380.3350218239369
 31
0.0
  0
LINE
  5
1F7
330
22
100
AcDbEntity
  8
_2-8_DRAIN他
  6
Continuous
 62
     7
100
AcDbLine
 10
825.9177763808818
 20
380.3350218239369
 30
0.0
 11
825.8056618325181
 21
380.1207248244008
 31
0.0
  0
LINE
  5
1F8
330
22
100
AcDbEntity
  8
_2-8_DRAIN他
  6
Continuous
 62
     7
100
AcDbLine
 10
825.8056618325181
 20
380.1207248244008
 30
0.0
 11
825.6946452232707
 21
379.9055755633253
 31
0.0
  0
LINE
  5
1F9
330
22
100
AcDbEntity
  8
_2-8_DRAIN他
  6
Continuous
 62
     7
100
AcDbLine
 10
825.6946452232707
 20
379.9055755633253
 30
0.0
 11
825.583957799412
 21
379.6898120223455
 31
0.0
  0
LINE
  5
1FA
330
22
100
AcDbEntity
  8
_2-8_DRAIN他
  6
Continuous
 62
     7
100
AcDbLine
 10
825.583957799412
 20
379.6898120223455
 30
0.0
 11
825.4728308072142
 21
379.4736721830896
 31
0.0
  0
LINE
  5
1FB
330
22
100
AcDbEntity
  8
_2-8_DRAIN他
  6
Continuous
 62
     7
100
AcDbLine
 10
825.4728308072142
 20
379.4736721830896
 30
0.0
 11
825.4078728125833
 21
379.3482324335877
 31
0.0
  0
LINE
  5
1FC
330
22
100
AcDbEntity
  8
_2-8_DRAIN他
  6
Continuous
 62
     7
100
AcDbLine
 10
825.4078728125833
 20
379.3482324335877
 30
0.0
 11
825.319459358408
 21
379.1794042505831
 31
0.0
  0
LINE
  5
1FD
330
22
100
AcDbEntity
  8
_2-8_DRAIN他
  6
Continuous
 62
     7
100
AcDbLine
 10
825.319459358408
 20
379.1794042505831
 30
0.0
 11
825.1629545424783
 21
378.8900084846955
 31
0.0
  0
LINE
  5
1FE
330
22
100
AcDbEntity
  8
_2-8_DRAIN他
  6
Continuous
 62
     7
100
AcDbLine
 10
825.1629545424783
 20
378.8900084846955
 30
0.0
 11
824.9987329492501
 21
378.6053003084431
 31
0.0
  0
LINE
  5
1FF
330
22
100
AcDbEntity
  8
_2-8_DRAIN他
  6
Continuous
 62
     7
100
AcDbLine
 10
824.9987329492501
 20
378.6053003084431
 30
0.0
 11
824.8238089618659
 21
378.3282468804259
 31
0.0
  0
LINE
  5
200
330
22
100
AcDbEntity
  8
_2-8_DRAIN他
  6
Continuous
 62
     7
100
AcDbLine
 10
824.8238089618659
 20
378.3282468804259
 30
0.0
 11
824.6351969634647
 21
378.06181535924
 31
0.0
  0
LINE
  5
201
330
22
100
AcDbEntity
  8
_2-8_DRAIN他
  6
Continuous
 62
     7
100
AcDbLine
 10
824.6351969634647
 20
378.06181535924
 30
0.0
 11
824.4299113371894
 21
377.8089729034809
 31
0.0
  0
LINE
  5
202
330
22
100
AcDbEntity
  8
_2-8_DRAIN他
  6
Continuous
 62
     7
100
AcDbLine
 10
824.4299113371894
 20
377.8089729034809
 30
0.0
 11
824.3020293293639
 21
377.6697200037006
 31
0.0
  0
LINE
  5
203
330
22
100
AcDbEntity
  8
_2-8_DRAIN他
  6
Continuous
 62
     7
100
AcDbLine
 10
824.3020293293639
 20
377.6697200037006
 30
0.0
 11
824.255814157059
 21
377.6226149977902
 31
0.0
  0
LINE
  5
204
330
22
100
AcDbEntity
  8
_2-8_DRAIN他
  6
Continuous
 62
     7
100
AcDbLine
 10
824.255814157059
 20
377.6226149977902
 30
0.0
 11
824.1741148955181
 21
377.5432699027557
 31
0.0
  0
LINE
  5
205
330
22
100
AcDbEntity
  8
_2-8_DRAIN他
  6
Continuous
 62
     7
100
AcDbLine
 10
824.1741148955181
 20
377.5432699027557
 30
0.0
 11
824.0899125031878
 21
377.4664697933145
 31
0.0
  0
LINE
  5
206
330
22
100
AcDbEntity
  8
_2-8_DRAIN他
  6
Continuous
 62
     7
100
AcDbLine
 10
824.0899125031878
 20
377.4664697933145
 30
0.0
 11
824.0032665276931
 21
377.3924208899871
 31
0.0
  0
LINE
  5
207
330
22
100
AcDbEntity
  8
_2-8_DRAIN他
  6
Continuous
 62
     7
100
AcDbLine
 10
824.0032665276931
 20
377.3924208899871
 30
0.0
 11
823.9142365166575
 21
377.3213294132983
 31
0.0
  0
LINE
  5
208
330
22
100
AcDbEntity
  8
_2-8_DRAIN他
  6
Continuous
 62
     7
100
AcDbLine
 10
823.9142365166575
 20
377.3213294132983
 30
0.0
 11
823.8228820177052
 21
377.2534015837688
 31
0.0
  0
LINE
  5
209
330
22
100
AcDbEntity
  8
_2-8_DRAIN他
  6
Continuous
 62
     7
100
AcDbLine
 10
823.8228820177052
 20
377.2534015837688
 30
0.0
 11
823.7688547928112
 21
377.2155342873794
 31
0.0
  0
LINE
  5
20A
330
22
100
AcDbEntity
  8
_2-8_DRAIN他
  6
Continuous
 62
     7
100
AcDbLine
 10
823.7688547928112
 20
377.2155342873794
 30
0.0
 11
823.6792533817233
 21
377.1562415969993
 31
0.0
  0
LINE
  5
20B
330
22
100
AcDbEntity
  8
_2-8_DRAIN他
  6
Continuous
 62
     7
100
AcDbLine
 10
823.6792533817233
 20
377.1562415969993
 30
0.0
 11
823.5210619375518
 21
377.0598283328058
 31
0.0
  0
LINE
  5
20C
330
22
100
AcDbEntity
  8
_2-8_DRAIN他
  6
Continuous
 62
     7
100
AcDbLine
 10
823.5210619375518
 20
377.0598283328058
 30
0.0
 11
823.3596506505195
 21
376.9684999237347
 31
0.0
  0
LINE
  5
20D
330
22
100
AcDbEntity
  8
_2-8_DRAIN他
  6
Continuous
 62
     7
100
AcDbLine
 10
823.3596506505195
 20
376.9684999237347
 30
0.0
 11
823.1967307022264
 21
376.8796092152843
 31
0.0
  0
LINE
  5
20E
330
22
100
AcDbEntity
  8
_2-8_DRAIN他
  6
Continuous
 62
     7
100
AcDbLine
 10
823.1967307022264
 20
376.8796092152843
 30
0.0
 11
823.0340132742732
 21
376.7905090529485
 31
0.0
  0
LINE
  5
20F
330
22
100
AcDbEntity
  8
_2-8_DRAIN他
  6
Continuous
 62
     7
100
AcDbLine
 10
823.0340132742732
 20
376.7905090529485
 30
0.0
 11
822.8732095482611
 21
376.6985522822233
 31
0.0
  0
LINE
  5
210
330
22
100
AcDbEntity
  8
_2-8_DRAIN他
  6
Continuous
 62
     7
100
AcDbLine
 10
822.8732095482611
 20
376.6985522822233
 30
0.0
 11
822.781494539936
 21
376.6428653407115
 31
0.0
  0
LINE
  5
211
330
22
100
AcDbEntity
  8
_2-8_DRAIN他
  6
Continuous
 62
     7
100
AcDbLine
 10
822.781494539936
 20
376.6428653407115
 30
0.0
 11
822.6890835475366
 21
376.5835005708392
 31
0.0
  0
LINE
  5
212
330
22
100
AcDbEntity
  8
_2-8_DRAIN他
  6
Continuous
 62
     7
100
AcDbLine
 10
822.6890835475366
 20
376.5835005708392
 30
0.0
 11
822.5331405453827
 21
376.4759988090714
 31
0.0
  0
LINE
  5
213
330
22
100
AcDbEntity
  8
_2-8_DRAIN他
  6
Continuous
 62
     7
100
AcDbLine
 10
822.5331405453827
 20
376.4759988090714
 30
0.0
 11
822.380818003161
 21
376.3630156191017
 31
0.0
  0
LINE
  5
214
330
22
100
AcDbEntity
  8
_2-8_DRAIN他
  6
Continuous
 62
     7
100
AcDbLine
 10
822.380818003161
 20
376.3630156191017
 30
0.0
 11
822.2313415144256
 21
376.2457555667061
 31
0.0
  0
LINE
  5
215
330
22
100
AcDbEntity
  8
_2-8_DRAIN他
  6
Continuous
 62
     7
100
AcDbLine
 10
822.2313415144256
 20
376.2457555667061
 30
0.0
 11
822.083936672733
 21
376.1254232176589
 31
0.0
  0
LINE
  5
216
330
22
100
AcDbEntity
  8
_2-8_DRAIN他
  6
Continuous
 62
     7
100
AcDbLine
 10
822.083936672733
 20
376.1254232176589
 30
0.0
 11
821.9378290716363
 21
376.0032231377341
 31
0.0
  0
LINE
  5
217
330
22
100
AcDbEntity
  8
_2-8_DRAIN他
  6
Continuous
 62
     7
100
AcDbLine
 10
821.9378290716363
 20
376.0032231377341
 30
0.0
 11
821.8533759022333
 21
375.9319659586413
 31
0.0
  0
LINE
  5
218
330
22
100
AcDbEntity
  8
_2-8_DRAIN他
  6
Continuous
 62
     7
100
AcDbLine
 10
821.8533759022333
 20
375.9319659586413
 30
0.0
 11
821.7475340386148
 21
375.8424853747397
 31
0.0
  0
LINE
  5
219
330
22
100
AcDbEntity
  8
_2-8_DRAIN他
  6
Continuous
 62
     7
100
AcDbLine
 10
821.7475340386148
 20
375.8424853747397
 30
0.0
 11
821.5659612603056
 21
375.6874023209456
 31
0.0
  0
LINE
  5
21A
330
22
100
AcDbEntity
  8
_2-8_DRAIN他
  6
Continuous
 62
     7
100
AcDbLine
 10
821.5659612603056
 20
375.6874023209456
 30
0.0
 11
821.3867866076796
 21
375.5300131527042
 31
0.0
  0
LINE
  5
21B
330
22
100
AcDbEntity
  8
_2-8_DRAIN他
  6
Continuous
 62
     7
100
AcDbLine
 10
821.3867866076796
 20
375.5300131527042
 30
0.0
 11
821.2114544814554
 21
375.3688229547766
 31
0.0
  0
LINE
  5
21C
330
22
100
AcDbEntity
  8
_2-8_DRAIN他
  6
Continuous
 62
     7
100
AcDbLine
 10
821.2114544814554
 20
375.3688229547766
 30
0.0
 11
821.0414092823453
 21
375.2023368119285
 31
0.0
  0
LINE
  5
21D
330
22
100
AcDbEntity
  8
_2-8_DRAIN他
  6
Continuous
 62
     7
100
AcDbLine
 10
821.0414092823453
 20
375.2023368119285
 30
0.0
 11
820.8780954110673
 21
375.0290598089192
 31
0.0
  0
LINE
  5
21E
330
22
100
AcDbEntity
  8
_2-8_DRAIN他
  6
Continuous
 62
     7
100
AcDbLine
 10
820.8780954110673
 20
375.0290598089192
 30
0.0
 11
820.7870268291278
 21
374.9248585007081
 31
0.0
  0
LINE
  5
21F
330
22
100
AcDbEntity
  8
_2-8_DRAIN他
  6
Continuous
 62
     7
100
AcDbLine
 10
820.7870268291278
 20
374.9248585007081
 30
0.0
 11
820.7353675564915
 21
374.8627712251845
 31
0.0
  0
LINE
  5
220
330
22
100
AcDbEntity
  8
_2-8_DRAIN他
  6
Continuous
 62
     7
100
AcDbLine
 10
820.7353675564915
 20
374.8627712251845
 30
0.0
 11
820.6490424461858
 21
374.7532984853478
 31
0.0
  0
LINE
  5
221
330
22
100
AcDbEntity
  8
_2-8_DRAIN他
  6
Continuous
 62
     7
100
AcDbLine
 10
820.6490424461858
 20
374.7532984853478
 30
0.0
 11
820.5666825740538
 21
374.640797227587
 31
0.0
  0
LINE
  5
222
330
22
100
AcDbEntity
  8
_2-8_DRAIN他
  6
Continuous
 62
     7
100
AcDbLine
 10
820.5666825740538
 20
374.640797227587
 30
0.0
 11
820.4888618833084
 21
374.5253162948757
 31
0.0
  0
LINE
  5
223
330
22
100
AcDbEntity
  8
_2-8_DRAIN他
  6
Continuous
 62
     7
100
AcDbLine
 10
820.4888618833084
 20
374.5253162948757
 30
0.0
 11
820.4161543171645
 21
374.4069045301831
 31
0.0
  0
LINE
  5
224
330
22
100
AcDbEntity
  8
_2-8_DRAIN他
  6
Continuous
 62
     7
100
AcDbLine
 10
820.4161543171645
 20
374.4069045301831
 30
0.0
 11
820.3491338188349
 21
374.2856107764806
 31
0.0
  0
LINE
  5
225
330
22
100
AcDbEntity
  8
_2-8_DRAIN他
  6
Continuous
 62
     7
100
AcDbLine
 10
820.3491338188349
 20
374.2856107764806
 30
0.0
 11
820.3130939077485
 21
374.2139591186378
 31
0.0
  0
LINE
  5
226
330
22
100
AcDbEntity
  8
_2-8_DRAIN他
  6
Continuous
 62
     7
100
AcDbLine
 10
820.3130939077485
 20
374.2139591186378
 30
0.0
 11
820.2664420543898
 21
374.1124832275887
 31
0.0
  0
LINE
  5
227
330
22
100
AcDbEntity
  8
_2-8_DRAIN他
  6
Continuous
 62
     7
100
AcDbLine
 10
820.2664420543898
 20
374.1124832275887
 30
0.0
 11
820.1949552960391
 21
373.9337188485365
 31
0.0
  0
LINE
  5
228
330
22
100
AcDbEntity
  8
_2-8_DRAIN他
  6
Continuous
 62
     7
100
AcDbLine
 10
820.1949552960391
 20
373.9337188485365
 30
0.0
 11
820.1330039574159
 21
373.7508984303895
 31
0.0
  0
LINE
  5
229
330
22
100
AcDbEntity
  8
_2-8_DRAIN他
  6
Continuous
 62
     7
100
AcDbLine
 10
820.1330039574159
 20
373.7508984303895
 30
0.0
 11
820.078506069148
 21
373.564907571199
 31
0.0
  0
LINE
  5
22A
330
22
100
AcDbEntity
  8
_2-8_DRAIN他
  6
Continuous
 62
     7
100
AcDbLine
 10
820.078506069148
 20
373.564907571199
 30
0.0
 11
820.02937966186
 21
373.3766318690232
 31
0.0
  0
LINE
  5
22B
330
22
100
AcDbEntity
  8
_2-8_DRAIN他
  6
Continuous
 62
     7
100
AcDbLine
 10
820.02937966186
 20
373.3766318690232
 30
0.0
 11
819.9835427661824
 21
373.1869569219202
 31
0.0
  0
LINE
  5
22C
330
22
100
AcDbEntity
  8
_2-8_DRAIN他
  6
Continuous
 62
     7
100
AcDbLine
 10
819.9835427661824
 20
373.1869569219202
 30
0.0
 11
819.9576442167131
 21
373.076653290259
 31
0.0
  0
LINE
  5
22D
330
22
100
AcDbEntity
  8
_2-1_
  6
Continuous
 62
     4
100
AcDbLine
 10
962.3305200793268
 20
390.0766532902594
 30
0.0
 11
962.3305200793268
 21
531.1266532902573
 31
0.0
  0
LINE
  5
22E
330
22
100
AcDbEntity
  8
_2-4_OUT_LINE
  6
Continuous
 62
     2
100
AcDbLine
 10
830.7055200793277
 20
373.076653290259
 30
0.0
 11
830.7055200793277
 21
378.0766532902589
 31
0.0
  0
LINE
  5
22F
330
22
100
AcDbEntity
  8
_2-4_OUT_LINE
  6
Continuous
 62
     2
100
AcDbLine
 10
719.868343282043
 20
373.076653290259
 30
0.0
 11
830.7055200793277
 21
373.076653290259
 31
0.0
  0
TEXT
  5
230
330
22
100
AcDbEntity
  8
_2-A_MOJI
 62
     7
100
AcDbText
 10
1202.928660481166
 20
473.3655319104968
 30
0.0
 40
15.0
  1
プルーフシーラー
100
AcDbText
  0
LINE
  5
231
330
22
100
AcDbEntity
  8
_2-A_MOJI
  6
Continuous
 62
     7
100
AcDbLine
 10
1192.928660481166
 20
430.8655319104969
 30
0.0
 11
1168.398854695251
 21
430.8655319104969
 31
0.0
  0
LINE
  5
232
330
22
100
AcDbEntity
  8
_2-A_MOJI
  6
Continuous
 62
     7
100
AcDbLine
 10
1192.928660481166
 20
480.8655319104969
 30
0.0
 11
1158.731454753225
 21
480.8655319104969
 31
0.0
  0
LINE
  5
233
330
22
100
AcDbEntity
  8
_2-A_MOJI
  6
Continuous
 62
     7
100
AcDbLine
 10
1101.543573935613
 20
381.813216757198
 30
0.0
 11
1158.731454753225
 21
480.8655319104969
 31
0.0
  0
LINE
  5
234
330
22
100
AcDbEntity
  8
_2-A_MOJI
  6
Continuous
 62
     7
100
AcDbLine
 10
1001.070640855736
 20
496.7196277178118
 30
0.0
 11
1020.784787833105
 21
530.8655319104969
 31
0.0
  0
LINE
  5
235
330
22
100
AcDbEntity
  8
_2-A_MOJI
  6
Continuous
 62
     7
100
AcDbLine
 10
1050.448832640228
 20
530.8655319104969
 30
0.0
 11
1020.784787833105
 21
530.8655319104969
 31
0.0
  0
TEXT
  5
236
330
22
100
AcDbEntity
  8
_2-A_MOJI
 62
     7
100
AcDbText
 10
1060.448832640228
 20
523.3655319104968
 30
0.0
 40
15.0
  1
ステンレスベントロン
100
AcDbText
  0
LINE
  5
237
330
22
100
AcDbEntity
  8
_2-A_MOJI
  6
Continuous
 62
     7
100
AcDbLine
 10
1135.034430067691
 20
373.076653290259
 30
0.0
 11
1168.398854695251
 21
430.8655319104969
 31
0.0
  0
TEXT
  5
238
330
22
100
AcDbEntity
  8
_2-A_MOJI
 62
     7
100
AcDbText
 10
1202.928660481166
 20
423.3655319104968
 30
0.0
 40
15.0
  1
塩ビシート 接着工法
100
AcDbText
  0
LINE
  5
239
330
22
100
AcDbEntity
  8
_2-3_
  6
Continuous
 62
     3
100
AcDbLine
 10
719.868343282043
 20
908.0161385361838
 30
0.0
 11
1369.868343282043
 21
908.0161385361838
 31
0.0
  0
LINE
  5
23A
330
22
100
AcDbEntity
  8
_2-3_
  6
Continuous
 62
     3
100
AcDbLine
 10
719.868343282043
 20
218.0766532902589
 30
0.0
 11
1369.868343282043
 21
218.0766532902589
 31
0.0
  0
LINE
  5
23B
330
22
100
AcDbEntity
  8
_2-3_
  6
Continuous
 62
     3
100
AcDbLine
 10
946.3305200793262
 20
383.076653290259
 30
0.0
 11
914.8004970474509
 21
383.076653290259
 31
0.0
  0
LINE
  5
23C
330
22
100
AcDbEntity
  8
_2-3_
  6
Continuous
 62
     3
100
AcDbLine
 10
946.3305200793262
 20
385.0766532902594
 30
0.0
 11
914.4555200793332
 21
385.0766532902594
 31
0.0
  0
LINE
  5
23D
330
22
100
AcDbEntity
  8
_2-3_
  6
Continuous
 62
     3
100
AcDbLine
 10
914.8004970474509
 20
383.076653290259
 30
0.0
 11
886.6754970474563
 21
373.076653290259
 31
0.0
  0
LINE
  5
23E
330
22
100
AcDbEntity
  8
_2-7_ビス
  6
Continuous
 62
     7
100
AcDbLine
 10
1024.455520904123
 20
375.0766532902594
 30
0.0
 11
1020.205519254524
 21
375.0766532902594
 31
0.0
  0
LINE
  5
23F
330
22
100
AcDbEntity
  8
_2-7_ビス
  6
Continuous
 62
     7
100
AcDbLine
 10
1017.330515955327
 20
377.9516565894572
 30
0.0
 11
1020.205519254524
 21
375.0766532902594
 31
0.0
  0
LINE
  5
240
330
22
100
AcDbEntity
  8
_2-7_ビス
  6
Continuous
 62
     7
100
AcDbLine
 10
1027.330524203321
 20
377.9516565894572
 30
0.0
 11
1017.330515955327
 21
377.9516565894572
 31
0.0
  0
LINE
  5
241
330
22
100
AcDbEntity
  8
_2-7_ビス
  6
Continuous
 62
     7
100
AcDbLine
 10
1017.330515955327
 20
378.4516829830386
 30
0.0
 11
1017.330515955327
 21
377.9516565894572
 31
0.0
  0
LINE
  5
242
330
22
100
AcDbEntity
  8
_2-7_ビス
  6
Continuous
 62
     7
100
AcDbLine
 10
1027.330524203321
 20
377.9516565894572
 30
0.0
 11
1027.330524203321
 21
378.4516829830386
 31
0.0
  0
LINE
  5
243
330
22
100
AcDbEntity
  8
_2-7_ビス
  6
Continuous
 62
     7
100
AcDbLine
 10
1027.330524203321
 20
378.4516829830386
 30
0.0
 11
1017.330515955327
 21
378.4516829830386
 31
0.0
  0
LINE
  5
244
330
22
100
AcDbEntity
  8
_2-7_ビス
  6
Continuous
 62
     7
100
AcDbLine
 10
1027.330524203321
 20
377.9516565894572
 30
0.0
 11
1024.455520904123
 21
375.0766532902594
 31
0.0
  0
ARC
  5
245
330
22
100
AcDbEntity
  8
_2-7_ビス
  6
DASHED3
 62
     7
100
AcDbCircle
 10
1022.330520079324
 20
377.1872160014073
 30
0.0
 40
1.840317539266638
100
AcDbArc
 50
217.1175079345703
 51
322.8824768066406
  0
LINE
  5
246
330
22
100
AcDbEntity
  8
_2-7_ビス
  6
DASHED3
 62
     7
100
AcDbLine
 10
1024.880535915474
 20
377.9516565894572
 30
0.0
 11
1023.798011435427
 21
376.0766318454739
 31
0.0
  0
LINE
  5
247
330
22
100
AcDbEntity
  8
_2-7_ビス
  6
DASHED3
 62
     7
100
AcDbLine
 10
1019.780541359149
 20
377.9516565894572
 30
0.0
 11
1020.863065839195
 21
376.0766318454739
 31
0.0
  0
LINE
  5
248
330
22
100
AcDbEntity
  8
_2-7_ビス
  6
DASHED3
 62
     7
100
AcDbLine
 10
1019.780541359149
 20
377.9516565894572
 30
0.0
 11
1019.780541359149
 21
378.4516829830386
 31
0.0
  0
LINE
  5
249
330
22
100
AcDbEntity
  8
_2-7_ビス
  6
DASHED3
 62
     7
100
AcDbLine
 10
1024.880535915474
 20
377.9516565894572
 30
0.0
 11
1024.880535915474
 21
378.4516829830386
 31
0.0
  0
LINE
  5
24A
330
22
100
AcDbEntity
  8
_2-7_ビス
  6
Continuous
 62
     7
100
AcDbLine
 10
1024.330520079324
 20
375.0766532902594
 30
0.0
 11
1024.330520079324
 21
368.0766532902589
 31
0.0
  0
LINE
  5
24B
330
22
100
AcDbEntity
  8
_2-7_ビス
  6
Continuous
 62
     7
100
AcDbLine
 10
1020.330520079324
 20
375.0766532902594
 30
0.0
 11
1020.330520079324
 21
368.0766532902589
 31
0.0
  0
LINE
  5
24C
330
22
100
AcDbEntity
  8
_2-3_
  6
Continuous
 62
     3
100
AcDbLine
 10
1027.330520079325
 20
373.076653290259
 30
0.0
 11
1024.330520079324
 21
373.076653290259
 31
0.0
  0
LINE
  5
24D
330
22
100
AcDbEntity
  8
_2-3_
  6
Continuous
 62
     3
100
AcDbLine
 10
1020.330520079324
 20
373.076653290259
 30
0.0
 11
1017.330520079327
 21
373.076653290259
 31
0.0
  0
LINE
  5
24E
330
22
100
AcDbEntity
  8
_2-8_DRAIN他
  6
Continuous
 62
     7
100
AcDbLine
 10
1070.333388012393
 20
1068.016138536184
 30
0.0
 11
1070.351606799917
 21
1068.147043482865
 31
0.0
  0
LINE
  5
24F
330
22
100
AcDbEntity
  8
_2-8_DRAIN他
  6
Continuous
 62
     7
100
AcDbLine
 10
1070.351606799917
 20
1068.147043482865
 30
0.0
 11
1070.384673579578
 21
1068.372117417884
 31
0.0
  0
LINE
  5
250
330
22
100
AcDbEntity
  8
_2-8_DRAIN他
  6
Continuous
 62
     7
100
AcDbLine
 10
1070.384673579578
 20
1068.372117417884
 30
0.0
 11
1070.422337795444
 21
1068.595457328142
 31
0.0
  0
LINE
  5
251
330
22
100
AcDbEntity
  8
_2-8_DRAIN他
  6
Continuous
 62
     7
100
AcDbLine
 10
1070.422337795444
 20
1068.595457328142
 30
0.0
 11
1070.467509217267
 21
1068.815965729614
 31
0.0
  0
LINE
  5
252
330
22
100
AcDbEntity
  8
_2-8_DRAIN他
  6
Continuous
 62
     7
100
AcDbLine
 10
1070.467509217267
 20
1068.815965729614
 30
0.0
 11
1070.523097614798
 21
1069.03254513827
 31
0.0
  0
LINE
  5
253
330
22
100
AcDbEntity
  8
_2-8_DRAIN他
  6
Continuous
 62
     7
100
AcDbLine
 10
1070.523097614798
 20
1069.03254513827
 30
0.0
 11
1070.592012757787
 21
1069.244098070089
 31
0.0
  0
LINE
  5
254
330
22
100
AcDbEntity
  8
_2-8_DRAIN他
  6
Continuous
 62
     7
100
AcDbLine
 10
1070.592012757787
 20
1069.244098070089
 30
0.0
 11
1070.639236456079
 21
1069.364063173082
 31
0.0
  0
LINE
  5
255
330
22
100
AcDbEntity
  8
_2-8_DRAIN他
  6
Continuous
 62
     7
100
AcDbLine
 10
1070.639236456079
 20
1069.364063173082
 30
0.0
 11
1070.680177517342
 21
1069.456180012673
 31
0.0
  0
LINE
  5
256
330
22
100
AcDbEntity
  8
_2-8_DRAIN他
  6
Continuous
 62
     7
100
AcDbLine
 10
1070.680177517342
 20
1069.456180012673
 30
0.0
 11
1070.758592690025
 21
1069.611894315685
 31
0.0
  0
LINE
  5
257
330
22
100
AcDbEntity
  8
_2-8_DRAIN他
  6
Continuous
 62
     7
100
AcDbLine
 10
1070.758592690025
 20
1069.611894315685
 30
0.0
 11
1070.845699704352
 21
1069.763897918567
 31
0.0
  0
LINE
  5
258
330
22
100
AcDbEntity
  8
_2-8_DRAIN他
  6
Continuous
 62
     7
100
AcDbLine
 10
1070.845699704352
 20
1069.763897918567
 30
0.0
 11
1070.9400846935
 21
1069.912450434367
 31
0.0
  0
LINE
  5
259
330
22
100
AcDbEntity
  8
_2-8_DRAIN他
  6
Continuous
 62
     7
100
AcDbLine
 10
1070.9400846935
 20
1069.912450434367
 30
0.0
 11
1071.040333790644
 21
1070.057811476138
 31
0.0
  0
LINE
  5
25A
330
22
100
AcDbEntity
  8
_2-8_DRAIN他
  6
Continuous
 62
     7
100
AcDbLine
 10
1071.040333790644
 20
1070.057811476138
 30
0.0
 11
1071.145033128961
 21
1070.200240656934
 31
0.0
  0
LINE
  5
25B
330
22
100
AcDbEntity
  8
_2-8_DRAIN他
  6
Continuous
 62
     7
100
AcDbLine
 10
1071.145033128961
 20
1070.200240656934
 30
0.0
 11
1071.207240708639
 21
1070.28160850414
 31
0.0
  0
LINE
  5
25C
330
22
100
AcDbEntity
  8
_2-8_DRAIN他
  6
Continuous
 62
     7
100
AcDbLine
 10
1071.207240708639
 20
1070.28160850414
 30
0.0
 11
1071.281456982576
 21
1070.376292096941
 31
0.0
  0
LINE
  5
25D
330
22
100
AcDbEntity
  8
_2-8_DRAIN他
  6
Continuous
 62
     7
100
AcDbLine
 10
1071.281456982576
 20
1070.376292096941
 30
0.0
 11
1071.411681922679
 21
1070.537010890802
 31
0.0
  0
LINE
  5
25E
330
22
100
AcDbEntity
  8
_2-8_DRAIN他
  6
Continuous
 62
     7
100
AcDbLine
 10
1071.411681922679
 20
1070.537010890802
 30
0.0
 11
1071.5445337419
 21
1070.694877653195
 31
0.0
  0
LINE
  5
25F
330
22
100
AcDbEntity
  8
_2-8_DRAIN他
  6
Continuous
 62
     7
100
AcDbLine
 10
1071.5445337419
 20
1070.694877653195
 30
0.0
 11
1071.679731880027
 21
1070.850298146661
 31
0.0
  0
LINE
  5
260
330
22
100
AcDbEntity
  8
_2-8_DRAIN他
  6
Continuous
 62
     7
100
AcDbLine
 10
1071.679731880027
 20
1070.850298146661
 30
0.0
 11
1071.816995776851
 21
1071.003678133747
 31
0.0
  0
LINE
  5
261
330
22
100
AcDbEntity
  8
_2-8_DRAIN他
  6
Continuous
 62
     7
100
AcDbLine
 10
1071.816995776851
 20
1071.003678133747
 30
0.0
 11
1071.95604487216
 21
1071.155423377004
 31
0.0
  0
LINE
  5
262
330
22
100
AcDbEntity
  8
_2-8_DRAIN他
  6
Continuous
 62
     7
100
AcDbLine
 10
1071.95604487216
 20
1071.155423377004
 30
0.0
 11
1072.037400770072
 21
1071.242846470009
 31
0.0
  0
LINE
  5
263
330
22
100
AcDbEntity
  8
_2-8_DRAIN他
  6
Continuous
 62
     7
100
AcDbLine
 10
1072.037400770072
 20
1071.242846470009
 30
0.0
 11
1072.123035843487
 21
1071.333916644408
 31
0.0
  0
LINE
  5
264
330
22
100
AcDbEntity
  8
_2-8_DRAIN他
  6
Continuous
 62
     7
100
AcDbLine
 10
1072.123035843487
 20
1071.333916644408
 30
0.0
 11
1072.272233201794
 21
1071.489618393241
 31
0.0
  0
LINE
  5
265
330
22
100
AcDbEntity
  8
_2-8_DRAIN他
  6
Continuous
 62
     7
100
AcDbLine
 10
1072.272233201794
 20
1071.489618393241
 30
0.0
 11
1072.423983415364
 21
1071.64296437164
 31
0.0
  0
LINE
  5
266
330
22
100
AcDbEntity
  8
_2-8_DRAIN他
  6
Continuous
 62
     7
100
AcDbLine
 10
1072.423983415364
 20
1071.64296437164
 30
0.0
 11
1072.578972494867
 21
1071.793152010561
 31
0.0
  0
LINE
  5
267
330
22
100
AcDbEntity
  8
_2-8_DRAIN他
  6
Continuous
 62
     7
100
AcDbLine
 10
1072.578972494867
 20
1071.793152010561
 30
0.0
 11
1072.737886450974
 21
1071.939378740958
 31
0.0
  0
LINE
  5
268
330
22
100
AcDbEntity
  8
_2-8_DRAIN他
  6
Continuous
 62
     7
100
AcDbLine
 10
1072.737886450974
 20
1071.939378740958
 30
0.0
 11
1072.901411294355
 21
1072.080841993786
 31
0.0
  0
LINE
  5
269
330
22
100
AcDbEntity
  8
_2-8_DRAIN他
  6
Continuous
 62
     7
100
AcDbLine
 10
1072.901411294355
 20
1072.080841993786
 30
0.0
 11
1072.998638735942
 21
1072.160391801066
 31
0.0
  0
LINE
  5
26A
330
22
100
AcDbEntity
  8
_2-8_DRAIN他
  6
Continuous
 62
     7
100
AcDbLine
 10
1072.998638735942
 20
1072.160391801066
 30
0.0
 11
1073.086292435484
 21
1072.229117153563
 31
0.0
  0
LINE
  5
26B
330
22
100
AcDbEntity
  8
_2-8_DRAIN他
  6
Continuous
 62
     7
100
AcDbLine
 10
1073.086292435484
 20
1072.229117153563
 30
0.0
 11
1073.240905535405
 21
1072.343329921364
 31
0.0
  0
LINE
  5
26C
330
22
100
AcDbEntity
  8
_2-8_DRAIN他
  6
Continuous
 62
     7
100
AcDbLine
 10
1073.240905535405
 20
1072.343329921364
 30
0.0
 11
1073.399870678594
 21
1072.451302610295
 31
0.0
  0
LINE
  5
26D
330
22
100
AcDbEntity
  8
_2-8_DRAIN他
  6
Continuous
 62
     7
100
AcDbLine
 10
1073.399870678594
 20
1072.451302610295
 30
0.0
 11
1073.563117335821
 21
1072.552077841722
 31
0.0
  0
LINE
  5
26E
330
22
100
AcDbEntity
  8
_2-8_DRAIN他
  6
Continuous
 62
     7
100
AcDbLine
 10
1073.563117335821
 20
1072.552077841722
 30
0.0
 11
1073.730574977852
 21
1072.644698237007
 31
0.0
  0
LINE
  5
26F
330
22
100
AcDbEntity
  8
_2-8_DRAIN他
  6
Continuous
 62
     7
100
AcDbLine
 10
1073.730574977852
 20
1072.644698237007
 30
0.0
 11
1073.902173075456
 21
1072.728206417519
 31
0.0
  0
LINE
  5
270
330
22
100
AcDbEntity
  8
_2-8_DRAIN他
  6
Continuous
 62
     7
100
AcDbLine
 10
1073.902173075456
 20
1072.728206417519
 30
0.0
 11
1074.003569336624
 21
1072.772088688439
 31
0.0
  0
LINE
  5
271
330
22
100
AcDbEntity
  8
_2-8_DRAIN他
  6
Continuous
 62
     7
100
AcDbLine
 10
1074.003569336624
 20
1072.772088688439
 30
0.0
 11
1074.117474829363
 21
1072.816617401702
 31
0.0
  0
LINE
  5
272
330
22
100
AcDbEntity
  8
_2-8_DRAIN他
  6
Continuous
 62
     7
100
AcDbLine
 10
1074.117474829363
 20
1072.816617401702
 30
0.0
 11
1074.317363287218
 21
1072.883928030117
 31
0.0
  0
LINE
  5
273
330
22
100
AcDbEntity
  8
_2-8_DRAIN他
  6
Continuous
 62
     7
100
AcDbLine
 10
1074.317363287218
 20
1072.883928030117
 30
0.0
 11
1074.521065386076
 21
1072.940531581614
 31
0.0
  0
LINE
  5
274
330
22
100
AcDbEntity
  8
_2-8_DRAIN他
  6
Continuous
 62
     7
100
AcDbLine
 10
1074.521065386076
 20
1072.940531581614
 30
0.0
 11
1074.727864462885
 21
1072.987906455346
 31
0.0
  0
LINE
  5
275
330
22
100
AcDbEntity
  8
_2-8_DRAIN他
  6
Continuous
 62
     7
100
AcDbLine
 10
1074.727864462885
 20
1072.987906455346
 30
0.0
 11
1074.937043854594
 21
1073.027531050454
 31
0.0
  0
LINE
  5
276
330
22
100
AcDbEntity
  8
_2-8_DRAIN他
  6
Continuous
 62
     7
100
AcDbLine
 10
1074.937043854594
 20
1073.027531050454
 30
0.0
 11
1075.14788689815
 21
1073.060883766091
 31
0.0
  0
LINE
  5
277
330
22
100
AcDbEntity
  8
_2-8_DRAIN他
  6
Continuous
 62
     7
100
AcDbLine
 10
1075.14788689815
 20
1073.060883766091
 30
0.0
 11
1075.27065574618
 21
1073.077937132125
 31
0.0
  0
LINE
  5
278
330
22
100
AcDbEntity
  8
_2-8_DRAIN他
  6
Continuous
 62
     7
100
AcDbLine
 10
1075.27065574618
 20
1073.077937132125
 30
0.0
 11
1075.419112716263
 21
1073.096654131391
 31
0.0
  0
LINE
  5
279
330
22
100
AcDbEntity
  8
_2-8_DRAIN他
  6
Continuous
 62
     7
100
AcDbLine
 10
1075.419112716263
 20
1073.096654131391
 30
0.0
 11
1075.675432981549
 21
1073.123560892482
 31
0.0
  0
LINE
  5
27A
330
22
100
AcDbEntity
  8
_2-8_DRAIN他
  6
Continuous
 62
     7
100
AcDbLine
 10
1075.675432981549
 20
1073.123560892482
 30
0.0
 11
1075.931828310129
 21
1073.14241913978
 31
0.0
  0
LINE
  5
27B
330
22
100
AcDbEntity
  8
_2-8_DRAIN他
  6
Continuous
 62
     7
100
AcDbLine
 10
1075.931828310129
 20
1073.14241913978
 30
0.0
 11
1076.18785614676
 21
1073.151765230966
 31
0.0
  0
LINE
  5
27C
330
22
100
AcDbEntity
  8
_2-8_DRAIN他
  6
Continuous
 62
     7
100
AcDbLine
 10
1076.18785614676
 20
1073.151765230966
 30
0.0
 11
1076.443073936194
 21
1073.15013552372
 31
0.0
  0
LINE
  5
27D
330
22
100
AcDbEntity
  8
_2-8_DRAIN他
  6
Continuous
 62
     7
100
AcDbLine
 10
1076.443073936194
 20
1073.15013552372
 30
0.0
 11
1076.697039123186
 21
1073.136066375716
 31
0.0
  0
LINE
  5
27E
330
22
100
AcDbEntity
  8
_2-8_DRAIN他
  6
Continuous
 62
     7
100
AcDbLine
 10
1076.697039123186
 20
1073.136066375716
 30
0.0
 11
1076.843590599422
 21
1073.121629766938
 31
0.0
  0
LINE
  5
27F
330
22
100
AcDbEntity
  8
_2-8_DRAIN他
  6
Continuous
 62
     7
100
AcDbLine
 10
1076.843590599422
 20
1073.121629766938
 30
0.0
 11
1076.950934790989
 21
1073.107939980852
 31
0.0
  0
LINE
  5
280
330
22
100
AcDbEntity
  8
_2-8_DRAIN他
  6
Continuous
 62
     7
100
AcDbLine
 10
1076.950934790989
 20
1073.107939980852
 30
0.0
 11
1077.135384851757
 21
1073.07898034961
 31
0.0
  0
LINE
  5
281
330
22
100
AcDbEntity
  8
_2-8_DRAIN他
  6
Continuous
 62
     7
100
AcDbLine
 10
1077.135384851757
 20
1073.07898034961
 30
0.0
 11
1077.319355709199
 21
1073.044664868073
 31
0.0
  0
LINE
  5
282
330
22
100
AcDbEntity
  8
_2-8_DRAIN他
  6
Continuous
 62
     7
100
AcDbLine
 10
1077.319355709199
 20
1073.044664868073
 30
0.0
 11
1077.503211745056
 21
1073.006650042045
 31
0.0
  0
LINE
  5
283
330
22
100
AcDbEntity
  8
_2-8_DRAIN他
  6
Continuous
 62
     7
100
AcDbLine
 10
1077.503211745056
 20
1073.006650042045
 30
0.0
 11
1077.687317341076
 21
1072.966592377338
 31
0.0
  0
LINE
  5
284
330
22
100
AcDbEntity
  8
_2-8_DRAIN他
  6
Continuous
 62
     7
100
AcDbLine
 10
1077.687317341076
 20
1072.966592377338
 30
0.0
 11
1077.872036879005
 21
1072.926148379763
 31
0.0
  0
LINE
  5
285
330
22
100
AcDbEntity
  8
_2-8_DRAIN他
  6
Continuous
 62
     7
100
AcDbLine
 10
1077.872036879005
 20
1072.926148379763
 30
0.0
 11
1077.979599104541
 21
1072.903166592876
 31
0.0
  0
LINE
  5
286
330
22
100
AcDbEntity
  8
_2-8_DRAIN他
  6
Continuous
 62
     7
100
AcDbLine
 10
1077.979599104541
 20
1072.903166592876
 30
0.0
 11
1078.10171033587
 21
1072.877892871377
 31
0.0
  0
LINE
  5
287
330
22
100
AcDbEntity
  8
_2-8_DRAIN他
  6
Continuous
 62
     7
100
AcDbLine
 10
1078.10171033587
 20
1072.877892871377
 30
0.0
 11
1078.312508359433
 21
1072.834543355143
 31
0.0
  0
LINE
  5
288
330
22
100
AcDbEntity
  8
_2-8_DRAIN他
  6
Continuous
 62
     7
100
AcDbLine
 10
1078.312508359433
 20
1072.834543355143
 30
0.0
 11
1078.52221358327
 21
1072.788410196995
 31
0.0
  0
LINE
  5
289
330
22
100
AcDbEntity
  8
_2-8_DRAIN他
  6
Continuous
 62
     7
100
AcDbLine
 10
1078.52221358327
 20
1072.788410196995
 30
0.0
 11
1078.729170532538
 21
1072.73592415529
 31
0.0
  0
LINE
  5
28A
330
22
100
AcDbEntity
  8
_2-8_DRAIN他
  6
Continuous
 62
     7
100
AcDbLine
 10
1078.729170532538
 20
1072.73592415529
 30
0.0
 11
1078.931723732393
 21
1072.673515988392
 31
0.0
  0
LINE
  5
28B
330
22
100
AcDbEntity
  8
_2-8_DRAIN他
  6
Continuous
 62
     7
100
AcDbLine
 10
1078.931723732393
 20
1072.673515988392
 30
0.0
 11
1079.128217707991
 21
1072.597616454656
 31
0.0
  0
LINE
  5
28C
330
22
100
AcDbEntity
  8
_2-8_DRAIN他
  6
Continuous
 62
     7
100
AcDbLine
 10
1079.128217707991
 20
1072.597616454656
 30
0.0
 11
1079.238755534112
 21
1072.546006514001
 31
0.0
  0
LINE
  5
28D
330
22
100
AcDbEntity
  8
_2-8_DRAIN他
  6
Continuous
 62
     7
100
AcDbLine
 10
1079.238755534112
 20
1072.546006514001
 30
0.0
 11
1079.338077765292
 21
1072.492921042078
 31
0.0
  0
LINE
  5
28E
330
22
100
AcDbEntity
  8
_2-8_DRAIN他
  6
Continuous
 62
     7
100
AcDbLine
 10
1079.338077765292
 20
1072.492921042078
 30
0.0
 11
1079.503501680482
 21
1072.38963476098
 31
0.0
  0
LINE
  5
28F
330
22
100
AcDbEntity
  8
_2-8_DRAIN他
  6
Continuous
 62
     7
100
AcDbLine
 10
1079.503501680482
 20
1072.38963476098
 30
0.0
 11
1079.661553251841
 21
1072.273085129247
 31
0.0
  0
LINE
  5
290
330
22
100
AcDbEntity
  8
_2-8_DRAIN他
  6
Continuous
 62
     7
100
AcDbLine
 10
1079.661553251841
 20
1072.273085129247
 30
0.0
 11
1079.812228298259
 21
1072.145158455932
 31
0.0
  0
LINE
  5
291
330
22
100
AcDbEntity
  8
_2-8_DRAIN他
  6
Continuous
 62
     7
100
AcDbLine
 10
1079.812228298259
 20
1072.145158455932
 30
0.0
 11
1079.955522638624
 21
1072.007741050086
 31
0.0
  0
LINE
  5
292
330
22
100
AcDbEntity
  8
_2-8_DRAIN他
  6
Continuous
 62
     7
100
AcDbLine
 10
1079.955522638624
 20
1072.007741050086
 30
0.0
 11
1080.091432091828
 21
1071.862719220756
 31
0.0
  0
LINE
  5
293
330
22
100
AcDbEntity
  8
_2-8_DRAIN他
  6
Continuous
 62
     7
100
AcDbLine
 10
1080.091432091828
 20
1071.862719220756
 30
0.0
 11
1080.166874171815
 21
1071.775865516758
 31
0.0
  0
LINE
  5
294
330
22
100
AcDbEntity
  8
_2-8_DRAIN他
  6
Continuous
 62
     7
100
AcDbLine
 10
1080.166874171815
 20
1071.775865516758
 30
0.0
 11
1080.251169196187
 21
1071.673298128767
 31
0.0
  0
LINE
  5
295
330
22
100
AcDbEntity
  8
_2-8_DRAIN他
  6
Continuous
 62
     7
100
AcDbLine
 10
1080.251169196187
 20
1071.673298128767
 30
0.0
 11
1080.389341055454
 21
1071.492013119032
 31
0.0
  0
LINE
  5
296
330
22
100
AcDbEntity
  8
_2-8_DRAIN他
  6
Continuous
 62
     7
100
AcDbLine
 10
1080.389341055454
 20
1071.492013119032
 30
0.0
 11
1080.519451322474
 21
1071.30578844441
 31
0.0
  0
LINE
  5
297
330
22
100
AcDbEntity
  8
_2-8_DRAIN他
  6
Continuous
 62
     7
100
AcDbLine
 10
1080.519451322474
 20
1071.30578844441
 30
0.0
 11
1080.642671224461
 21
1071.11542238332
 31
0.0
  0
LINE
  5
298
330
22
100
AcDbEntity
  8
_2-8_DRAIN他
  6
Continuous
 62
     7
100
AcDbLine
 10
1080.642671224461
 20
1071.11542238332
 30
0.0
 11
1080.760171988629
 21
1070.921713214177
 31
0.0
  0
LINE
  5
299
330
22
100
AcDbEntity
  8
_2-8_DRAIN他
  6
Continuous
 62
     7
100
AcDbLine
 10
1080.760171988629
 20
1070.921713214177
 30
0.0
 11
1080.873124842199
 21
1070.725459215396
 31
0.0
  0
LINE
  5
29A
330
22
100
AcDbEntity
  8
_2-8_DRAIN他
  6
Continuous
 62
     7
100
AcDbLine
 10
1080.873124842199
 20
1070.725459215396
 30
0.0
 11
1080.937015169058
 21
1070.610780418367
 31
0.0
  0
LINE
  5
29B
330
22
100
AcDbEntity
  8
_2-8_DRAIN他
  6
Continuous
 62
     7
100
AcDbLine
 10
1080.937015169058
 20
1070.610780418367
 30
0.0
 11
1081.004282536564
 21
1070.48771382623
 31
0.0
  0
LINE
  5
29C
330
22
100
AcDbEntity
  8
_2-8_DRAIN他
  6
Continuous
 62
     7
100
AcDbLine
 10
1081.004282536564
 20
1070.48771382623
 30
0.0
 11
1081.118263777772
 21
1070.274507069862
 31
0.0
  0
LINE
  5
29D
330
22
100
AcDbEntity
  8
_2-8_DRAIN他
  6
Continuous
 62
     7
100
AcDbLine
 10
1081.118263777772
 20
1070.274507069862
 30
0.0
 11
1081.230378326136
 21
1070.060210070326
 31
0.0
  0
LINE
  5
29E
330
22
100
AcDbEntity
  8
_2-8_DRAIN他
  6
Continuous
 62
     7
100
AcDbLine
 10
1081.230378326136
 20
1070.060210070326
 30
0.0
 11
1081.341394935383
 21
1069.84506080925
 31
0.0
  0
LINE
  5
29F
330
22
100
AcDbEntity
  8
_2-8_DRAIN他
  6
Continuous
 62
     7
100
AcDbLine
 10
1081.341394935383
 20
1069.84506080925
 30
0.0
 11
1081.452082359242
 21
1069.62929726827
 31
0.0
  0
LINE
  5
2A0
330
22
100
AcDbEntity
  8
_2-8_DRAIN他
  6
Continuous
 62
     7
100
AcDbLine
 10
1081.452082359242
 20
1069.62929726827
 30
0.0
 11
1081.56320935144
 21
1069.413157429014
 31
0.0
  0
LINE
  5
2A1
330
22
100
AcDbEntity
  8
_2-8_DRAIN他
  6
Continuous
 62
     7
100
AcDbLine
 10
1081.56320935144
 20
1069.413157429014
 30
0.0
 11
1081.628167346071
 21
1069.287717679513
 31
0.0
  0
LINE
  5
2A2
330
22
100
AcDbEntity
  8
_2-8_DRAIN他
  6
Continuous
 62
     7
100
AcDbLine
 10
1081.628167346071
 20
1069.287717679513
 30
0.0
 11
1081.716580800246
 21
1069.118889496508
 31
0.0
  0
LINE
  5
2A3
330
22
100
AcDbEntity
  8
_2-8_DRAIN他
  6
Continuous
 62
     7
100
AcDbLine
 10
1081.716580800246
 20
1069.118889496508
 30
0.0
 11
1081.873085616176
 21
1068.82949373062
 31
0.0
  0
LINE
  5
2A4
330
22
100
AcDbEntity
  8
_2-8_DRAIN他
  6
Continuous
 62
     7
100
AcDbLine
 10
1081.873085616176
 20
1068.82949373062
 30
0.0
 11
1082.037307209404
 21
1068.544785554368
 31
0.0
  0
LINE
  5
2A5
330
22
100
AcDbEntity
  8
_2-8_DRAIN他
  6
Continuous
 62
     7
100
AcDbLine
 10
1082.037307209404
 20
1068.544785554368
 30
0.0
 11
1082.212231196788
 21
1068.26773212635
 31
0.0
  0
LINE
  5
2A6
330
22
100
AcDbEntity
  8
_2-8_DRAIN他
  6
Continuous
 62
     7
100
AcDbLine
 10
1082.212231196788
 20
1068.26773212635
 30
0.0
 11
1082.400843195189
 21
1068.001300605164
 31
0.0
  0
LINE
  5
2A7
330
22
100
AcDbEntity
  8
_2-8_DRAIN他
  6
Continuous
 62
     7
100
AcDbLine
 10
1082.400843195189
 20
1068.001300605164
 30
0.0
 11
1082.606128821464
 21
1067.748458149406
 31
0.0
  0
LINE
  5
2A8
330
22
100
AcDbEntity
  8
_2-8_DRAIN他
  6
Continuous
 62
     7
100
AcDbLine
 10
1082.606128821464
 20
1067.748458149406
 30
0.0
 11
1082.73401082929
 21
1067.609205249625
 31
0.0
  0
LINE
  5
2A9
330
22
100
AcDbEntity
  8
_2-8_DRAIN他
  6
Continuous
 62
     7
100
AcDbLine
 10
1082.73401082929
 20
1067.609205249625
 30
0.0
 11
1082.780226001595
 21
1067.562100243715
 31
0.0
  0
LINE
  5
2AA
330
22
100
AcDbEntity
  8
_2-8_DRAIN他
  6
Continuous
 62
     7
100
AcDbLine
 10
1082.780226001595
 20
1067.562100243715
 30
0.0
 11
1082.861925263136
 21
1067.48275514868
 31
0.0
  0
LINE
  5
2AB
330
22
100
AcDbEntity
  8
_2-8_DRAIN他
  6
Continuous
 62
     7
100
AcDbLine
 10
1082.861925263136
 20
1067.48275514868
 30
0.0
 11
1082.946127655466
 21
1067.405955039239
 31
0.0
  0
LINE
  5
2AC
330
22
100
AcDbEntity
  8
_2-8_DRAIN他
  6
Continuous
 62
     7
100
AcDbLine
 10
1082.946127655466
 20
1067.405955039239
 30
0.0
 11
1083.032773630961
 21
1067.331906135912
 31
0.0
  0
LINE
  5
2AD
330
22
100
AcDbEntity
  8
_2-8_DRAIN他
  6
Continuous
 62
     7
100
AcDbLine
 10
1083.032773630961
 20
1067.331906135912
 30
0.0
 11
1083.121803641997
 21
1067.260814659223
 31
0.0
  0
LINE
  5
2AE
330
22
100
AcDbEntity
  8
_2-8_DRAIN他
  6
Continuous
 62
     7
100
AcDbLine
 10
1083.121803641997
 20
1067.260814659223
 30
0.0
 11
1083.213158140949
 21
1067.192886829693
 31
0.0
  0
LINE
  5
2AF
330
22
100
AcDbEntity
  8
_2-8_DRAIN他
  6
Continuous
 62
     7
100
AcDbLine
 10
1083.213158140949
 20
1067.192886829693
 30
0.0
 11
1083.267185365843
 21
1067.155019533304
 31
0.0
  0
LINE
  5
2B0
330
22
100
AcDbEntity
  8
_2-8_DRAIN他
  6
Continuous
 62
     7
100
AcDbLine
 10
1083.267185365843
 20
1067.155019533304
 30
0.0
 11
1083.35678677693
 21
1067.095726842924
 31
0.0
  0
LINE
  5
2B1
330
22
100
AcDbEntity
  8
_2-8_DRAIN他
  6
Continuous
 62
     7
100
AcDbLine
 10
1083.35678677693
 20
1067.095726842924
 30
0.0
 11
1083.514978221102
 21
1066.999313578731
 31
0.0
  0
LINE
  5
2B2
330
22
100
AcDbEntity
  8
_2-8_DRAIN他
  6
Continuous
 62
     7
100
AcDbLine
 10
1083.514978221102
 20
1066.999313578731
 30
0.0
 11
1083.676389508134
 21
1066.907985169659
 31
0.0
  0
LINE
  5
2B3
330
22
100
AcDbEntity
  8
_2-8_DRAIN他
  6
Continuous
 62
     7
100
AcDbLine
 10
1083.676389508134
 20
1066.907985169659
 30
0.0
 11
1083.839309456428
 21
1066.819094461209
 31
0.0
  0
LINE
  5
2B4
330
22
100
AcDbEntity
  8
_2-8_DRAIN他
  6
Continuous
 62
     7
100
AcDbLine
 10
1083.839309456428
 20
1066.819094461209
 30
0.0
 11
1084.00202688438
 21
1066.729994298873
 31
0.0
  0
LINE
  5
2B5
330
22
100
AcDbEntity
  8
_2-8_DRAIN他
  6
Continuous
 62
     7
100
AcDbLine
 10
1084.00202688438
 20
1066.729994298873
 30
0.0
 11
1084.162830610393
 21
1066.638037528148
 31
0.0
  0
LINE
  5
2B6
330
22
100
AcDbEntity
  8
_2-8_DRAIN他
  6
Continuous
 62
     7
100
AcDbLine
 10
1084.162830610393
 20
1066.638037528148
 30
0.0
 11
1084.254545618718
 21
1066.582350586636
 31
0.0
  0
LINE
  5
2B7
330
22
100
AcDbEntity
  8
_2-8_DRAIN他
  6
Continuous
 62
     7
100
AcDbLine
 10
1084.254545618718
 20
1066.582350586636
 30
0.0
 11
1084.346956611117
 21
1066.522985816764
 31
0.0
  0
LINE
  5
2B8
330
22
100
AcDbEntity
  8
_2-8_DRAIN他
  6
Continuous
 62
     7
100
AcDbLine
 10
1084.346956611117
 20
1066.522985816764
 30
0.0
 11
1084.502899613271
 21
1066.415484054996
 31
0.0
  0
LINE
  5
2B9
330
22
100
AcDbEntity
  8
_2-8_DRAIN他
  6
Continuous
 62
     7
100
AcDbLine
 10
1084.502899613271
 20
1066.415484054996
 30
0.0
 11
1084.655222155493
 21
1066.302500865026
 31
0.0
  0
LINE
  5
2BA
330
22
100
AcDbEntity
  8
_2-8_DRAIN他
  6
Continuous
 62
     7
100
AcDbLine
 10
1084.655222155493
 20
1066.302500865026
 30
0.0
 11
1084.804698644229
 21
1066.185240812631
 31
0.0
  0
LINE
  5
2BB
330
22
100
AcDbEntity
  8
_2-8_DRAIN他
  6
Continuous
 62
     7
100
AcDbLine
 10
1084.804698644229
 20
1066.185240812631
 30
0.0
 11
1084.952103485921
 21
1066.064908463583
 31
0.0
  0
LINE
  5
2BC
330
22
100
AcDbEntity
  8
_2-8_DRAIN他
  6
Continuous
 62
     7
100
AcDbLine
 10
1084.952103485921
 20
1066.064908463583
 30
0.0
 11
1085.098211087018
 21
1065.942708383659
 31
0.0
  0
LINE
  5
2BD
330
22
100
AcDbEntity
  8
_2-8_DRAIN他
  6
Continuous
 62
     7
100
AcDbLine
 10
1085.098211087018
 20
1065.942708383659
 30
0.0
 11
1085.182664256421
 21
1065.871451204566
 31
0.0
  0
LINE
  5
2BE
330
22
100
AcDbEntity
  8
_2-8_DRAIN他
  6
Continuous
 62
     7
100
AcDbLine
 10
1085.182664256421
 20
1065.871451204566
 30
0.0
 11
1085.288506120039
 21
1065.781970620665
 31
0.0
  0
LINE
  5
2BF
330
22
100
AcDbEntity
  8
_2-8_DRAIN他
  6
Continuous
 62
     7
100
AcDbLine
 10
1085.288506120039
 20
1065.781970620665
 30
0.0
 11
1085.470078898349
 21
1065.62688756687
 31
0.0
  0
LINE
  5
2C0
330
22
100
AcDbEntity
  8
_2-8_DRAIN他
  6
Continuous
 62
     7
100
AcDbLine
 10
1085.470078898349
 20
1065.62688756687
 30
0.0
 11
1085.649253550974
 21
1065.469498398629
 31
0.0
  0
LINE
  5
2C1
330
22
100
AcDbEntity
  8
_2-8_DRAIN他
  6
Continuous
 62
     7
100
AcDbLine
 10
1085.649253550974
 20
1065.469498398629
 30
0.0
 11
1085.824585677198
 21
1065.308308200701
 31
0.0
  0
LINE
  5
2C2
330
22
100
AcDbEntity
  8
_2-8_DRAIN他
  6
Continuous
 62
     7
100
AcDbLine
 10
1085.824585677198
 20
1065.308308200701
 30
0.0
 11
1085.994630876308
 21
1065.141822057853
 31
0.0
  0
LINE
  5
2C3
330
22
100
AcDbEntity
  8
_2-8_DRAIN他
  6
Continuous
 62
     7
100
AcDbLine
 10
1085.994630876308
 20
1065.141822057853
 30
0.0
 11
1086.157944747587
 21
1064.968545054844
 31
0.0
  0
LINE
  5
2C4
330
22
100
AcDbEntity
  8
_2-8_DRAIN他
  6
Continuous
 62
     7
100
AcDbLine
 10
1086.157944747587
 20
1064.968545054844
 30
0.0
 11
1086.249013329526
 21
1064.864343746633
 31
0.0
  0
LINE
  5
2C5
330
22
100
AcDbEntity
  8
_2-8_DRAIN他
  6
Continuous
 62
     7
100
AcDbLine
 10
1086.249013329526
 20
1064.864343746633
 30
0.0
 11
1086.300672602163
 21
1064.802256471109
 31
0.0
  0
LINE
  5
2C6
330
22
100
AcDbEntity
  8
_2-8_DRAIN他
  6
Continuous
 62
     7
100
AcDbLine
 10
1086.300672602163
 20
1064.802256471109
 30
0.0
 11
1086.386997712468
 21
1064.692783731273
 31
0.0
  0
LINE
  5
2C7
330
22
100
AcDbEntity
  8
_2-8_DRAIN他
  6
Continuous
 62
     7
100
AcDbLine
 10
1086.386997712468
 20
1064.692783731273
 30
0.0
 11
1086.4693575846
 21
1064.580282473512
 31
0.0
  0
LINE
  5
2C8
330
22
100
AcDbEntity
  8
_2-8_DRAIN他
  6
Continuous
 62
     7
100
AcDbLine
 10
1086.4693575846
 20
1064.580282473512
 30
0.0
 11
1086.547178275346
 21
1064.4648015408
 31
0.0
  0
LINE
  5
2C9
330
22
100
AcDbEntity
  8
_2-8_DRAIN他
  6
Continuous
 62
     7
100
AcDbLine
 10
1086.547178275346
 20
1064.4648015408
 30
0.0
 11
1086.61988584149
 21
1064.346389776108
 31
0.0
  0
LINE
  5
2CA
330
22
100
AcDbEntity
  8
_2-8_DRAIN他
  6
Continuous
 62
     7
100
AcDbLine
 10
1086.61988584149
 20
1064.346389776108
 30
0.0
 11
1086.686906339819
 21
1064.225096022406
 31
0.0
  0
LINE
  5
2CB
330
22
100
AcDbEntity
  8
_2-8_DRAIN他
  6
Continuous
 62
     7
100
AcDbLine
 10
1086.686906339819
 20
1064.225096022406
 30
0.0
 11
1086.722946250906
 21
1064.153444364562
 31
0.0
  0
LINE
  5
2CC
330
22
100
AcDbEntity
  8
_2-8_DRAIN他
  6
Continuous
 62
     7
100
AcDbLine
 10
1086.722946250906
 20
1064.153444364562
 30
0.0
 11
1086.769598104264
 21
1064.051968473513
 31
0.0
  0
LINE
  5
2CD
330
22
100
AcDbEntity
  8
_2-8_DRAIN他
  6
Continuous
 62
     7
100
AcDbLine
 10
1086.769598104264
 20
1064.051968473513
 30
0.0
 11
1086.841084862615
 21
1063.873204094462
 31
0.0
  0
LINE
  5
2CE
330
22
100
AcDbEntity
  8
_2-8_DRAIN他
  6
Continuous
 62
     7
100
AcDbLine
 10
1086.841084862615
 20
1063.873204094462
 30
0.0
 11
1086.903036201238
 21
1063.690383676314
 31
0.0
  0
LINE
  5
2CF
330
22
100
AcDbEntity
  8
_2-8_DRAIN他
  6
Continuous
 62
     7
100
AcDbLine
 10
1086.903036201238
 20
1063.690383676314
 30
0.0
 11
1086.957534089506
 21
1063.504392817124
 31
0.0
  0
LINE
  5
2D0
330
22
100
AcDbEntity
  8
_2-8_DRAIN他
  6
Continuous
 62
     7
100
AcDbLine
 10
1086.957534089506
 20
1063.504392817124
 30
0.0
 11
1087.006660496794
 21
1063.316117114948
 31
0.0
  0
LINE
  5
2D1
330
22
100
AcDbEntity
  8
_2-8_DRAIN他
  6
Continuous
 62
     7
100
AcDbLine
 10
1087.006660496794
 20
1063.316117114948
 30
0.0
 11
1087.052497392472
 21
1063.126442167845
 31
0.0
  0
LINE
  5
2D2
330
22
100
AcDbEntity
  8
_2-8_DRAIN他
  6
Continuous
 62
     7
100
AcDbLine
 10
1087.052497392472
 20
1063.126442167845
 30
0.0
 11
1087.078395941941
 21
1063.016138536184
 31
0.0
  0
LINE
  5
2D3
330
22
100
AcDbEntity
  8
_2-3_
  6
Continuous
 62
     3
100
AcDbLine
 10
1076.330520079326
 20
1063.016138536184
 30
0.0
 11
1076.330520079326
 21
1068.016138536184
 31
0.0
  0
LINE
  5
2D4
330
22
100
AcDbEntity
  8
_2-3_
  6
Continuous
 62
     3
100
AcDbLine
 10
1076.330520079326
 20
1068.016138536184
 30
0.0
 11
1046.330520079326
 21
1068.016138536184
 31
0.0
  0
LINE
  5
2D5
330
22
100
AcDbEntity
  8
_2-8_DRAIN他
  6
Continuous
 62
     4
100
AcDbLine
 10
1073.811039792495
 20
1063.016138536184
 30
0.0
 11
1073.811039792495
 21
1068.016138536184
 31
0.0
  0
LINE
  5
2D6
330
22
100
AcDbEntity
  8
_2-8_DRAIN他
  6
Continuous
 62
     4
100
AcDbLine
 10
1068.811039792495
 20
1063.016138536184
 30
0.0
 11
1068.811039792495
 21
1068.016138536184
 31
0.0
  0
LINE
  5
2D7
330
22
100
AcDbEntity
  8
_2-8_DRAIN他
  6
Continuous
 62
     7
100
AcDbLine
 10
862.3276521462594
 20
1068.016138536184
 30
0.0
 11
862.309433358736
 21
1068.147043482865
 31
0.0
  0
LINE
  5
2D8
330
22
100
AcDbEntity
  8
_2-8_DRAIN他
  6
Continuous
 62
     7
100
AcDbLine
 10
862.309433358736
 20
1068.147043482865
 30
0.0
 11
862.2763665790753
 21
1068.372117417884
 31
0.0
  0
LINE
  5
2D9
330
22
100
AcDbEntity
  8
_2-8_DRAIN他
  6
Continuous
 62
     7
100
AcDbLine
 10
862.2763665790753
 20
1068.372117417884
 30
0.0
 11
862.2387023632088
 21
1068.595457328142
 31
0.0
  0
LINE
  5
2DA
330
22
100
AcDbEntity
  8
_2-8_DRAIN他
  6
Continuous
 62
     7
100
AcDbLine
 10
862.2387023632088
 20
1068.595457328142
 30
0.0
 11
862.1935309413858
 21
1068.815965729614
 31
0.0
  0
LINE
  5
2DB
330
22
100
AcDbEntity
  8
_2-8_DRAIN他
  6
Continuous
 62
     7
100
AcDbLine
 10
862.1935309413858
 20
1068.815965729614
 30
0.0
 11
862.1379425438547
 21
1069.03254513827
 31
0.0
  0
LINE
  5
2DC
330
22
100
AcDbEntity
  8
_2-8_DRAIN他
  6
Continuous
 62
     7
100
AcDbLine
 10
862.1379425438547
 20
1069.03254513827
 30
0.0
 11
862.0690274008659
 21
1069.244098070089
 31
0.0
  0
LINE
  5
2DD
330
22
100
AcDbEntity
  8
_2-8_DRAIN他
  6
Continuous
 62
     7
100
AcDbLine
 10
862.0690274008659
 20
1069.244098070089
 30
0.0
 11
862.0218037025736
 21
1069.364063173082
 31
0.0
  0
LINE
  5
2DE
330
22
100
AcDbEntity
  8
_2-8_DRAIN他
  6
Continuous
 62
     7
100
AcDbLine
 10
862.0218037025736
 20
1069.364063173082
 30
0.0
 11
861.9808626413103
 21
1069.456180012673
 31
0.0
  0
LINE
  5
2DF
330
22
100
AcDbEntity
  8
_2-8_DRAIN他
  6
Continuous
 62
     7
100
AcDbLine
 10
861.9808626413103
 20
1069.456180012673
 30
0.0
 11
861.9024474686273
 21
1069.611894315685
 31
0.0
  0
LINE
  5
2E0
330
22
100
AcDbEntity
  8
_2-8_DRAIN他
  6
Continuous
 62
     7
100
AcDbLine
 10
861.9024474686273
 20
1069.611894315685
 30
0.0
 11
861.8153404543013
 21
1069.763897918567
 31
0.0
  0
LINE
  5
2E1
330
22
100
AcDbEntity
  8
_2-8_DRAIN他
  6
Continuous
 62
     7
100
AcDbLine
 10
861.8153404543013
 20
1069.763897918567
 30
0.0
 11
861.720955465153
 21
1069.912450434367
 31
0.0
  0
LINE
  5
2E2
330
22
100
AcDbEntity
  8
_2-8_DRAIN他
  6
Continuous
 62
     7
100
AcDbLine
 10
861.720955465153
 20
1069.912450434367
 30
0.0
 11
861.6207063680089
 21
1070.057811476138
 31
0.0
  0
LINE
  5
2E3
330
22
100
AcDbEntity
  8
_2-8_DRAIN他
  6
Continuous
 62
     7
100
AcDbLine
 10
861.6207063680089
 20
1070.057811476138
 30
0.0
 11
861.5160070296919
 21
1070.200240656934
 31
0.0
  0
LINE
  5
2E4
330
22
100
AcDbEntity
  8
_2-8_DRAIN他
  6
Continuous
 62
     7
100
AcDbLine
 10
861.5160070296919
 20
1070.200240656934
 30
0.0
 11
861.4537994500134
 21
1070.28160850414
 31
0.0
  0
LINE
  5
2E5
330
22
100
AcDbEntity
  8
_2-8_DRAIN他
  6
Continuous
 62
     7
100
AcDbLine
 10
861.4537994500134
 20
1070.28160850414
 30
0.0
 11
861.3795831760777
 21
1070.376292096941
 31
0.0
  0
LINE
  5
2E6
330
22
100
AcDbEntity
  8
_2-8_DRAIN他
  6
Continuous
 62
     7
100
AcDbLine
 10
861.3795831760777
 20
1070.376292096941
 30
0.0
 11
861.2493582359743
 21
1070.537010890802
 31
0.0
  0
LINE
  5
2E7
330
22
100
AcDbEntity
  8
_2-8_DRAIN他
  6
Continuous
 62
     7
100
AcDbLine
 10
861.2493582359743
 20
1070.537010890802
 30
0.0
 11
861.1165064167529
 21
1070.694877653195
 31
0.0
  0
LINE
  5
2E8
330
22
100
AcDbEntity
  8
_2-8_DRAIN他
  6
Continuous
 62
     7
100
AcDbLine
 10
861.1165064167529
 20
1070.694877653195
 30
0.0
 11
860.9813082786255
 21
1070.850298146661
 31
0.0
  0
LINE
  5
2E9
330
22
100
AcDbEntity
  8
_2-8_DRAIN他
  6
Continuous
 62
     7
100
AcDbLine
 10
860.9813082786255
 20
1070.850298146661
 30
0.0
 11
860.844044381802
 21
1071.003678133747
 31
0.0
  0
LINE
  5
2EA
330
22
100
AcDbEntity
  8
_2-8_DRAIN他
  6
Continuous
 62
     7
100
AcDbLine
 10
860.844044381802
 20
1071.003678133747
 30
0.0
 11
860.704995286493
 21
1071.155423377004
 31
0.0
  0
LINE
  5
2EB
330
22
100
AcDbEntity
  8
_2-8_DRAIN他
  6
Continuous
 62
     7
100
AcDbLine
 10
860.704995286493
 20
1071.155423377004
 30
0.0
 11
860.623639388581
 21
1071.242846470009
 31
0.0
  0
LINE
  5
2EC
330
22
100
AcDbEntity
  8
_2-8_DRAIN他
  6
Continuous
 62
     7
100
AcDbLine
 10
860.623639388581
 20
1071.242846470009
 30
0.0
 11
860.5380043151663
 21
1071.333916644408
 31
0.0
  0
LINE
  5
2ED
330
22
100
AcDbEntity
  8
_2-8_DRAIN他
  6
Continuous
 62
     7
100
AcDbLine
 10
860.5380043151663
 20
1071.333916644408
 30
0.0
 11
860.3888069568588
 21
1071.489618393241
 31
0.0
  0
LINE
  5
2EE
330
22
100
AcDbEntity
  8
_2-8_DRAIN他
  6
Continuous
 62
     7
100
AcDbLine
 10
860.3888069568588
 20
1071.489618393241
 30
0.0
 11
860.237056743289
 21
1071.64296437164
 31
0.0
  0
LINE
  5
2EF
330
22
100
AcDbEntity
  8
_2-8_DRAIN他
  6
Continuous
 62
     7
100
AcDbLine
 10
860.237056743289
 20
1071.64296437164
 30
0.0
 11
860.0820676637855
 21
1071.793152010561
 31
0.0
  0
LINE
  5
2F0
330
22
100
AcDbEntity
  8
_2-8_DRAIN他
  6
Continuous
 62
     7
100
AcDbLine
 10
860.0820676637855
 20
1071.793152010561
 30
0.0
 11
859.9231537076788
 21
1071.939378740958
 31
0.0
  0
LINE
  5
2F1
330
22
100
AcDbEntity
  8
_2-8_DRAIN他
  6
Continuous
 62
     7
100
AcDbLine
 10
859.9231537076788
 20
1071.939378740958
 30
0.0
 11
859.7596288642979
 21
1072.080841993786
 31
0.0
  0
LINE
  5
2F2
330
22
100
AcDbEntity
  8
_2-8_DRAIN他
  6
Continuous
 62
     7
100
AcDbLine
 10
859.7596288642979
 20
1072.080841993786
 30
0.0
 11
859.662401422711
 21
1072.160391801066
 31
0.0
  0
LINE
  5
2F3
330
22
100
AcDbEntity
  8
_2-8_DRAIN他
  6
Continuous
 62
     7
100
AcDbLine
 10
859.662401422711
 20
1072.160391801066
 30
0.0
 11
859.5747477231682
 21
1072.229117153563
 31
0.0
  0
LINE
  5
2F4
330
22
100
AcDbEntity
  8
_2-8_DRAIN他
  6
Continuous
 62
     7
100
AcDbLine
 10
859.5747477231682
 20
1072.229117153563
 30
0.0
 11
859.420134623248
 21
1072.343329921364
 31
0.0
  0
LINE
  5
2F5
330
22
100
AcDbEntity
  8
_2-8_DRAIN他
  6
Continuous
 62
     7
100
AcDbLine
 10
859.420134623248
 20
1072.343329921364
 30
0.0
 11
859.261169480059
 21
1072.451302610295
 31
0.0
  0
LINE
  5
2F6
330
22
100
AcDbEntity
  8
_2-8_DRAIN他
  6
Continuous
 62
     7
100
AcDbLine
 10
859.261169480059
 20
1072.451302610295
 30
0.0
 11
859.0979228228322
 21
1072.552077841722
 31
0.0
  0
LINE
  5
2F7
330
22
100
AcDbEntity
  8
_2-8_DRAIN他
  6
Continuous
 62
     7
100
AcDbLine
 10
859.0979228228322
 20
1072.552077841722
 30
0.0
 11
858.9304651808006
 21
1072.644698237007
 31
0.0
  0
LINE
  5
2F8
330
22
100
AcDbEntity
  8
_2-8_DRAIN他
  6
Continuous
 62
     7
100
AcDbLine
 10
858.9304651808006
 20
1072.644698237007
 30
0.0
 11
858.7588670831966
 21
1072.728206417519
 31
0.0
  0
LINE
  5
2F9
330
22
100
AcDbEntity
  8
_2-8_DRAIN他
  6
Continuous
 62
     7
100
AcDbLine
 10
858.7588670831966
 20
1072.728206417519
 30
0.0
 11
858.6574708220283
 21
1072.772088688439
 31
0.0
  0
LINE
  5
2FA
330
22
100
AcDbEntity
  8
_2-8_DRAIN他
  6
Continuous
 62
     7
100
AcDbLine
 10
858.6574708220283
 20
1072.772088688439
 30
0.0
 11
858.5435653292895
 21
1072.816617401702
 31
0.0
  0
LINE
  5
2FB
330
22
100
AcDbEntity
  8
_2-8_DRAIN他
  6
Continuous
 62
     7
100
AcDbLine
 10
858.5435653292895
 20
1072.816617401702
 30
0.0
 11
858.3436768714344
 21
1072.883928030117
 31
0.0
  0
LINE
  5
2FC
330
22
100
AcDbEntity
  8
_2-8_DRAIN他
  6
Continuous
 62
     7
100
AcDbLine
 10
858.3436768714344
 20
1072.883928030117
 30
0.0
 11
858.1399747725768
 21
1072.940531581614
 31
0.0
  0
LINE
  5
2FD
330
22
100
AcDbEntity
  8
_2-8_DRAIN他
  6
Continuous
 62
     7
100
AcDbLine
 10
858.1399747725768
 20
1072.940531581614
 30
0.0
 11
857.9331756957676
 21
1072.987906455346
 31
0.0
  0
LINE
  5
2FE
330
22
100
AcDbEntity
  8
_2-8_DRAIN他
  6
Continuous
 62
     7
100
AcDbLine
 10
857.9331756957676
 20
1072.987906455346
 30
0.0
 11
857.7239963040586
 21
1073.027531050454
 31
0.0
  0
LINE
  5
2FF
330
22
100
AcDbEntity
  8
_2-8_DRAIN他
  6
Continuous
 62
     7
100
AcDbLine
 10
857.7239963040586
 20
1073.027531050454
 30
0.0
 11
857.5131532605032
 21
1073.060883766091
 31
0.0
  0
LINE
  5
300
330
22
100
AcDbEntity
  8
_2-8_DRAIN他
  6
Continuous
 62
     7
100
AcDbLine
 10
857.5131532605032
 20
1073.060883766091
 30
0.0
 11
857.3903844124719
 21
1073.077937132125
 31
0.0
  0
LINE
  5
301
330
22
100
AcDbEntity
  8
_2-8_DRAIN他
  6
Continuous
 62
     7
100
AcDbLine
 10
857.3903844124719
 20
1073.077937132125
 30
0.0
 11
857.2419274423896
 21
1073.096654131391
 31
0.0
  0
LINE
  5
302
330
22
100
AcDbEntity
  8
_2-8_DRAIN他
  6
Continuous
 62
     7
100
AcDbLine
 10
857.2419274423896
 20
1073.096654131391
 30
0.0
 11
856.9856071771042
 21
1073.123560892482
 31
0.0
  0
LINE
  5
303
330
22
100
AcDbEntity
  8
_2-8_DRAIN他
  6
Continuous
 62
     7
100
AcDbLine
 10
856.9856071771042
 20
1073.123560892482
 30
0.0
 11
856.7292118485241
 21
1073.14241913978
 31
0.0
  0
LINE
  5
304
330
22
100
AcDbEntity
  8
_2-8_DRAIN他
  6
Continuous
 62
     7
100
AcDbLine
 10
856.7292118485241
 20
1073.14241913978
 30
0.0
 11
856.4731840118932
 21
1073.151765230966
 31
0.0
  0
LINE
  5
305
330
22
100
AcDbEntity
  8
_2-8_DRAIN他
  6
Continuous
 62
     7
100
AcDbLine
 10
856.4731840118932
 20
1073.151765230966
 30
0.0
 11
856.2179662224583
 21
1073.15013552372
 31
0.0
  0
LINE
  5
306
330
22
100
AcDbEntity
  8
_2-8_DRAIN他
  6
Continuous
 62
     7
100
AcDbLine
 10
856.2179662224583
 20
1073.15013552372
 30
0.0
 11
855.9640010354669
 21
1073.136066375716
 31
0.0
  0
LINE
  5
307
330
22
100
AcDbEntity
  8
_2-8_DRAIN他
  6
Continuous
 62
     7
100
AcDbLine
 10
855.9640010354669
 20
1073.136066375716
 30
0.0
 11
855.8174495592313
 21
1073.121629766938
 31
0.0
  0
LINE
  5
308
330
22
100
AcDbEntity
  8
_2-8_DRAIN他
  6
Continuous
 62
     7
100
AcDbLine
 10
855.8174495592313
 20
1073.121629766938
 30
0.0
 11
855.7101053676641
 21
1073.107939980852
 31
0.0
  0
LINE
  5
309
330
22
100
AcDbEntity
  8
_2-8_DRAIN他
  6
Continuous
 62
     7
100
AcDbLine
 10
855.7101053676641
 20
1073.107939980852
 30
0.0
 11
855.5256553068955
 21
1073.07898034961
 31
0.0
  0
LINE
  5
30A
330
22
100
AcDbEntity
  8
_2-8_DRAIN他
  6
Continuous
 62
     7
100
AcDbLine
 10
855.5256553068955
 20
1073.07898034961
 30
0.0
 11
855.3416844494542
 21
1073.044664868073
 31
0.0
  0
LINE
  5
30B
330
22
100
AcDbEntity
  8
_2-8_DRAIN他
  6
Continuous
 62
     7
100
AcDbLine
 10
855.3416844494542
 20
1073.044664868073
 30
0.0
 11
855.1578284135965
 21
1073.006650042045
 31
0.0
  0
LINE
  5
30C
330
22
100
AcDbEntity
  8
_2-8_DRAIN他
  6
Continuous
 62
     7
100
AcDbLine
 10
855.1578284135965
 20
1073.006650042045
 30
0.0
 11
854.9737228175764
 21
1072.966592377338
 31
0.0
  0
LINE
  5
30D
330
22
100
AcDbEntity
  8
_2-8_DRAIN他
  6
Continuous
 62
     7
100
AcDbLine
 10
854.9737228175764
 20
1072.966592377338
 30
0.0
 11
854.789003279648
 21
1072.926148379763
 31
0.0
  0
LINE
  5
30E
330
22
100
AcDbEntity
  8
_2-8_DRAIN他
  6
Continuous
 62
     7
100
AcDbLine
 10
854.789003279648
 20
1072.926148379763
 30
0.0
 11
854.6814410541118
 21
1072.903166592876
 31
0.0
  0
LINE
  5
30F
330
22
100
AcDbEntity
  8
_2-8_DRAIN他
  6
Continuous
 62
     7
100
AcDbLine
 10
854.6814410541118
 20
1072.903166592876
 30
0.0
 11
854.5593298227837
 21
1072.877892871377
 31
0.0
  0
LINE
  5
310
330
22
100
AcDbEntity
  8
_2-8_DRAIN他
  6
Continuous
 62
     7
100
AcDbLine
 10
854.5593298227837
 20
1072.877892871377
 30
0.0
 11
854.3485317992203
 21
1072.834543355143
 31
0.0
  0
LINE
  5
311
330
22
100
AcDbEntity
  8
_2-8_DRAIN他
  6
Continuous
 62
     7
100
AcDbLine
 10
854.3485317992203
 20
1072.834543355143
 30
0.0
 11
854.1388265753825
 21
1072.788410196995
 31
0.0
  0
LINE
  5
312
330
22
100
AcDbEntity
  8
_2-8_DRAIN他
  6
Continuous
 62
     7
100
AcDbLine
 10
854.1388265753825
 20
1072.788410196995
 30
0.0
 11
853.9318696261149
 21
1072.73592415529
 31
0.0
  0
LINE
  5
313
330
22
100
AcDbEntity
  8
_2-8_DRAIN他
  6
Continuous
 62
     7
100
AcDbLine
 10
853.9318696261149
 20
1072.73592415529
 30
0.0
 11
853.7293164262601
 21
1072.673515988392
 31
0.0
  0
LINE
  5
314
330
22
100
AcDbEntity
  8
_2-8_DRAIN他
  6
Continuous
 62
     7
100
AcDbLine
 10
853.7293164262601
 20
1072.673515988392
 30
0.0
 11
853.5328224506613
 21
1072.597616454656
 31
0.0
  0
LINE
  5
315
330
22
100
AcDbEntity
  8
_2-8_DRAIN他
  6
Continuous
 62
     7
100
AcDbLine
 10
853.5328224506613
 20
1072.597616454656
 30
0.0
 11
853.4222846245407
 21
1072.546006514001
 31
0.0
  0
LINE
  5
316
330
22
100
AcDbEntity
  8
_2-8_DRAIN他
  6
Continuous
 62
     7
100
AcDbLine
 10
853.4222846245407
 20
1072.546006514001
 30
0.0
 11
853.322962393361
 21
1072.492921042078
 31
0.0
  0
LINE
  5
317
330
22
100
AcDbEntity
  8
_2-8_DRAIN他
  6
Continuous
 62
     7
100
AcDbLine
 10
853.322962393361
 20
1072.492921042078
 30
0.0
 11
853.157538478171
 21
1072.38963476098
 31
0.0
  0
LINE
  5
318
330
22
100
AcDbEntity
  8
_2-8_DRAIN他
  6
Continuous
 62
     7
100
AcDbLine
 10
853.157538478171
 20
1072.38963476098
 30
0.0
 11
852.9994869068119
 21
1072.273085129247
 31
0.0
  0
LINE
  5
319
330
22
100
AcDbEntity
  8
_2-8_DRAIN他
  6
Continuous
 62
     7
100
AcDbLine
 10
852.9994869068119
 20
1072.273085129247
 30
0.0
 11
852.8488118603936
 21
1072.145158455932
 31
0.0
  0
LINE
  5
31A
330
22
100
AcDbEntity
  8
_2-8_DRAIN他
  6
Continuous
 62
     7
100
AcDbLine
 10
852.8488118603936
 20
1072.145158455932
 30
0.0
 11
852.7055175200279
 21
1072.007741050086
 31
0.0
  0
LINE
  5
31B
330
22
100
AcDbEntity
  8
_2-8_DRAIN他
  6
Continuous
 62
     7
100
AcDbLine
 10
852.7055175200279
 20
1072.007741050086
 30
0.0
 11
852.5696080668241
 21
1071.862719220756
 31
0.0
  0
LINE
  5
31C
330
22
100
AcDbEntity
  8
_2-8_DRAIN他
  6
Continuous
 62
     7
100
AcDbLine
 10
852.5696080668241
 20
1071.862719220756
 30
0.0
 11
852.4941659868376
 21
1071.775865516758
 31
0.0
  0
LINE
  5
31D
330
22
100
AcDbEntity
  8
_2-8_DRAIN他
  6
Continuous
 62
     7
100
AcDbLine
 10
852.4941659868376
 20
1071.775865516758
 30
0.0
 11
852.4098709624663
 21
1071.673298128767
 31
0.0
  0
LINE
  5
31E
330
22
100
AcDbEntity
  8
_2-8_DRAIN他
  6
Continuous
 62
     7
100
AcDbLine
 10
852.4098709624663
 20
1071.673298128767
 30
0.0
 11
852.2716991031986
 21
1071.492013119032
 31
0.0
  0
LINE
  5
31F
330
22
100
AcDbEntity
  8
_2-8_DRAIN他
  6
Continuous
 62
     7
100
AcDbLine
 10
852.2716991031986
 20
1071.492013119032
 30
0.0
 11
852.1415888361788
 21
1071.30578844441
 31
0.0
  0
LINE
  5
320
330
22
100
AcDbEntity
  8
_2-8_DRAIN他
  6
Continuous
 62
     7
100
AcDbLine
 10
852.1415888361788
 20
1071.30578844441
 30
0.0
 11
852.0183689341925
 21
1071.11542238332
 31
0.0
  0
LINE
  5
321
330
22
100
AcDbEntity
  8
_2-8_DRAIN他
  6
Continuous
 62
     7
100
AcDbLine
 10
852.0183689341925
 20
1071.11542238332
 30
0.0
 11
851.9008681700237
 21
1070.921713214177
 31
0.0
  0
LINE
  5
322
330
22
100
AcDbEntity
  8
_2-8_DRAIN他
  6
Continuous
 62
     7
100
AcDbLine
 10
851.9008681700237
 20
1070.921713214177
 30
0.0
 11
851.7879153164543
 21
1070.725459215396
 31
0.0
  0
LINE
  5
323
330
22
100
AcDbEntity
  8
_2-8_DRAIN他
  6
Continuous
 62
     7
100
AcDbLine
 10
851.7879153164543
 20
1070.725459215396
 30
0.0
 11
851.7240249895953
 21
1070.610780418367
 31
0.0
  0
LINE
  5
324
330
22
100
AcDbEntity
  8
_2-8_DRAIN他
  6
Continuous
 62
     7
100
AcDbLine
 10
851.7240249895953
 20
1070.610780418367
 30
0.0
 11
851.6567576220882
 21
1070.48771382623
 31
0.0
  0
LINE
  5
325
330
22
100
AcDbEntity
  8
_2-8_DRAIN他
  6
Continuous
 62
     7
100
AcDbLine
 10
851.6567576220882
 20
1070.48771382623
 30
0.0
 11
851.5427763808807
 21
1070.274507069862
 31
0.0
  0
LINE
  5
326
330
22
100
AcDbEntity
  8
_2-8_DRAIN他
  6
Continuous
 62
     7
100
AcDbLine
 10
851.5427763808807
 20
1070.274507069862
 30
0.0
 11
851.4306618325171
 21
1070.060210070326
 31
0.0
  0
LINE
  5
327
330
22
100
AcDbEntity
  8
_2-8_DRAIN他
  6
Continuous
 62
     7
100
AcDbLine
 10
851.4306618325171
 20
1070.060210070326
 30
0.0
 11
851.3196452232696
 21
1069.84506080925
 31
0.0
  0
LINE
  5
328
330
22
100
AcDbEntity
  8
_2-8_DRAIN他
  6
Continuous
 62
     7
100
AcDbLine
 10
851.3196452232696
 20
1069.84506080925
 30
0.0
 11
851.2089577994109
 21
1069.62929726827
 31
0.0
  0
LINE
  5
329
330
22
100
AcDbEntity
  8
_2-8_DRAIN他
  6
Continuous
 62
     7
100
AcDbLine
 10
851.2089577994109
 20
1069.62929726827
 30
0.0
 11
851.0978308072131
 21
1069.413157429014
 31
0.0
  0
LINE
  5
32A
330
22
100
AcDbEntity
  8
_2-8_DRAIN他
  6
Continuous
 62
     7
100
AcDbLine
 10
851.0978308072131
 20
1069.413157429014
 30
0.0
 11
851.0328728125822
 21
1069.287717679513
 31
0.0
  0
LINE
  5
32B
330
22
100
AcDbEntity
  8
_2-8_DRAIN他
  6
Continuous
 62
     7
100
AcDbLine
 10
851.0328728125822
 20
1069.287717679513
 30
0.0
 11
850.9444593584067
 21
1069.118889496508
 31
0.0
  0
LINE
  5
32C
330
22
100
AcDbEntity
  8
_2-8_DRAIN他
  6
Continuous
 62
     7
100
AcDbLine
 10
850.9444593584067
 20
1069.118889496508
 30
0.0
 11
850.7879545424772
 21
1068.82949373062
 31
0.0
  0
LINE
  5
32D
330
22
100
AcDbEntity
  8
_2-8_DRAIN他
  6
Continuous
 62
     7
100
AcDbLine
 10
850.7879545424772
 20
1068.82949373062
 30
0.0
 11
850.6237329492492
 21
1068.544785554368
 31
0.0
  0
LINE
  5
32E
330
22
100
AcDbEntity
  8
_2-8_DRAIN他
  6
Continuous
 62
     7
100
AcDbLine
 10
850.6237329492492
 20
1068.544785554368
 30
0.0
 11
850.4488089618646
 21
1068.26773212635
 31
0.0
  0
LINE
  5
32F
330
22
100
AcDbEntity
  8
_2-8_DRAIN他
  6
Continuous
 62
     7
100
AcDbLine
 10
850.4488089618646
 20
1068.26773212635
 30
0.0
 11
850.2601969634635
 21
1068.001300605164
 31
0.0
  0
LINE
  5
330
330
22
100
AcDbEntity
  8
_2-8_DRAIN他
  6
Continuous
 62
     7
100
AcDbLine
 10
850.2601969634635
 20
1068.001300605164
 30
0.0
 11
850.0549113371883
 21
1067.748458149406
 31
0.0
  0
LINE
  5
331
330
22
100
AcDbEntity
  8
_2-8_DRAIN他
  6
Continuous
 62
     7
100
AcDbLine
 10
850.0549113371883
 20
1067.748458149406
 30
0.0
 11
849.9270293293628
 21
1067.609205249625
 31
0.0
  0
LINE
  5
332
330
22
100
AcDbEntity
  8
_2-8_DRAIN他
  6
Continuous
 62
     7
100
AcDbLine
 10
849.9270293293628
 20
1067.609205249625
 30
0.0
 11
849.8808141570577
 21
1067.562100243715
 31
0.0
  0
LINE
  5
333
330
22
100
AcDbEntity
  8
_2-8_DRAIN他
  6
Continuous
 62
     7
100
AcDbLine
 10
849.8808141570577
 20
1067.562100243715
 30
0.0
 11
849.7991148955168
 21
1067.48275514868
 31
0.0
  0
LINE
  5
334
330
22
100
AcDbEntity
  8
_2-8_DRAIN他
  6
Continuous
 62
     7
100
AcDbLine
 10
849.7991148955168
 20
1067.48275514868
 30
0.0
 11
849.7149125031867
 21
1067.405955039239
 31
0.0
  0
LINE
  5
335
330
22
100
AcDbEntity
  8
_2-8_DRAIN他
  6
Continuous
 62
     7
100
AcDbLine
 10
849.7149125031867
 20
1067.405955039239
 30
0.0
 11
849.628266527692
 21
1067.331906135912
 31
0.0
  0
LINE
  5
336
330
22
100
AcDbEntity
  8
_2-8_DRAIN他
  6
Continuous
 62
     7
100
AcDbLine
 10
849.628266527692
 20
1067.331906135912
 30
0.0
 11
849.5392365166562
 21
1067.260814659223
 31
0.0
  0
LINE
  5
337
330
22
100
AcDbEntity
  8
_2-8_DRAIN他
  6
Continuous
 62
     7
100
AcDbLine
 10
849.5392365166562
 20
1067.260814659223
 30
0.0
 11
849.4478820177041
 21
1067.192886829693
 31
0.0
  0
LINE
  5
338
330
22
100
AcDbEntity
  8
_2-8_DRAIN他
  6
Continuous
 62
     7
100
AcDbLine
 10
849.4478820177041
 20
1067.192886829693
 30
0.0
 11
849.3938547928101
 21
1067.155019533304
 31
0.0
  0
LINE
  5
339
330
22
100
AcDbEntity
  8
_2-8_DRAIN他
  6
Continuous
 62
     7
100
AcDbLine
 10
849.3938547928101
 20
1067.155019533304
 30
0.0
 11
849.3042533817222
 21
1067.095726842924
 31
0.0
  0
LINE
  5
33A
330
22
100
AcDbEntity
  8
_2-8_DRAIN他
  6
Continuous
 62
     7
100
AcDbLine
 10
849.3042533817222
 20
1067.095726842924
 30
0.0
 11
849.1460619375509
 21
1066.999313578731
 31
0.0
  0
LINE
  5
33B
330
22
100
AcDbEntity
  8
_2-8_DRAIN他
  6
Continuous
 62
     7
100
AcDbLine
 10
849.1460619375509
 20
1066.999313578731
 30
0.0
 11
848.9846506505184
 21
1066.907985169659
 31
0.0
  0
LINE
  5
33C
330
22
100
AcDbEntity
  8
_2-8_DRAIN他
  6
Continuous
 62
     7
100
AcDbLine
 10
848.9846506505184
 20
1066.907985169659
 30
0.0
 11
848.8217307022251
 21
1066.819094461209
 31
0.0
  0
LINE
  5
33D
330
22
100
AcDbEntity
  8
_2-8_DRAIN他
  6
Continuous
 62
     7
100
AcDbLine
 10
848.8217307022251
 20
1066.819094461209
 30
0.0
 11
848.6590132742723
 21
1066.729994298873
 31
0.0
  0
LINE
  5
33E
330
22
100
AcDbEntity
  8
_2-8_DRAIN他
  6
Continuous
 62
     7
100
AcDbLine
 10
848.6590132742723
 20
1066.729994298873
 30
0.0
 11
848.4982095482601
 21
1066.638037528148
 31
0.0
  0
LINE
  5
33F
330
22
100
AcDbEntity
  8
_2-8_DRAIN他
  6
Continuous
 62
     7
100
AcDbLine
 10
848.4982095482601
 20
1066.638037528148
 30
0.0
 11
848.4064945399349
 21
1066.582350586636
 31
0.0
  0
LINE
  5
340
330
22
100
AcDbEntity
  8
_2-8_DRAIN他
  6
Continuous
 62
     7
100
AcDbLine
 10
848.4064945399349
 20
1066.582350586636
 30
0.0
 11
848.3140835475355
 21
1066.522985816764
 31
0.0
  0
LINE
  5
341
330
22
100
AcDbEntity
  8
_2-8_DRAIN他
  6
Continuous
 62
     7
100
AcDbLine
 10
848.3140835475355
 20
1066.522985816764
 30
0.0
 11
848.1581405453814
 21
1066.415484054996
 31
0.0
  0
LINE
  5
342
330
22
100
AcDbEntity
  8
_2-8_DRAIN他
  6
Continuous
 62
     7
100
AcDbLine
 10
848.1581405453814
 20
1066.415484054996
 30
0.0
 11
848.0058180031599
 21
1066.302500865026
 31
0.0
  0
LINE
  5
343
330
22
100
AcDbEntity
  8
_2-8_DRAIN他
  6
Continuous
 62
     7
100
AcDbLine
 10
848.0058180031599
 20
1066.302500865026
 30
0.0
 11
847.8563415144245
 21
1066.185240812631
 31
0.0
  0
LINE
  5
344
330
22
100
AcDbEntity
  8
_2-8_DRAIN他
  6
Continuous
 62
     7
100
AcDbLine
 10
847.8563415144245
 20
1066.185240812631
 30
0.0
 11
847.7089366727321
 21
1066.064908463583
 31
0.0
  0
LINE
  5
345
330
22
100
AcDbEntity
  8
_2-8_DRAIN他
  6
Continuous
 62
     7
100
AcDbLine
 10
847.7089366727321
 20
1066.064908463583
 30
0.0
 11
847.5628290716352
 21
1065.942708383659
 31
0.0
  0
LINE
  5
346
330
22
100
AcDbEntity
  8
_2-8_DRAIN他
  6
Continuous
 62
     7
100
AcDbLine
 10
847.5628290716352
 20
1065.942708383659
 30
0.0
 11
847.478375902232
 21
1065.871451204566
 31
0.0
  0
LINE
  5
347
330
22
100
AcDbEntity
  8
_2-8_DRAIN他
  6
Continuous
 62
     7
100
AcDbLine
 10
847.478375902232
 20
1065.871451204566
 30
0.0
 11
847.3725340386137
 21
1065.781970620665
 31
0.0
  0
LINE
  5
348
330
22
100
AcDbEntity
  8
_2-8_DRAIN他
  6
Continuous
 62
     7
100
AcDbLine
 10
847.3725340386137
 20
1065.781970620665
 30
0.0
 11
847.1909612603043
 21
1065.62688756687
 31
0.0
  0
LINE
  5
349
330
22
100
AcDbEntity
  8
_2-8_DRAIN他
  6
Continuous
 62
     7
100
AcDbLine
 10
847.1909612603043
 20
1065.62688756687
 30
0.0
 11
847.0117866076783
 21
1065.469498398629
 31
0.0
  0
LINE
  5
34A
330
22
100
AcDbEntity
  8
_2-8_DRAIN他
  6
Continuous
 62
     7
100
AcDbLine
 10
847.0117866076783
 20
1065.469498398629
 30
0.0
 11
846.8364544814543
 21
1065.308308200701
 31
0.0
  0
LINE
  5
34B
330
22
100
AcDbEntity
  8
_2-8_DRAIN他
  6
Continuous
 62
     7
100
AcDbLine
 10
846.8364544814543
 20
1065.308308200701
 30
0.0
 11
846.6664092823444
 21
1065.141822057853
 31
0.0
  0
LINE
  5
34C
330
22
100
AcDbEntity
  8
_2-8_DRAIN他
  6
Continuous
 62
     7
100
AcDbLine
 10
846.6664092823444
 20
1065.141822057853
 30
0.0
 11
846.5030954110661
 21
1064.968545054844
 31
0.0
  0
LINE
  5
34D
330
22
100
AcDbEntity
  8
_2-8_DRAIN他
  6
Continuous
 62
     7
100
AcDbLine
 10
846.5030954110661
 20
1064.968545054844
 30
0.0
 11
846.4120268291267
 21
1064.864343746633
 31
0.0
  0
LINE
  5
34E
330
22
100
AcDbEntity
  8
_2-8_DRAIN他
  6
Continuous
 62
     7
100
AcDbLine
 10
846.4120268291267
 20
1064.864343746633
 30
0.0
 11
846.3603675564904
 21
1064.802256471109
 31
0.0
  0
LINE
  5
34F
330
22
100
AcDbEntity
  8
_2-8_DRAIN他
  6
Continuous
 62
     7
100
AcDbLine
 10
846.3603675564904
 20
1064.802256471109
 30
0.0
 11
846.2740424461847
 21
1064.692783731273
 31
0.0
  0
LINE
  5
350
330
22
100
AcDbEntity
  8
_2-8_DRAIN他
  6
Continuous
 62
     7
100
AcDbLine
 10
846.2740424461847
 20
1064.692783731273
 30
0.0
 11
846.1916825740527
 21
1064.580282473512
 31
0.0
  0
LINE
  5
351
330
22
100
AcDbEntity
  8
_2-8_DRAIN他
  6
Continuous
 62
     7
100
AcDbLine
 10
846.1916825740527
 20
1064.580282473512
 30
0.0
 11
846.1138618833071
 21
1064.4648015408
 31
0.0
  0
LINE
  5
352
330
22
100
AcDbEntity
  8
_2-8_DRAIN他
  6
Continuous
 62
     7
100
AcDbLine
 10
846.1138618833071
 20
1064.4648015408
 30
0.0
 11
846.0411543171634
 21
1064.346389776108
 31
0.0
  0
LINE
  5
353
330
22
100
AcDbEntity
  8
_2-8_DRAIN他
  6
Continuous
 62
     7
100
AcDbLine
 10
846.0411543171634
 20
1064.346389776108
 30
0.0
 11
845.9741338188338
 21
1064.225096022406
 31
0.0
  0
LINE
  5
354
330
22
100
AcDbEntity
  8
_2-8_DRAIN他
  6
Continuous
 62
     7
100
AcDbLine
 10
845.9741338188338
 20
1064.225096022406
 30
0.0
 11
845.9380939077473
 21
1064.153444364562
 31
0.0
  0
LINE
  5
355
330
22
100
AcDbEntity
  8
_2-8_DRAIN他
  6
Continuous
 62
     7
100
AcDbLine
 10
845.9380939077473
 20
1064.153444364562
 30
0.0
 11
845.8914420543887
 21
1064.051968473513
 31
0.0
  0
LINE
  5
356
330
22
100
AcDbEntity
  8
_2-8_DRAIN他
  6
Continuous
 62
     7
100
AcDbLine
 10
845.8914420543887
 20
1064.051968473513
 30
0.0
 11
845.8199552960378
 21
1063.873204094462
 31
0.0
  0
LINE
  5
357
330
22
100
AcDbEntity
  8
_2-8_DRAIN他
  6
Continuous
 62
     7
100
AcDbLine
 10
845.8199552960378
 20
1063.873204094462
 30
0.0
 11
845.7580039574148
 21
1063.690383676314
 31
0.0
  0
LINE
  5
358
330
22
100
AcDbEntity
  8
_2-8_DRAIN他
  6
Continuous
 62
     7
100
AcDbLine
 10
845.7580039574148
 20
1063.690383676314
 30
0.0
 11
845.7035060691465
 21
1063.504392817124
 31
0.0
  0
LINE
  5
359
330
22
100
AcDbEntity
  8
_2-8_DRAIN他
  6
Continuous
 62
     7
100
AcDbLine
 10
845.7035060691465
 20
1063.504392817124
 30
0.0
 11
845.6543796618587
 21
1063.316117114948
 31
0.0
  0
LINE
  5
35A
330
22
100
AcDbEntity
  8
_2-8_DRAIN他
  6
Continuous
 62
     7
100
AcDbLine
 10
845.6543796618587
 20
1063.316117114948
 30
0.0
 11
845.6085427661811
 21
1063.126442167845
 31
0.0
  0
LINE
  5
35B
330
22
100
AcDbEntity
  8
_2-8_DRAIN他
  6
Continuous
 62
     7
100
AcDbLine
 10
845.6085427661811
 20
1063.126442167845
 30
0.0
 11
845.5826442167122
 21
1063.016138536184
 31
0.0
  0
LINE
  5
35C
330
22
100
AcDbEntity
  8
_2-3_
  6
Continuous
 62
     3
100
AcDbLine
 10
856.3305200793264
 20
1063.016138536184
 30
0.0
 11
856.3305200793264
 21
1068.016138536184
 31
0.0
  0
LINE
  5
35D
330
22
100
AcDbEntity
  8
_2-3_
  6
Continuous
 62
     3
100
AcDbLine
 10
856.3305200793264
 20
1068.016138536184
 30
0.0
 11
886.3305200793265
 21
1068.016138536184
 31
0.0
  0
LINE
  5
35E
330
22
100
AcDbEntity
  8
_2-8_DRAIN他
  6
Continuous
 62
     4
100
AcDbLine
 10
863.8110397924936
 20
1063.016138536184
 30
0.0
 11
863.8110397924936
 21
1068.016138536184
 31
0.0
  0
LINE
  5
35F
330
22
100
AcDbEntity
  8
_2-8_DRAIN他
  6
Continuous
 62
     4
100
AcDbLine
 10
858.8110397924937
 20
1063.016138536184
 30
0.0
 11
858.8110397924937
 21
1068.016138536184
 31
0.0
  0
LINE
  5
360
330
22
100
AcDbEntity
  8
_2-8_DRAIN他
  6
Continuous
 62
     7
100
AcDbLine
 10
904.7934320971641
 20
1070.016138536184
 30
0.0
 11
1026.330520079326
 21
1070.016138536184
 31
0.0
  0
LINE
  5
361
330
22
100
AcDbEntity
  8
_2-8_DRAIN他
  6
Continuous
 62
     7
100
AcDbLine
 10
1026.330520079326
 20
1070.016138536184
 30
0.0
 11
1026.330520079326
 21
1070.630973729048
 31
0.0
  0
ARC
  5
362
330
22
100
AcDbEntity
  8
_2-8_DRAIN他
  6
Continuous
 62
     7
100
AcDbCircle
 10
1016.918146049836
 20
1067.516138536184
 30
0.0
 40
5.071394736768276
100
AcDbArc
 50
330.4646116574325
 51
29.53538834256749
  0
ARC
  5
363
330
22
100
AcDbEntity
  8
_2-8_DRAIN他
  6
Continuous
 62
     7
100
AcDbCircle
 10
1017.742894108817
 20
1067.516138536184
 30
0.0
 40
5.071394736768276
100
AcDbArc
 50
150.4646116574325
 51
209.5353883425675
  0
LINE
  5
364
330
22
100
AcDbEntity
  8
_2-D_ハッチ他
  6
Continuous
 62
     4
100
AcDbLine
 10
1013.330520079327
 20
1065.016138536184
 30
0.0
 11
1021.330520079327
 21
1070.016138536184
 31
0.0
  0
LINE
  5
365
330
22
100
AcDbEntity
  8
_2-D_ハッチ他
  6
Continuous
 62
     4
100
AcDbLine
 10
1021.330520079327
 20
1065.016138536184
 30
0.0
 11
1013.330520079327
 21
1070.016138536184
 31
0.0
  0
LINE
  5
366
330
22
100
AcDbEntity
  8
_2-D_ハッチ他
  6
Continuous
 62
     4
100
AcDbLine
 10
1039.372144985229
 20
1065.016138536184
 30
0.0
 11
1039.656563007016
 21
1065.300556557972
 31
0.0
  0
LINE
  5
367
330
22
100
AcDbEntity
  8
_2-D_ハッチ他
  6
Continuous
 62
     4
100
AcDbLine
 10
1037.250824641664
 20
1065.016138536178
 30
0.0
 11
1038.141334190186
 21
1065.906648084701
 31
0.0
  0
LINE
  5
368
330
22
100
AcDbEntity
  8
_2-D_ハッチ他
  6
Continuous
 62
     4
100
AcDbLine
 10
1035.1295042981
 20
1065.016138536182
 30
0.0
 11
1036.626105373355
 21
1066.512739611437
 31
0.0
  0
LINE
  5
369
330
22
100
AcDbEntity
  8
_2-D_ハッチ他
  6
Continuous
 62
     4
100
AcDbLine
 10
1033.008183954544
 20
1065.016138536184
 30
0.0
 11
1035.110876556528
 21
1067.118831138168
 31
0.0
  0
LINE
  5
36A
330
22
100
AcDbEntity
  8
_2-D_ハッチ他
  6
Continuous
 62
     4
100
AcDbLine
 10
1030.886863610984
 20
1065.016138536182
 30
0.0
 11
1033.5956477397
 21
1067.724922664897
 31
0.0
  0
LINE
  5
36B
330
22
100
AcDbEntity
  8
_2-D_ハッチ他
  6
Continuous
 62
     4
100
AcDbLine
 10
1028.765543267425
 20
1065.016138536182
 30
0.0
 11
1032.080418922872
 21
1068.331014191628
 31
0.0
  0
LINE
  5
36C
330
22
100
AcDbEntity
  8
_2-D_ハッチ他
  6
Continuous
 62
     4
100
AcDbLine
 10
1026.644222923869
 20
1065.016138536184
 30
0.0
 11
1030.565190106045
 21
1068.937105718359
 31
0.0
  0
LINE
  5
36D
330
22
100
AcDbEntity
  8
_2-D_ハッチ他
  6
Continuous
 62
     4
100
AcDbLine
 10
1024.522902580309
 20
1065.016138536182
 30
0.0
 11
1029.049961289218
 21
1069.543197245091
 31
0.0
  0
LINE
  5
36E
330
22
100
AcDbEntity
  8
_2-D_ハッチ他
  6
Continuous
 62
     4
100
AcDbLine
 10
1022.401582236742
 20
1065.016138536182
 30
0.0
 11
1027.534732472384
 21
1070.149288771824
 31
0.0
  0
LINE
  5
36F
330
22
100
AcDbEntity
  8
_2-D_ハッチ他
  6
Continuous
 62
     4
100
AcDbLine
 10
1021.915219883311
 20
1066.651096526309
 30
0.0
 11
1025.280261893184
 21
1070.016138536182
 31
0.0
  0
LINE
  5
370
330
22
100
AcDbEntity
  8
_2-D_ハッチ他
  6
Continuous
 62
     4
100
AcDbLine
 10
1021.848140921118
 20
1068.705337907674
 30
0.0
 11
1023.158941549626
 21
1070.016138536182
 31
0.0
  0
LINE
  5
371
330
22
100
AcDbEntity
  8
_2-8_DRAIN他
  6
Continuous
 62
     7
100
AcDbLine
 10
906.3305200793264
 20
1070.016138536184
 30
0.0
 11
906.3305200793264
 21
1070.630973729048
 31
0.0
  0
ARC
  5
372
330
22
100
AcDbEntity
  8
_2-8_DRAIN他
  6
Continuous
 62
     7
100
AcDbCircle
 10
915.7428941088166
 20
1067.516138536184
 30
0.0
 40
5.071394736768276
100
AcDbArc
 50
150.4646116574325
 51
209.5353883425675
  0
ARC
  5
373
330
22
100
AcDbEntity
  8
_2-8_DRAIN他
  6
Continuous
 62
     7
100
AcDbCircle
 10
914.9181460498359
 20
1067.516138536184
 30
0.0
 40
5.071394736768276
100
AcDbArc
 50
330.4646116574325
 51
29.53538834256749
  0
LINE
  5
374
330
22
100
AcDbEntity
  8
_2-D_ハッチ他
  6
Continuous
 62
     4
100
AcDbLine
 10
919.3305200793261
 20
1065.016138536184
 30
0.0
 11
911.3305200793263
 21
1070.016138536184
 31
0.0
  0
LINE
  5
375
330
22
100
AcDbEntity
  8
_2-D_ハッチ他
  6
Continuous
 62
     4
100
AcDbLine
 10
911.3305200793263
 20
1065.016138536184
 30
0.0
 11
919.3305200793261
 21
1070.016138536184
 31
0.0
  0
LINE
  5
376
330
22
100
AcDbEntity
  8
_2-D_ハッチ他
  6
Continuous
 62
     4
100
AcDbLine
 10
893.2888951734243
 20
1065.016138536184
 30
0.0
 11
893.0044771516376
 21
1065.300556557972
 31
0.0
  0
LINE
  5
377
330
22
100
AcDbEntity
  8
_2-D_ハッチ他
  6
Continuous
 62
     4
100
AcDbLine
 10
895.4102155169893
 20
1065.016138536178
 30
0.0
 11
894.5197059684668
 21
1065.906648084701
 31
0.0
  0
LINE
  5
378
330
22
100
AcDbEntity
  8
_2-D_ハッチ他
  6
Continuous
 62
     4
100
AcDbLine
 10
897.5315358605532
 20
1065.016138536182
 30
0.0
 11
896.0349347852982
 21
1066.512739611437
 31
0.0
  0
LINE
  5
379
330
22
100
AcDbEntity
  8
_2-D_ハッチ他
  6
Continuous
 62
     4
100
AcDbLine
 10
899.6528562041092
 20
1065.016138536184
 30
0.0
 11
897.5501636021251
 21
1067.118831138168
 31
0.0
  0
LINE
  5
37A
330
22
100
AcDbEntity
  8
_2-D_ハッチ他
  6
Continuous
 62
     4
100
AcDbLine
 10
901.7741765476683
 20
1065.016138536182
 30
0.0
 11
899.0653924189532
 21
1067.724922664897
 31
0.0
  0
LINE
  5
37B
330
22
100
AcDbEntity
  8
_2-D_ハッチ他
  6
Continuous
 62
     4
100
AcDbLine
 10
903.8954968912278
 20
1065.016138536182
 30
0.0
 11
900.5806212357802
 21
1068.331014191628
 31
0.0
  0
LINE
  5
37C
330
22
100
AcDbEntity
  8
_2-D_ハッチ他
  6
Continuous
 62
     4
100
AcDbLine
 10
906.0168172347836
 20
1065.016138536184
 30
0.0
 11
902.0958500526083
 21
1068.937105718359
 31
0.0
  0
LINE
  5
37D
330
22
100
AcDbEntity
  8
_2-D_ハッチ他
  6
Continuous
 62
     4
100
AcDbLine
 10
908.138137578344
 20
1065.016138536182
 30
0.0
 11
903.6110788694353
 21
1069.543197245091
 31
0.0
  0
LINE
  5
37E
330
22
100
AcDbEntity
  8
_2-D_ハッチ他
  6
Continuous
 62
     4
100
AcDbLine
 10
910.2594579219104
 20
1065.016138536182
 30
0.0
 11
905.126307686269
 21
1070.149288771824
 31
0.0
  0
LINE
  5
37F
330
22
100
AcDbEntity
  8
_2-D_ハッチ他
  6
Continuous
 62
     4
100
AcDbLine
 10
910.7458202753424
 20
1066.651096526309
 30
0.0
 11
907.3807782654684
 21
1070.016138536182
 31
0.0
  0
LINE
  5
380
330
22
100
AcDbEntity
  8
_2-D_ハッチ他
  6
Continuous
 62
     4
100
AcDbLine
 10
910.8128992375352
 20
1068.705337907674
 30
0.0
 11
909.5020986090268
 21
1070.016138536182
 31
0.0
  0
LINE
  5
381
330
22
100
AcDbEntity
  8
_2-8_DRAIN他
  6
Continuous
 62
     4
100
AcDbLine
 10
1019.708878448783
 20
1070.016138536184
 30
0.0
 11
1019.708878448783
 21
1073.279630381266
 31
0.0
  0
LINE
  5
382
330
22
100
AcDbEntity
  8
_2-8_DRAIN他
  6
Continuous
 62
     4
100
AcDbLine
 10
1009.708878448783
 20
1070.016138536184
 30
0.0
 11
1009.708878448783
 21
1077.279630381265
 31
0.0
  0
LINE
  5
383
330
22
100
AcDbEntity
  8
_2-8_DRAIN他
  6
Continuous
 62
     4
100
AcDbLine
 10
999.7088784487836
 20
1070.016138536184
 30
0.0
 11
999.7088784487836
 21
1081.095199596382
 31
0.0
  0
LINE
  5
384
330
22
100
AcDbEntity
  8
_2-8_DRAIN他
  6
Continuous
 62
     4
100
AcDbLine
 10
989.7088784487836
 20
1070.016138536184
 30
0.0
 11
989.7088784487836
 21
1082.915526870372
 31
0.0
  0
LINE
  5
385
330
22
100
AcDbEntity
  8
_2-8_DRAIN他
  6
Continuous
 62
     4
100
AcDbLine
 10
979.7088784487836
 20
1070.016138536184
 30
0.0
 11
979.7088784487836
 21
1083.016138536184
 31
0.0
  0
LINE
  5
386
330
22
100
AcDbEntity
  8
_2-8_DRAIN他
  6
Continuous
 62
     4
100
AcDbLine
 10
969.7088784487835
 20
1070.016138536184
 30
0.0
 11
969.7088784487835
 21
1083.016138536184
 31
0.0
  0
LINE
  5
387
330
22
100
AcDbEntity
  8
_2-8_DRAIN他
  6
Continuous
 62
     4
100
AcDbLine
 10
959.7088784487835
 20
1070.016138536184
 30
0.0
 11
959.7088784487835
 21
1083.016138536184
 31
0.0
  0
LINE
  5
388
330
22
100
AcDbEntity
  8
_2-8_DRAIN他
  6
Continuous
 62
     4
100
AcDbLine
 10
949.7088784487836
 20
1070.016138536184
 30
0.0
 11
949.7088784487836
 21
1083.016138536184
 31
0.0
  0
LINE
  5
389
330
22
100
AcDbEntity
  8
_2-8_DRAIN他
  6
Continuous
 62
     4
100
AcDbLine
 10
939.7088784487836
 20
1070.016138536184
 30
0.0
 11
939.7088784487836
 21
1082.579890362174
 31
0.0
  0
LINE
  5
38A
330
22
100
AcDbEntity
  8
_2-8_DRAIN他
  6
Continuous
 62
     4
100
AcDbLine
 10
929.7088784487836
 20
1070.016138536184
 30
0.0
 11
929.7088784487836
 21
1079.97936935353
 31
0.0
  0
LINE
  5
38B
330
22
100
AcDbEntity
  8
_2-8_DRAIN他
  6
Continuous
 62
     4
100
AcDbLine
 10
919.7088784487835
 20
1070.016138536184
 30
0.0
 11
919.7088784487835
 21
1075.982317076832
 31
0.0
  0
LINE
  5
38C
330
22
100
AcDbEntity
  8
_2-8_DRAIN他
  6
Continuous
 62
     4
100
AcDbLine
 10
909.7088784487835
 20
1070.016138536184
 30
0.0
 11
909.7088784487835
 21
1071.982317076831
 31
0.0
  0
LINE
  5
38D
330
22
100
AcDbEntity
  8
_2-A_MOJI
  6
Continuous
 62
     7
100
AcDbLine
 10
1158.593810471842
 20
1195.805017156422
 30
0.0
 11
1104.782495852389
 21
1195.805017156422
 31
0.0
  0
LINE
  5
38E
330
22
100
AcDbEntity
  8
_2-A_MOJI
  6
Continuous
 62
     7
100
AcDbLine
 10
1030.531997091674
 20
1067.199380815532
 30
0.0
 11
1104.782495852389
 21
1195.805017156422
 31
0.0
  0
LINE
  5
38F
330
22
100
AcDbEntity
  8
_2-A_MOJI
  6
Continuous
 62
     7
100
AcDbLine
 10
1158.593810471842
 20
1220.805017156422
 30
0.0
 11
1105.519506611325
 21
1220.805017156422
 31
0.0
  0
LINE
  5
390
330
22
100
AcDbEntity
  8
_2-A_MOJI
  6
Continuous
 62
     7
100
AcDbLine
 10
1017.859552613201
 20
1068.973523042518
 30
0.0
 11
1105.519506611325
 21
1220.805017156422
 31
0.0
  0
TEXT
  5
391
330
22
100
AcDbEntity
  8
_2-A_MOJI
 62
     7
100
AcDbText
 10
1168.593810471842
 20
1263.305017156422
 30
0.0
 40
15.0
  1
通気シート
100
AcDbText
  0
TEXT
  5
392
330
22
100
AcDbEntity
  8
_2-A_MOJI
 62
     7
100
AcDbText
 10
1168.593810471842
 20
1238.305017156422
 30
0.0
 40
15.0
  1
脱気盤３０Ｌ
100
AcDbText
  0
LINE
  5
393
330
22
100
AcDbEntity
  8
_2-A_MOJI
  6
Continuous
 62
     7
100
AcDbLine
 10
1158.593810471842
 20
1245.805017156422
 30
0.0
 11
1093.377068102966
 21
1245.805017156422
 31
0.0
  0
LINE
  5
394
330
22
100
AcDbEntity
  8
_2-A_MOJI
  6
Continuous
 62
     7
100
AcDbLine
 10
995.2047062874104
 20
1075.765498592843
 30
0.0
 11
1093.377068102966
 21
1245.805017156422
 31
0.0
  0
LINE
  5
395
330
22
100
AcDbEntity
  8
_2-A_MOJI
  6
Continuous
 62
     7
100
AcDbLine
 10
976.2939347238061
 20
1085.701149754104
 30
0.0
 11
1083.163702396574
 21
1270.805017156422
 31
0.0
  0
LINE
  5
396
330
22
100
AcDbEntity
  8
_2-A_MOJI
  6
Continuous
 62
     7
100
AcDbLine
 10
1158.593810471842
 20
1270.805017156422
 30
0.0
 11
1083.163702396574
 21
1270.805017156422
 31
0.0
  0
LINE
  5
397
330
22
100
AcDbEntity
  8
_2-A_MOJI
  6
Continuous
 62
     7
100
AcDbLine
 10
1076.624848053468
 20
1072.220801218288
 30
0.0
 11
1119.108714933457
 21
1145.805017156422
 31
0.0
  0
TEXT
  5
398
330
22
100
AcDbEntity
  8
_2-A_MOJI
 62
     7
100
AcDbText
 10
1180.462205667301
 20
1138.305017156422
 30
0.0
 40
15.0
  1
プルーフシーラー
100
AcDbText
  0
LINE
  5
399
330
22
100
AcDbEntity
  8
_2-A_MOJI
  6
Continuous
 62
     7
100
AcDbLine
 10
1170.462205667301
 20
1145.805017156422
 30
0.0
 11
1119.108714933457
 21
1145.805017156422
 31
0.0
  0
LINE
  5
39A
330
22
100
AcDbEntity
  8
_2-3_
  6
Continuous
 62
     3
100
AcDbLine
 10
886.6754970474563
 20
373.076653290259
 30
0.0
 11
886.0054777121458
 21
374.9610826708181
 31
0.0
  0
LINE
  5
39B
330
22
100
AcDbEntity
  8
_2-3_
  6
Continuous
 62
     3
100
AcDbLine
 10
914.4555200793332
 20
385.0766532902594
 30
0.0
 11
886.0054777121458
 21
374.9610826708181
 31
0.0
  0
LINE
  5
39C
330
22
100
AcDbEntity
  8
_2-A_MOJI
  6
Continuous
 62
     7
100
AcDbLine
 10
1023.730715514491
 20
325.2680790394811
 30
0.0
 11
1041.916010782184
 21
293.7702236851965
 31
0.0
  0
LINE
  5
39D
330
22
100
AcDbEntity
  8
_2-A_MOJI
  6
Continuous
 62
     7
100
AcDbLine
 10
1061.331220476197
 20
293.7702236851965
 30
0.0
 11
1041.916010782184
 21
293.7702236851965
 31
0.0
  0
TEXT
  5
39E
330
22
100
AcDbEntity
  8
_2-A_MOJI
 62
     7
100
AcDbText
 10
1168.593810471842
 20
1213.305017156422
 30
0.0
 40
15.0
  1
ブチルゴム系シール材
100
AcDbText
  0
TEXT
  5
39F
330
22
100
AcDbEntity
  8
_2-A_MOJI
 62
     7
100
AcDbText
 10
1168.593810471842
 20
1188.305017156422
 30
0.0
 40
15.0
  1
ロンシーラントＬ
100
AcDbText
  0
LINE
  5
3A0
330
22
100
AcDbEntity
  8
_2-2_IN_LINE
  6
Continuous
 62
     7
100
AcDbLine
 10
719.868343282043
 20
368.0766532902589
 30
0.0
 11
1369.868343282043
 21
368.0766532902589
 31
0.0
  0
LINE
  5
3A1
330
22
100
AcDbEntity
  8
_2-2_IN_LINE
  6
Continuous
 62
     7
100
AcDbLine
 10
719.868343282043
 20
1058.016138536184
 30
0.0
 11
1369.868343282043
 21
1058.016138536184
 31
0.0
  0
LINE
  5
3A2
330
22
100
AcDbEntity
  8
_2-2_IN_LINE
  6
Continuous
 62
     7
100
AcDbLine
 10
1018.205520079328
 20
385.0766532902594
 30
0.0
 11
1032.33554908229
 21
380.0526429780939
 31
0.0
  0
LINE
  5
3A3
330
22
100
AcDbEntity
  8
_2-2_IN_LINE
  6
Continuous
 62
     7
100
AcDbLine
 10
1013.330520079326
 20
385.0766532902594
 30
0.0
 11
1018.205520079328
 21
385.0766532902594
 31
0.0
  0
LINE
  5
3A4
330
22
100
AcDbEntity
  8
_2-2_IN_LINE
  6
Continuous
 62
     7
100
AcDbLine
 10
993.3305200793258
 20
390.0766532902594
 30
0.0
 11
993.3305200793258
 21
385.0766532902594
 31
0.0
  0
LINE
  5
3A5
330
22
100
AcDbEntity
  8
_2-2_IN_LINE
  6
Continuous
 62
     7
100
AcDbLine
 10
939.3305200793273
 20
390.0766532902594
 30
0.0
 11
939.3305200793273
 21
385.0766532902594
 31
0.0
  0
LINE
  5
3A6
330
22
100
AcDbEntity
  8
_2-2_IN_LINE
  6
Continuous
 62
     7
100
AcDbLine
 10
941.3305200793264
 20
373.076653290259
 30
0.0
 11
830.7055200793277
 21
373.076653290259
 31
0.0
  0
LINE
  5
3A7
330
22
100
AcDbEntity
  8
_2-2_IN_LINE
  6
Continuous
 62
     7
100
AcDbLine
 10
991.3305200793264
 20
373.076653290259
 30
0.0
 11
1017.330520079327
 21
373.076653290259
 31
0.0
  0
LINE
  5
3A8
330
22
100
AcDbEntity
  8
_2-2_IN_LINE
  6
Continuous
 62
     7
100
AcDbLine
 10
1027.330520079325
 20
373.076653290259
 30
0.0
 11
1101.955520079325
 21
373.076653290259
 31
0.0
  0
LINE
  5
3A9
330
22
100
AcDbEntity
  8
_2-2_IN_LINE
  6
Continuous
 62
     7
100
AcDbLine
 10
1041.030562446506
 20
376.9610826708186
 30
0.0
 11
1051.955520079325
 21
373.076653290259
 31
0.0
  0
LINE
  5
3AA
330
22
100
AcDbEntity
  8
_2-2_IN_LINE
  6
Continuous
 62
     7
100
AcDbLine
 10
886.0054777121471
 20
374.9610826708158
 30
0.0
 11
880.7055200793277
 21
373.076653290259
 31
0.0
  0
TEXT
  5
3AB
330
22
100
AcDbEntity
  8
_2-A_MOJI
 62
     7
100
AcDbText
 10
1071.331220476197
 20
286.2702236851965
 30
0.0
 40
15.0
  1
ＥＬ-2001注入
100
AcDbText
  0
LINE
  5
3AC
330
22
100
AcDbEntity
  8
_2-7_ビス
  6
Continuous
 62
     7
100
AcDbLine
 10
1025.330520079325
 20
363.9811681173467
 30
0.0
 11
1025.330520079325
 21
368.0766532902589
 31
0.0
  0
LINE
  5
3AD
330
22
100
AcDbEntity
  8
_2-7_ビス
  6
Continuous
 62
     7
100
AcDbLine
 10
1025.330520079325
 20
368.0766532902589
 30
0.0
 11
1022.330520079324
 21
368.0766532902589
 31
0.0
  0
LINE
  5
3AE
330
22
100
AcDbEntity
  8
_2-7_ビス
  6
Continuous
 62
     7
100
AcDbLine
 10
1025.330520079325
 20
363.9811681173467
 30
0.0
 11
1026.080520079324
 21
363.1566071971429
 31
0.0
  0
LINE
  5
3AF
330
22
100
AcDbEntity
  8
_2-7_ビス
  6
Continuous
 62
     7
100
AcDbLine
 10
1026.080520079324
 20
363.1566071971429
 30
0.0
 11
1026.080520079324
 21
361.0580014700282
 31
0.0
  0
LINE
  5
3B0
330
22
100
AcDbEntity
  8
_2-7_ビス
  6
Continuous
 62
     7
100
AcDbLine
 10
1026.080520079324
 20
361.0580014700282
 30
0.0
 11
1025.532300829324
 21
356.9404081567791
 31
0.0
  0
LINE
  5
3B1
330
22
100
AcDbEntity
  8
_2-7_ビス
  6
Continuous
 62
     7
100
AcDbLine
 10
1025.532300829324
 20
356.9404081567791
 30
0.0
 11
1025.290377079324
 21
356.5327936482583
 31
0.0
  0
LINE
  5
3B2
330
22
100
AcDbEntity
  8
_2-7_ビス
  6
Continuous
 62
     7
100
AcDbLine
 10
1025.290377079324
 20
356.5327936482583
 30
0.0
 11
1025.330520079325
 21
356.5327936482583
 31
0.0
  0
LINE
  5
3B3
330
22
100
AcDbEntity
  8
_2-7_ビス
  6
Continuous
 62
     7
100
AcDbLine
 10
1025.330520079325
 20
356.5327936482583
 30
0.0
 11
1025.330520079325
 21
354.7187585616586
 31
0.0
  0
LINE
  5
3B4
330
22
100
AcDbEntity
  8
_2-7_ビス
  6
Continuous
 62
     7
100
AcDbLine
 10
1025.330520079325
 20
354.7187585616586
 30
0.0
 11
1024.897507518757
 21
353.8941971586587
 31
0.0
  0
LINE
  5
3B5
330
22
100
AcDbEntity
  8
_2-7_ビス
  6
Continuous
 62
     7
100
AcDbLine
 10
1025.027411329325
 20
353.646828737758
 30
0.0
 11
1026.005520079324
 21
353.646828737758
 31
0.0
  0
LINE
  5
3B6
330
22
100
AcDbEntity
  8
_2-7_ビス
  6
Continuous
 62
     7
100
AcDbLine
 10
1026.005520079324
 20
353.646828737758
 30
0.0
 11
1026.005520079324
 21
349.4134381438789
 31
0.0
  0
LINE
  5
3B7
330
22
100
AcDbEntity
  8
_2-7_ビス
  6
Continuous
 62
     7
100
AcDbLine
 10
1026.005520079324
 20
349.4134381438789
 30
0.0
 11
1025.504050579324
 21
348.4520918988585
 31
0.0
  0
LINE
  5
3B8
330
22
100
AcDbEntity
  8
_2-7_ビス
  6
Continuous
 62
     7
100
AcDbLine
 10
1025.504050579324
 20
348.4520918988585
 30
0.0
 11
1025.499270079324
 21
348.4520918988585
 31
0.0
  0
LINE
  5
3B9
330
22
100
AcDbEntity
  8
_2-7_ビス
  6
Continuous
 62
     7
100
AcDbLine
 10
1025.49926590604
 20
348.4520922526405
 30
0.0
 11
1025.499270079324
 21
348.4520918988585
 31
0.0
  0
LINE
  5
3BA
330
22
100
AcDbEntity
  8
_2-7_ビス
  6
Continuous
 62
     7
100
AcDbLine
 10
1025.49926590604
 20
348.4520922526405
 30
0.0
 11
1025.499270079324
 21
348.4520918988585
 31
0.0
  0
LINE
  5
3BB
330
22
100
AcDbEntity
  8
_2-7_ビス
  6
Continuous
 62
     7
100
AcDbLine
 10
1025.466678829324
 20
347.3801620749589
 30
0.0
 11
1026.005520079324
 21
347.3801620749589
 31
0.0
  0
LINE
  5
3BC
330
22
100
AcDbEntity
  8
_2-7_ビス
  6
Continuous
 62
     7
100
AcDbLine
 10
1026.005520079324
 20
347.3801620749589
 30
0.0
 11
1026.005520079324
 21
341.5829289381849
 31
0.0
  0
LINE
  5
3BD
330
22
100
AcDbEntity
  8
_2-7_ビス
  6
Continuous
 62
     7
100
AcDbLine
 10
1026.005520079324
 20
341.5829289381849
 30
0.0
 11
1025.499272892264
 21
340.6187775684203
 31
0.0
  0
LINE
  5
3BE
330
22
100
AcDbEntity
  8
_2-7_ビス
  6
Continuous
 62
     7
100
AcDbLine
 10
1025.499270079324
 20
340.6187585703583
 30
0.0
 11
1025.495678448969
 21
341.0962099675988
 31
0.0
  0
LINE
  5
3BF
330
22
100
AcDbEntity
  8
_2-7_ビス
  6
Continuous
 62
     7
100
AcDbLine
 10
1025.495678448969
 20
341.0962099675988
 30
0.0
 11
1025.174998441345
 21
341.1134954121587
 31
0.0
  0
LINE
  5
3C0
330
22
100
AcDbEntity
  8
_2-7_ビス
  6
Continuous
 62
     7
100
AcDbLine
 10
1025.016336401177
 20
341.3608638330584
 30
0.0
 11
1025.466678829324
 21
342.1854252360584
 31
0.0
  0
LINE
  5
3C1
330
22
100
AcDbEntity
  8
_2-7_ビス
  6
Continuous
 62
     7
100
AcDbLine
 10
1025.466678829324
 20
342.1854252360584
 30
0.0
 11
1025.466678981447
 21
342.6628767050534
 31
0.0
  0
LINE
  5
3C2
330
22
100
AcDbEntity
  8
_2-7_ビス
  6
Continuous
 62
     7
100
AcDbLine
 10
1025.466678981447
 20
342.6628767050534
 30
0.0
 11
1025.118646579325
 21
342.6801620778588
 31
0.0
  0
LINE
  5
3C3
330
22
100
AcDbEntity
  8
_2-7_ビス
  6
Continuous
 62
     7
100
AcDbLine
 10
1024.959056829604
 20
342.9275304987584
 30
0.0
 11
1025.466678829324
 21
343.7520919017583
 31
0.0
  0
LINE
  5
3C4
330
22
100
AcDbEntity
  8
_2-7_ビス
  6
Continuous
 62
     7
100
AcDbLine
 10
1025.466678829324
 20
343.7520919017583
 30
0.0
 11
1025.466678829324
 21
344.229543462867
 31
0.0
  0
LINE
  5
3C5
330
22
100
AcDbEntity
  8
_2-7_ビス
  6
Continuous
 62
     7
100
AcDbLine
 10
1025.466678829324
 20
344.229543462867
 30
0.0
 11
1025.118646579325
 21
344.2468287435588
 31
0.0
  0
LINE
  5
3C6
330
22
100
AcDbEntity
  8
_2-7_ビス
  6
Continuous
 62
     7
100
AcDbLine
 10
1024.959056829604
 20
344.4941971644585
 30
0.0
 11
1025.466678829324
 21
345.3187585674584
 31
0.0
  0
LINE
  5
3C7
330
22
100
AcDbEntity
  8
_2-7_ビス
  6
Continuous
 62
     7
100
AcDbLine
 10
1025.466678829324
 20
345.3187585674584
 30
0.0
 11
1025.466678829324
 21
345.7962101285671
 31
0.0
  0
LINE
  5
3C8
330
22
100
AcDbEntity
  8
_2-7_ビス
  6
Continuous
 62
     7
100
AcDbLine
 10
1025.466678829324
 20
345.7962101285671
 30
0.0
 11
1025.118646579325
 21
345.8134954092588
 31
0.0
  0
LINE
  5
3C9
330
22
100
AcDbEntity
  8
_2-7_ビス
  6
Continuous
 62
     7
100
AcDbLine
 10
1024.959056829604
 20
346.0608638301585
 30
0.0
 11
1025.466678981447
 21
346.8854252331585
 31
0.0
  0
LINE
  5
3CA
330
22
100
AcDbEntity
  8
_2-7_ビス
  6
Continuous
 62
     7
100
AcDbLine
 10
1025.466678981447
 20
346.8854252331585
 30
0.0
 11
1025.466678829324
 21
347.3801620749589
 31
0.0
  0
LINE
  5
3CB
330
22
100
AcDbEntity
  8
_2-7_ビス
  6
Continuous
 62
     7
100
AcDbLine
 10
1025.49926590604
 20
348.4520922526405
 30
0.0
 11
1025.495580704794
 21
348.9295437216345
 31
0.0
  0
LINE
  5
3CC
330
22
100
AcDbEntity
  8
_2-7_ビス
  6
Continuous
 62
     7
100
AcDbLine
 10
1025.495580704794
 20
348.9295437216345
 30
0.0
 11
1025.178135829325
 21
348.9468287406589
 31
0.0
  0
LINE
  5
3CD
330
22
100
AcDbEntity
  8
_2-7_ビス
  6
Continuous
 62
     7
100
AcDbLine
 10
1025.016043689004
 20
349.1941971615585
 30
0.0
 11
1025.466678981447
 21
350.0187585645585
 31
0.0
  0
LINE
  5
3CE
330
22
100
AcDbEntity
  8
_2-7_ビス
  6
Continuous
 62
     7
100
AcDbLine
 10
1025.466678981447
 20
350.0187585645585
 30
0.0
 11
1025.466678981447
 21
350.4962100335524
 31
0.0
  0
LINE
  5
3CF
330
22
100
AcDbEntity
  8
_2-7_ビス
  6
Continuous
 62
     7
100
AcDbLine
 10
1025.466678981447
 20
350.4962100335524
 30
0.0
 11
1025.118646579325
 21
350.513495406359
 31
0.0
  0
LINE
  5
3D0
330
22
100
AcDbEntity
  8
_2-7_ビス
  6
Continuous
 62
     7
100
AcDbLine
 10
1024.959056829604
 20
350.7608638272586
 30
0.0
 11
1025.466678829324
 21
351.5854252302586
 31
0.0
  0
LINE
  5
3D1
330
22
100
AcDbEntity
  8
_2-7_ビス
  6
Continuous
 62
     7
100
AcDbLine
 10
1025.466678829324
 20
351.5854252302586
 30
0.0
 11
1025.466678981447
 21
352.0628766992524
 31
0.0
  0
LINE
  5
3D2
330
22
100
AcDbEntity
  8
_2-7_ビス
  6
Continuous
 62
     7
100
AcDbLine
 10
1025.466678981447
 20
352.0628766992524
 30
0.0
 11
1025.117760486836
 21
352.0803936532184
 31
0.0
  0
LINE
  5
3D3
330
22
100
AcDbEntity
  8
_2-7_ビス
  6
Continuous
 62
     7
100
AcDbLine
 10
1024.959056829604
 20
352.3275304929586
 30
0.0
 11
1025.466678981447
 21
353.1520918959586
 31
0.0
  0
LINE
  5
3D4
330
22
100
AcDbEntity
  8
_2-7_ビス
  6
Continuous
 62
     7
100
AcDbLine
 10
1025.466678981447
 20
353.1520918959586
 30
0.0
 11
1025.466678823817
 21
353.646828737758
 31
0.0
  0
LINE
  5
3D5
330
22
100
AcDbEntity
  8
_2-7_ビス
  6
Continuous
 62
     7
100
AcDbLine
 10
1025.466678829324
 20
339.5468287464587
 30
0.0
 11
1026.005520079324
 21
339.5468287464587
 31
0.0
  0
LINE
  5
3D6
330
22
100
AcDbEntity
  8
_2-7_ビス
  6
Continuous
 62
     7
100
AcDbLine
 10
1026.005520079324
 20
339.5468287464587
 30
0.0
 11
1026.005520079324
 21
336.2985870116211
 31
0.0
  0
LINE
  5
3D7
330
22
100
AcDbEntity
  8
_2-7_ビス
  6
Continuous
 62
     7
100
AcDbLine
 10
1026.005520079324
 20
336.2985870116211
 30
0.0
 11
1025.499734329325
 21
332.7854252418581
 31
0.0
  0
LINE
  5
3D8
330
22
100
AcDbEntity
  8
_2-7_ビス
  6
Continuous
 62
     7
100
AcDbLine
 10
1025.499734329325
 20
332.7854252418581
 30
0.0
 11
1025.498999811661
 21
333.2628763259993
 31
0.0
  0
LINE
  5
3D9
330
22
100
AcDbEntity
  8
_2-7_ビス
  6
Continuous
 62
     7
100
AcDbLine
 10
1025.498999811661
 20
333.2628763259993
 30
0.0
 11
1025.190311329324
 21
333.2801620836585
 31
0.0
  0
LINE
  5
3DA
330
22
100
AcDbEntity
  8
_2-7_ビス
  6
Continuous
 62
     7
100
AcDbLine
 10
1025.499734329325
 20
332.7854252418581
 30
0.0
 11
1025.066257518757
 21
331.9608638388581
 31
0.0
  0
LINE
  5
3DB
330
22
100
AcDbEntity
  8
_2-7_ビス
  6
Continuous
 62
     7
100
AcDbLine
 10
1025.045754764536
 20
333.5275305045582
 30
0.0
 11
1025.496357097997
 21
334.3520919075581
 31
0.0
  0
LINE
  5
3DC
330
22
100
AcDbEntity
  8
_2-7_ビス
  6
Continuous
 62
     7
100
AcDbLine
 10
1025.496357097997
 20
334.3520919075581
 30
0.0
 11
1025.494272193735
 21
334.8295429916982
 31
0.0
  0
LINE
  5
3DD
330
22
100
AcDbEntity
  8
_2-7_ビス
  6
Continuous
 62
     7
100
AcDbLine
 10
1025.494272193735
 20
334.8295429916982
 30
0.0
 11
1025.171945329324
 21
334.8468287493586
 31
0.0
  0
LINE
  5
3DE
330
22
100
AcDbEntity
  8
_2-7_ビス
  6
Continuous
 62
     7
100
AcDbLine
 10
1025.023439833506
 20
335.0941971702582
 30
0.0
 11
1025.48730769283
 21
335.9187581884044
 31
0.0
  0
LINE
  5
3DF
330
22
100
AcDbEntity
  8
_2-7_ビス
  6
Continuous
 62
     7
100
AcDbLine
 10
1025.48730769283
 20
335.9187581884044
 30
0.0
 11
1025.483244852134
 21
336.3962096573994
 31
0.0
  0
LINE
  5
3E0
330
22
100
AcDbEntity
  8
_2-7_ビス
  6
Continuous
 62
     7
100
AcDbLine
 10
1025.483244852134
 20
336.3962096573994
 30
0.0
 11
1025.148591496866
 21
336.4134954150586
 31
0.0
  0
LINE
  5
3E1
330
22
100
AcDbEntity
  8
_2-7_ビス
  6
Continuous
 62
     7
100
AcDbLine
 10
1024.991336880697
 20
336.6608638359583
 30
0.0
 11
1025.471539504902
 21
337.4854248541044
 31
0.0
  0
LINE
  5
3E2
330
22
100
AcDbEntity
  8
_2-7_ビス
  6
Continuous
 62
     7
100
AcDbLine
 10
1025.471539504902
 20
337.4854248541044
 30
0.0
 11
1025.466678829324
 21
337.9628768000668
 31
0.0
  0
LINE
  5
3E3
330
22
100
AcDbEntity
  8
_2-7_ビス
  6
Continuous
 62
     7
100
AcDbLine
 10
1025.466678829324
 20
337.9628768000668
 30
0.0
 11
1025.118646579325
 21
337.9801620807587
 31
0.0
  0
LINE
  5
3E4
330
22
100
AcDbEntity
  8
_2-7_ビス
  6
Continuous
 62
     7
100
AcDbLine
 10
1024.959056829604
 20
338.2275305016583
 30
0.0
 11
1025.466678981447
 21
339.0520919046583
 31
0.0
  0
LINE
  5
3E5
330
22
100
AcDbEntity
  8
_2-7_ビス
  6
Continuous
 62
     7
100
AcDbLine
 10
1025.466678981447
 20
339.0520919046583
 30
0.0
 11
1025.466678829324
 21
339.5468287464587
 31
0.0
  0
LINE
  5
3E6
330
22
100
AcDbEntity
  8
_2-7_ビス
  6
Continuous
 62
     7
100
AcDbLine
 10
1025.196161329324
 20
331.7134954179585
 30
0.0
 11
1025.330520079325
 21
331.7134954179585
 31
0.0
  0
LINE
  5
3E7
330
22
100
AcDbEntity
  8
_2-7_ビス
  6
Continuous
 62
     7
100
AcDbLine
 10
1025.330520079325
 20
331.7134954179585
 30
0.0
 11
1025.330520079325
 21
330.9301620851079
 31
0.0
  0
LINE
  5
3E8
330
22
100
AcDbEntity
  8
_2-7_ビス
  6
Continuous
 62
     7
100
AcDbLine
 10
1025.330520079325
 20
330.9301620851079
 30
0.0
 11
1025.180520079324
 21
330.9301620851079
 31
0.0
  0
LINE
  5
3E9
330
22
100
AcDbEntity
  8
_2-7_ビス
  6
Continuous
 62
     7
100
AcDbLine
 10
1025.180520079324
 20
330.9301620851079
 30
0.0
 11
1025.180520079324
 21
329.3222673492585
 31
0.0
  0
LINE
  5
3EA
330
22
100
AcDbEntity
  8
_2-7_ビス
  6
Continuous
 62
     7
100
AcDbLine
 10
1025.180520079324
 20
329.3222673492585
 30
0.0
 11
1025.174053268523
 21
329.3222673492585
 31
0.0
  0
LINE
  5
3EB
330
22
100
AcDbEntity
  8
_2-7_ビス
  6
Continuous
 62
     7
100
AcDbLine
 10
1025.123778079325
 20
328.992442788059
 30
0.0
 11
1025.123777932786
 21
323.0420011952389
 31
0.0
  0
LINE
  5
3EC
330
22
100
AcDbEntity
  8
_2-7_ビス
  6
Continuous
 62
     7
100
AcDbLine
 10
1025.123777932786
 20
323.0420011952389
 30
0.0
 11
1024.683340579325
 21
322.3905803710795
 31
0.0
  0
LINE
  5
3ED
330
22
100
AcDbEntity
  8
_2-7_ビス
  6
Continuous
 62
     7
100
AcDbLine
 10
1024.683340579325
 20
322.3905803710795
 30
0.0
 11
1023.680520079324
 21
321.0766533192589
 31
0.0
  0
LINE
  5
3EE
330
22
100
AcDbEntity
  8
_2-7_ビス
  6
Continuous
 62
     7
100
AcDbLine
 10
1023.680520079324
 20
321.0766533192589
 30
0.0
 11
1023.53114159983
 21
321.0766533192589
 31
0.0
  0
LINE
  5
3EF
330
22
100
AcDbEntity
  8
_2-7_ビス
  6
Continuous
 62
     7
100
AcDbLine
 10
1023.53114159983
 20
321.0766533192589
 30
0.0
 11
1024.616235709144
 21
323.0420011952389
 31
0.0
  0
LINE
  5
3F0
330
22
100
AcDbEntity
  8
_2-7_ビス
  6
Continuous
 62
     7
100
AcDbLine
 10
1024.616235709144
 20
323.0420011952389
 30
0.0
 11
1024.616235829325
 21
327.0134954208584
 31
0.0
  0
LINE
  5
3F1
330
22
100
AcDbEntity
  8
_2-7_ビス
  6
Continuous
 62
     7
100
AcDbLine
 10
1024.032872329325
 20
327.0134954208584
 30
0.0
 11
1024.032872602756
 21
323.0420013479375
 31
0.0
  0
LINE
  5
3F2
330
22
100
AcDbEntity
  8
_2-7_ビス
  6
Continuous
 62
     7
100
AcDbLine
 10
1024.032872602756
 20
323.0420013479375
 30
0.0
 11
1022.947778237524
 21
321.0766533192589
 31
0.0
  0
LINE
  5
3F3
330
22
100
AcDbEntity
  8
_2-7_ビス
  6
Continuous
 62
     7
100
AcDbLine
 10
1022.947778237524
 20
321.0766533192589
 30
0.0
 11
1022.330520079324
 21
321.0766533192589
 31
0.0
  0
LINE
  5
3F4
330
22
100
AcDbEntity
  8
_2-7_ビス
  6
Continuous
 62
     7
100
AcDbLine
 10
1024.908220184408
 20
353.9145965713241
 30
0.0
 11
1024.908220184408
 21
353.9145965713241
 31
0.0
  0
LINE
  5
3F5
330
22
100
AcDbEntity
  8
_2-7_ビス
  6
Continuous
 62
     7
100
AcDbLine
 10
1024.908220184408
 20
353.9145965713241
 30
0.0
 11
1024.895022059053
 21
353.8883372159475
 31
0.0
  0
LINE
  5
3F6
330
22
100
AcDbEntity
  8
_2-7_ビス
  6
Continuous
 62
     7
100
AcDbLine
 10
1024.895022059053
 20
353.8883372159475
 30
0.0
 11
1024.886172001681
 21
353.8599571259785
 31
0.0
  0
LINE
  5
3F7
330
22
100
AcDbEntity
  8
_2-7_ビス
  6
Continuous
 62
     7
100
AcDbLine
 10
1024.886172001681
 20
353.8599571259785
 30
0.0
 11
1024.881938916808
 21
353.8303186160901
 31
0.0
  0
LINE
  5
3F8
330
22
100
AcDbEntity
  8
_2-7_ビス
  6
Continuous
 62
     7
100
AcDbLine
 10
1024.881938916808
 20
353.8303186160901
 30
0.0
 11
1024.882451424576
 21
353.8003222374072
 31
0.0
  0
LINE
  5
3F9
330
22
100
AcDbEntity
  8
_2-7_ビス
  6
Continuous
 62
     7
100
AcDbLine
 10
1024.882451424576
 20
353.8003222374072
 30
0.0
 11
1024.887693952694
 21
353.7708794147172
 31
0.0
  0
LINE
  5
3FA
330
22
100
AcDbEntity
  8
_2-7_ビス
  6
Continuous
 62
     7
100
AcDbLine
 10
1024.887693952694
 20
353.7708794147172
 30
0.0
 11
1024.897507209598
 21
353.7428847532889
 31
0.0
  0
LINE
  5
3FB
330
22
100
AcDbEntity
  8
_2-7_ビス
  6
Continuous
 62
     7
100
AcDbLine
 10
1024.897507209598
 20
353.7428847532889
 30
0.0
 11
1024.911593024446
 21
353.7171888567437
 31
0.0
  0
LINE
  5
3FC
330
22
100
AcDbEntity
  8
_2-7_ビス
  6
Continuous
 62
     7
100
AcDbLine
 10
1024.911593024446
 20
353.7171888567437
 30
0.0
 11
1024.929523406878
 21
353.6945724818952
 31
0.0
  0
LINE
  5
3FD
330
22
100
AcDbEntity
  8
_2-7_ビス
  6
Continuous
 62
     7
100
AcDbLine
 10
1024.929523406878
 20
353.6945724818952
 30
0.0
 11
1024.950753551299
 21
353.6757228158492
 31
0.0
  0
LINE
  5
3FE
330
22
100
AcDbEntity
  8
_2-7_ビス
  6
Continuous
 62
     7
100
AcDbLine
 10
1024.950753551299
 20
353.6757228158492
 30
0.0
 11
1024.974638390512
 21
353.6612125961696
 31
0.0
  0
LINE
  5
3FF
330
22
100
AcDbEntity
  8
_2-7_ビス
  6
Continuous
 62
     7
100
AcDbLine
 10
1024.974638390512
 20
353.6612125961696
 30
0.0
 11
1025.000452195766
 21
353.6514827085393
 31
0.0
  0
LINE
  5
400
330
22
100
AcDbEntity
  8
_2-7_ビス
  6
Continuous
 62
     7
100
AcDbLine
 10
1025.000452195766
 20
353.6514827085393
 30
0.0
 11
1025.027410627649
 21
353.6468287906701
 31
0.0
  0
LINE
  5
401
330
22
100
AcDbEntity
  8
_2-7_ビス
  6
Continuous
 62
     7
100
AcDbLine
 10
1025.027410627649
 20
353.6468287906701
 30
0.0
 11
1025.027411329325
 21
353.646828737758
 31
0.0
  0
LINE
  5
402
330
22
100
AcDbEntity
  8
_2-7_ビス
  6
Continuous
 62
     7
100
AcDbLine
 10
1024.959056829603
 20
352.3275304929584
 30
0.0
 11
1024.959056829603
 21
352.3275304929584
 31
0.0
  0
LINE
  5
403
330
22
100
AcDbEntity
  8
_2-7_ビス
  6
Continuous
 62
     7
100
AcDbLine
 10
1024.959056829603
 20
352.3275304929584
 30
0.0
 11
1024.958385724016
 21
352.2875723389701
 31
0.0
  0
LINE
  5
404
330
22
100
AcDbEntity
  8
_2-7_ビス
  6
Continuous
 62
     7
100
AcDbLine
 10
1024.958385724016
 20
352.2875723389701
 30
0.0
 11
1024.96403604258
 21
352.2480931173878
 31
0.0
  0
LINE
  5
405
330
22
100
AcDbEntity
  8
_2-7_ビス
  6
Continuous
 62
     7
100
AcDbLine
 10
1024.96403604258
 20
352.2480931173878
 30
0.0
 11
1024.975836103225
 21
352.2102923843819
 31
0.0
  0
LINE
  5
406
330
22
100
AcDbEntity
  8
_2-7_ビス
  6
Continuous
 62
     7
100
AcDbLine
 10
1024.975836103225
 20
352.2102923843819
 30
0.0
 11
1024.993427367079
 21
352.1753186960967
 31
0.0
  0
LINE
  5
407
330
22
100
AcDbEntity
  8
_2-7_ビス
  6
Continuous
 62
     7
100
AcDbLine
 10
1024.993427367079
 20
352.1753186960967
 30
0.0
 11
1025.016275332491
 21
352.1442347103532
 31
0.0
  0
LINE
  5
408
330
22
100
AcDbEntity
  8
_2-7_ビス
  6
Continuous
 62
     7
100
AcDbLine
 10
1025.016275332491
 20
352.1442347103532
 30
0.0
 11
1025.043685775595
 21
352.1179848983289
 31
0.0
  0
LINE
  5
409
330
22
100
AcDbEntity
  8
_2-7_ビス
  6
Continuous
 62
     7
100
AcDbLine
 10
1025.043685775595
 20
352.1179848983289
 30
0.0
 11
1025.074825843947
 21
352.0973668472792
 31
0.0
  0
LINE
  5
40A
330
22
100
AcDbEntity
  8
_2-7_ビス
  6
Continuous
 62
     7
100
AcDbLine
 10
1025.074825843947
 20
352.0973668472792
 30
0.0
 11
1025.108749362327
 21
352.0830070262519
 31
0.0
  0
LINE
  5
40B
330
22
100
AcDbEntity
  8
_2-7_ビス
  6
Continuous
 62
     7
100
AcDbLine
 10
1025.108749362327
 20
352.0830070262519
 30
0.0
 11
1025.118646579324
 21
352.0801620720584
 31
0.0
  0
LINE
  5
40C
330
22
100
AcDbEntity
  8
_2-7_ビス
  6
Continuous
 62
     7
100
AcDbLine
 10
1024.959056829603
 20
350.7608638272584
 30
0.0
 11
1024.959056829603
 21
350.7608638272584
 31
0.0
  0
LINE
  5
40D
330
22
100
AcDbEntity
  8
_2-7_ビス
  6
Continuous
 62
     7
100
AcDbLine
 10
1024.959056829603
 20
350.7608638272584
 30
0.0
 11
1024.958385724016
 21
350.72090567327
 31
0.0
  0
LINE
  5
40E
330
22
100
AcDbEntity
  8
_2-7_ビス
  6
Continuous
 62
     7
100
AcDbLine
 10
1024.958385724016
 20
350.72090567327
 30
0.0
 11
1024.96403604258
 21
350.6814264516878
 31
0.0
  0
LINE
  5
40F
330
22
100
AcDbEntity
  8
_2-7_ビス
  6
Continuous
 62
     7
100
AcDbLine
 10
1024.96403604258
 20
350.6814264516878
 30
0.0
 11
1024.975836103225
 21
350.6436257186818
 31
0.0
  0
LINE
  5
410
330
22
100
AcDbEntity
  8
_2-7_ビス
  6
Continuous
 62
     7
100
AcDbLine
 10
1024.975836103225
 20
350.6436257186818
 30
0.0
 11
1024.993427367079
 21
350.6086520303966
 31
0.0
  0
LINE
  5
411
330
22
100
AcDbEntity
  8
_2-7_ビス
  6
Continuous
 62
     7
100
AcDbLine
 10
1024.993427367079
 20
350.6086520303966
 30
0.0
 11
1025.016275332491
 21
350.5775680446532
 31
0.0
  0
LINE
  5
412
330
22
100
AcDbEntity
  8
_2-7_ビス
  6
Continuous
 62
     7
100
AcDbLine
 10
1025.016275332491
 20
350.5775680446532
 30
0.0
 11
1025.043685775595
 21
350.5513182326289
 31
0.0
  0
LINE
  5
413
330
22
100
AcDbEntity
  8
_2-7_ビス
  6
Continuous
 62
     7
100
AcDbLine
 10
1025.043685775595
 20
350.5513182326289
 30
0.0
 11
1025.074825843947
 21
350.5307001815792
 31
0.0
  0
LINE
  5
414
330
22
100
AcDbEntity
  8
_2-7_ビス
  6
Continuous
 62
     7
100
AcDbLine
 10
1025.074825843947
 20
350.5307001815792
 30
0.0
 11
1025.108749362327
 21
350.5163403605519
 31
0.0
  0
LINE
  5
415
330
22
100
AcDbEntity
  8
_2-7_ビス
  6
Continuous
 62
     7
100
AcDbLine
 10
1025.108749362327
 20
350.5163403605519
 30
0.0
 11
1025.118646579324
 21
350.5134954063584
 31
0.0
  0
LINE
  5
416
330
22
100
AcDbEntity
  8
_2-7_ビス
  6
Continuous
 62
     7
100
AcDbLine
 10
1025.016043689005
 20
349.1941971615582
 30
0.0
 11
1025.016043689005
 21
349.1941971615582
 31
0.0
  0
LINE
  5
417
330
22
100
AcDbEntity
  8
_2-7_ビス
  6
Continuous
 62
     7
100
AcDbLine
 10
1025.016043689005
 20
349.1941971615582
 30
0.0
 11
1025.015372583418
 21
349.15423900757
 31
0.0
  0
LINE
  5
418
330
22
100
AcDbEntity
  8
_2-7_ビス
  6
Continuous
 62
     7
100
AcDbLine
 10
1025.015372583418
 20
349.15423900757
 30
0.0
 11
1025.021022901982
 21
349.1147597859877
 31
0.0
  0
LINE
  5
419
330
22
100
AcDbEntity
  8
_2-7_ビス
  6
Continuous
 62
     7
100
AcDbLine
 10
1025.021022901982
 20
349.1147597859877
 30
0.0
 11
1025.032822962626
 21
349.0769590529818
 31
0.0
  0
LINE
  5
41A
330
22
100
AcDbEntity
  8
_2-7_ビス
  6
Continuous
 62
     7
100
AcDbLine
 10
1025.032822962626
 20
349.0769590529818
 30
0.0
 11
1025.05041422648
 21
349.0419853646966
 31
0.0
  0
LINE
  5
41B
330
22
100
AcDbEntity
  8
_2-7_ビス
  6
Continuous
 62
     7
100
AcDbLine
 10
1025.05041422648
 20
349.0419853646966
 30
0.0
 11
1025.073262191893
 21
349.0109013789531
 31
0.0
  0
LINE
  5
41C
330
22
100
AcDbEntity
  8
_2-7_ビス
  6
Continuous
 62
     7
100
AcDbLine
 10
1025.073262191893
 20
349.0109013789531
 30
0.0
 11
1025.100672634996
 21
348.9846515669288
 31
0.0
  0
LINE
  5
41D
330
22
100
AcDbEntity
  8
_2-7_ビス
  6
Continuous
 62
     7
100
AcDbLine
 10
1025.100672634996
 20
348.9846515669288
 30
0.0
 11
1025.131812703348
 21
348.9640335158791
 31
0.0
  0
LINE
  5
41E
330
22
100
AcDbEntity
  8
_2-7_ビス
  6
Continuous
 62
     7
100
AcDbLine
 10
1025.131812703348
 20
348.9640335158791
 30
0.0
 11
1025.165736221728
 21
348.9496736948518
 31
0.0
  0
LINE
  5
41F
330
22
100
AcDbEntity
  8
_2-7_ビス
  6
Continuous
 62
     7
100
AcDbLine
 10
1025.165736221728
 20
348.9496736948518
 30
0.0
 11
1025.175633438725
 21
348.9468287406584
 31
0.0
  0
LINE
  5
420
330
22
100
AcDbEntity
  8
_2-7_ビス
  6
Continuous
 62
     7
100
AcDbLine
 10
1024.959056829603
 20
346.0608638301581
 30
0.0
 11
1024.959056829603
 21
346.0608638301581
 31
0.0
  0
LINE
  5
421
330
22
100
AcDbEntity
  8
_2-7_ビス
  6
Continuous
 62
     7
100
AcDbLine
 10
1024.959056829603
 20
346.0608638301581
 30
0.0
 11
1024.958385724016
 21
346.0209056761699
 31
0.0
  0
LINE
  5
422
330
22
100
AcDbEntity
  8
_2-7_ビス
  6
Continuous
 62
     7
100
AcDbLine
 10
1024.958385724016
 20
346.0209056761699
 30
0.0
 11
1024.96403604258
 21
345.9814264545876
 31
0.0
  0
LINE
  5
423
330
22
100
AcDbEntity
  8
_2-7_ビス
  6
Continuous
 62
     7
100
AcDbLine
 10
1024.96403604258
 20
345.9814264545876
 30
0.0
 11
1024.975836103225
 21
345.9436257215817
 31
0.0
  0
LINE
  5
424
330
22
100
AcDbEntity
  8
_2-7_ビス
  6
Continuous
 62
     7
100
AcDbLine
 10
1024.975836103225
 20
345.9436257215817
 30
0.0
 11
1024.993427367079
 21
345.9086520332965
 31
0.0
  0
LINE
  5
425
330
22
100
AcDbEntity
  8
_2-7_ビス
  6
Continuous
 62
     7
100
AcDbLine
 10
1024.993427367079
 20
345.9086520332965
 30
0.0
 11
1025.016275332491
 21
345.8775680475531
 31
0.0
  0
LINE
  5
426
330
22
100
AcDbEntity
  8
_2-7_ビス
  6
Continuous
 62
     7
100
AcDbLine
 10
1025.016275332491
 20
345.8775680475531
 30
0.0
 11
1025.043685775595
 21
345.8513182355288
 31
0.0
  0
LINE
  5
427
330
22
100
AcDbEntity
  8
_2-7_ビス
  6
Continuous
 62
     7
100
AcDbLine
 10
1025.043685775595
 20
345.8513182355288
 30
0.0
 11
1025.074825843947
 21
345.8307001844791
 31
0.0
  0
LINE
  5
428
330
22
100
AcDbEntity
  8
_2-7_ビス
  6
Continuous
 62
     7
100
AcDbLine
 10
1025.074825843947
 20
345.8307001844791
 30
0.0
 11
1025.108749362327
 21
345.8163403634518
 31
0.0
  0
LINE
  5
429
330
22
100
AcDbEntity
  8
_2-7_ビス
  6
Continuous
 62
     7
100
AcDbLine
 10
1025.108749362327
 20
345.8163403634518
 30
0.0
 11
1025.118646579324
 21
345.8134954092583
 31
0.0
  0
LINE
  5
42A
330
22
100
AcDbEntity
  8
_2-7_ビス
  6
Continuous
 62
     7
100
AcDbLine
 10
1024.959056829603
 20
344.4941971644582
 30
0.0
 11
1024.959056829603
 21
344.4941971644582
 31
0.0
  0
LINE
  5
42B
330
22
100
AcDbEntity
  8
_2-7_ビス
  6
Continuous
 62
     7
100
AcDbLine
 10
1024.959056829603
 20
344.4941971644582
 30
0.0
 11
1024.958385724016
 21
344.4542390104698
 31
0.0
  0
LINE
  5
42C
330
22
100
AcDbEntity
  8
_2-7_ビス
  6
Continuous
 62
     7
100
AcDbLine
 10
1024.958385724016
 20
344.4542390104698
 30
0.0
 11
1024.96403604258
 21
344.4147597888876
 31
0.0
  0
LINE
  5
42D
330
22
100
AcDbEntity
  8
_2-7_ビス
  6
Continuous
 62
     7
100
AcDbLine
 10
1024.96403604258
 20
344.4147597888876
 30
0.0
 11
1024.975836103225
 21
344.3769590558816
 31
0.0
  0
LINE
  5
42E
330
22
100
AcDbEntity
  8
_2-7_ビス
  6
Continuous
 62
     7
100
AcDbLine
 10
1024.975836103225
 20
344.3769590558816
 30
0.0
 11
1024.993427367079
 21
344.3419853675965
 31
0.0
  0
LINE
  5
42F
330
22
100
AcDbEntity
  8
_2-7_ビス
  6
Continuous
 62
     7
100
AcDbLine
 10
1024.993427367079
 20
344.3419853675965
 30
0.0
 11
1025.016275332491
 21
344.310901381853
 31
0.0
  0
LINE
  5
430
330
22
100
AcDbEntity
  8
_2-7_ビス
  6
Continuous
 62
     7
100
AcDbLine
 10
1025.016275332491
 20
344.310901381853
 30
0.0
 11
1025.043685775595
 21
344.2846515698287
 31
0.0
  0
LINE
  5
431
330
22
100
AcDbEntity
  8
_2-7_ビス
  6
Continuous
 62
     7
100
AcDbLine
 10
1025.043685775595
 20
344.2846515698287
 30
0.0
 11
1025.074825843947
 21
344.264033518779
 31
0.0
  0
LINE
  5
432
330
22
100
AcDbEntity
  8
_2-7_ビス
  6
Continuous
 62
     7
100
AcDbLine
 10
1025.074825843947
 20
344.264033518779
 30
0.0
 11
1025.108749362327
 21
344.2496736977517
 31
0.0
  0
LINE
  5
433
330
22
100
AcDbEntity
  8
_2-7_ビス
  6
Continuous
 62
     7
100
AcDbLine
 10
1025.108749362327
 20
344.2496736977517
 30
0.0
 11
1025.118646579324
 21
344.2468287435582
 31
0.0
  0
LINE
  5
434
330
22
100
AcDbEntity
  8
_2-7_ビス
  6
Continuous
 62
     7
100
AcDbLine
 10
1024.959056829603
 20
342.9275304987581
 30
0.0
 11
1024.959056829603
 21
342.9275304987581
 31
0.0
  0
LINE
  5
435
330
22
100
AcDbEntity
  8
_2-7_ビス
  6
Continuous
 62
     7
100
AcDbLine
 10
1024.959056829603
 20
342.9275304987581
 30
0.0
 11
1024.958385724016
 21
342.8875723447698
 31
0.0
  0
LINE
  5
436
330
22
100
AcDbEntity
  8
_2-7_ビス
  6
Continuous
 62
     7
100
AcDbLine
 10
1024.958385724016
 20
342.8875723447698
 30
0.0
 11
1024.96403604258
 21
342.8480931231876
 31
0.0
  0
LINE
  5
437
330
22
100
AcDbEntity
  8
_2-7_ビス
  6
Continuous
 62
     7
100
AcDbLine
 10
1024.96403604258
 20
342.8480931231876
 30
0.0
 11
1024.975836103225
 21
342.8102923901816
 31
0.0
  0
LINE
  5
438
330
22
100
AcDbEntity
  8
_2-7_ビス
  6
Continuous
 62
     7
100
AcDbLine
 10
1024.975836103225
 20
342.8102923901816
 30
0.0
 11
1024.993427367079
 21
342.7753187018964
 31
0.0
  0
LINE
  5
439
330
22
100
AcDbEntity
  8
_2-7_ビス
  6
Continuous
 62
     7
100
AcDbLine
 10
1024.993427367079
 20
342.7753187018964
 30
0.0
 11
1025.016275332491
 21
342.744234716153
 31
0.0
  0
LINE
  5
43A
330
22
100
AcDbEntity
  8
_2-7_ビス
  6
Continuous
 62
     7
100
AcDbLine
 10
1025.016275332491
 20
342.744234716153
 30
0.0
 11
1025.043685775595
 21
342.7179849041287
 31
0.0
  0
LINE
  5
43B
330
22
100
AcDbEntity
  8
_2-7_ビス
  6
Continuous
 62
     7
100
AcDbLine
 10
1025.043685775595
 20
342.7179849041287
 30
0.0
 11
1025.074825843947
 21
342.6973668530789
 31
0.0
  0
LINE
  5
43C
330
22
100
AcDbEntity
  8
_2-7_ビス
  6
Continuous
 62
     7
100
AcDbLine
 10
1025.074825843947
 20
342.6973668530789
 30
0.0
 11
1025.108749362327
 21
342.6830070320517
 31
0.0
  0
LINE
  5
43D
330
22
100
AcDbEntity
  8
_2-7_ビス
  6
Continuous
 62
     7
100
AcDbLine
 10
1025.108749362327
 20
342.6830070320517
 30
0.0
 11
1025.118646579324
 21
342.6801620778582
 31
0.0
  0
LINE
  5
43E
330
22
100
AcDbEntity
  8
_2-7_ビス
  6
Continuous
 62
     7
100
AcDbLine
 10
1025.016336401177
 20
341.360863833058
 30
0.0
 11
1025.016336401177
 21
341.360863833058
 31
0.0
  0
LINE
  5
43F
330
22
100
AcDbEntity
  8
_2-7_ビス
  6
Continuous
 62
     7
100
AcDbLine
 10
1025.016336401177
 20
341.360863833058
 30
0.0
 11
1025.01566529559
 21
341.3209056790698
 31
0.0
  0
LINE
  5
440
330
22
100
AcDbEntity
  8
_2-7_ビス
  6
Continuous
 62
     7
100
AcDbLine
 10
1025.01566529559
 20
341.3209056790698
 30
0.0
 11
1025.021315614154
 21
341.2814264574875
 31
0.0
  0
LINE
  5
441
330
22
100
AcDbEntity
  8
_2-7_ビス
  6
Continuous
 62
     7
100
AcDbLine
 10
1025.021315614154
 20
341.2814264574875
 30
0.0
 11
1025.033115674799
 21
341.2436257244816
 31
0.0
  0
LINE
  5
442
330
22
100
AcDbEntity
  8
_2-7_ビス
  6
Continuous
 62
     7
100
AcDbLine
 10
1025.033115674799
 20
341.2436257244816
 30
0.0
 11
1025.050706938653
 21
341.2086520361964
 31
0.0
  0
LINE
  5
443
330
22
100
AcDbEntity
  8
_2-7_ビス
  6
Continuous
 62
     7
100
AcDbLine
 10
1025.050706938653
 20
341.2086520361964
 30
0.0
 11
1025.073554904065
 21
341.1775680504529
 31
0.0
  0
LINE
  5
444
330
22
100
AcDbEntity
  8
_2-7_ビス
  6
Continuous
 62
     7
100
AcDbLine
 10
1025.073554904065
 20
341.1775680504529
 30
0.0
 11
1025.100965347169
 21
341.1513182384286
 31
0.0
  0
LINE
  5
445
330
22
100
AcDbEntity
  8
_2-7_ビス
  6
Continuous
 62
     7
100
AcDbLine
 10
1025.100965347169
 20
341.1513182384286
 30
0.0
 11
1025.132105415521
 21
341.1307001873788
 31
0.0
  0
LINE
  5
446
330
22
100
AcDbEntity
  8
_2-7_ビス
  6
Continuous
 62
     7
100
AcDbLine
 10
1025.132105415521
 20
341.1307001873788
 30
0.0
 11
1025.166028933901
 21
341.1163403663517
 31
0.0
  0
LINE
  5
447
330
22
100
AcDbEntity
  8
_2-7_ビス
  6
Continuous
 62
     7
100
AcDbLine
 10
1025.166028933901
 20
341.1163403663517
 30
0.0
 11
1025.175926150898
 21
341.1134954121581
 31
0.0
  0
LINE
  5
448
330
22
100
AcDbEntity
  8
_2-7_ビス
  6
Continuous
 62
     7
100
AcDbLine
 10
1024.959056829603
 20
338.227530501658
 30
0.0
 11
1024.959056829603
 21
338.227530501658
 31
0.0
  0
LINE
  5
449
330
22
100
AcDbEntity
  8
_2-7_ビス
  6
Continuous
 62
     7
100
AcDbLine
 10
1024.959056829603
 20
338.227530501658
 30
0.0
 11
1024.958385724016
 21
338.1875723476697
 31
0.0
  0
LINE
  5
44A
330
22
100
AcDbEntity
  8
_2-7_ビス
  6
Continuous
 62
     7
100
AcDbLine
 10
1024.958385724016
 20
338.1875723476697
 30
0.0
 11
1024.96403604258
 21
338.1480931260875
 31
0.0
  0
LINE
  5
44B
330
22
100
AcDbEntity
  8
_2-7_ビス
  6
Continuous
 62
     7
100
AcDbLine
 10
1024.96403604258
 20
338.1480931260875
 30
0.0
 11
1024.975836103225
 21
338.1102923930815
 31
0.0
  0
LINE
  5
44C
330
22
100
AcDbEntity
  8
_2-7_ビス
  6
Continuous
 62
     7
100
AcDbLine
 10
1024.975836103225
 20
338.1102923930815
 30
0.0
 11
1024.993427367079
 21
338.0753187047963
 31
0.0
  0
LINE
  5
44D
330
22
100
AcDbEntity
  8
_2-7_ビス
  6
Continuous
 62
     7
100
AcDbLine
 10
1024.993427367079
 20
338.0753187047963
 30
0.0
 11
1025.016275332491
 21
338.0442347190528
 31
0.0
  0
LINE
  5
44E
330
22
100
AcDbEntity
  8
_2-7_ビス
  6
Continuous
 62
     7
100
AcDbLine
 10
1025.016275332491
 20
338.0442347190528
 30
0.0
 11
1025.043685775595
 21
338.0179849070286
 31
0.0
  0
LINE
  5
44F
330
22
100
AcDbEntity
  8
_2-7_ビス
  6
Continuous
 62
     7
100
AcDbLine
 10
1025.043685775595
 20
338.0179849070286
 30
0.0
 11
1025.074825843947
 21
337.9973668559788
 31
0.0
  0
LINE
  5
450
330
22
100
AcDbEntity
  8
_2-7_ビス
  6
Continuous
 62
     7
100
AcDbLine
 10
1025.074825843947
 20
337.9973668559788
 30
0.0
 11
1025.108749362327
 21
337.9830070349516
 31
0.0
  0
LINE
  5
451
330
22
100
AcDbEntity
  8
_2-7_ビス
  6
Continuous
 62
     7
100
AcDbLine
 10
1025.108749362327
 20
337.9830070349516
 30
0.0
 11
1025.118646579324
 21
337.980162080758
 31
0.0
  0
LINE
  5
452
330
22
100
AcDbEntity
  8
_2-7_ビス
  6
Continuous
 62
     7
100
AcDbLine
 10
1024.991336880698
 20
336.660863835958
 30
0.0
 11
1024.991336880698
 21
336.660863835958
 31
0.0
  0
LINE
  5
453
330
22
100
AcDbEntity
  8
_2-7_ビス
  6
Continuous
 62
     7
100
AcDbLine
 10
1024.991336880698
 20
336.660863835958
 30
0.0
 11
1024.990665775111
 21
336.6209056819696
 31
0.0
  0
LINE
  5
454
330
22
100
AcDbEntity
  8
_2-7_ビス
  6
Continuous
 62
     7
100
AcDbLine
 10
1024.990665775111
 20
336.6209056819696
 30
0.0
 11
1024.996316093675
 21
336.5814264603874
 31
0.0
  0
LINE
  5
455
330
22
100
AcDbEntity
  8
_2-7_ビス
  6
Continuous
 62
     7
100
AcDbLine
 10
1024.996316093675
 20
336.5814264603874
 30
0.0
 11
1025.008116154319
 21
336.5436257273815
 31
0.0
  0
LINE
  5
456
330
22
100
AcDbEntity
  8
_2-7_ビス
  6
Continuous
 62
     7
100
AcDbLine
 10
1025.008116154319
 20
336.5436257273815
 30
0.0
 11
1025.025707418173
 21
336.5086520390963
 31
0.0
  0
LINE
  5
457
330
22
100
AcDbEntity
  8
_2-7_ビス
  6
Continuous
 62
     7
100
AcDbLine
 10
1025.025707418173
 20
336.5086520390963
 30
0.0
 11
1025.048555383586
 21
336.4775680533528
 31
0.0
  0
LINE
  5
458
330
22
100
AcDbEntity
  8
_2-7_ビス
  6
Continuous
 62
     7
100
AcDbLine
 10
1025.048555383586
 20
336.4775680533528
 30
0.0
 11
1025.075965826689
 21
336.4513182413285
 31
0.0
  0
LINE
  5
459
330
22
100
AcDbEntity
  8
_2-7_ビス
  6
Continuous
 62
     7
100
AcDbLine
 10
1025.075965826689
 20
336.4513182413285
 30
0.0
 11
1025.107105895041
 21
336.4307001902788
 31
0.0
  0
LINE
  5
45A
330
22
100
AcDbEntity
  8
_2-7_ビス
  6
Continuous
 62
     7
100
AcDbLine
 10
1025.107105895041
 20
336.4307001902788
 30
0.0
 11
1025.141029413421
 21
336.4163403692515
 31
0.0
  0
LINE
  5
45B
330
22
100
AcDbEntity
  8
_2-7_ビス
  6
Continuous
 62
     7
100
AcDbLine
 10
1025.141029413421
 20
336.4163403692515
 30
0.0
 11
1025.150926630419
 21
336.413495415058
 31
0.0
  0
LINE
  5
45C
330
22
100
AcDbEntity
  8
_2-7_ビス
  6
Continuous
 62
     7
100
AcDbLine
 10
1025.023439833506
 20
335.0941971702579
 30
0.0
 11
1025.023439833506
 21
335.0941971702579
 31
0.0
  0
LINE
  5
45D
330
22
100
AcDbEntity
  8
_2-7_ビス
  6
Continuous
 62
     7
100
AcDbLine
 10
1025.023439833506
 20
335.0941971702579
 30
0.0
 11
1025.022768727919
 21
335.0542390162696
 31
0.0
  0
LINE
  5
45E
330
22
100
AcDbEntity
  8
_2-7_ビス
  6
Continuous
 62
     7
100
AcDbLine
 10
1025.022768727919
 20
335.0542390162696
 30
0.0
 11
1025.028419046483
 21
335.0147597946874
 31
0.0
  0
LINE
  5
45F
330
22
100
AcDbEntity
  8
_2-7_ビス
  6
Continuous
 62
     7
100
AcDbLine
 10
1025.028419046483
 20
335.0147597946874
 30
0.0
 11
1025.040219107128
 21
334.9769590616814
 31
0.0
  0
LINE
  5
460
330
22
100
AcDbEntity
  8
_2-7_ビス
  6
Continuous
 62
     7
100
AcDbLine
 10
1025.040219107128
 20
334.9769590616814
 30
0.0
 11
1025.057810370982
 21
334.9419853733963
 31
0.0
  0
LINE
  5
461
330
22
100
AcDbEntity
  8
_2-7_ビス
  6
Continuous
 62
     7
100
AcDbLine
 10
1025.057810370982
 20
334.9419853733963
 30
0.0
 11
1025.080658336394
 21
334.9109013876528
 31
0.0
  0
LINE
  5
462
330
22
100
AcDbEntity
  8
_2-7_ビス
  6
Continuous
 62
     7
100
AcDbLine
 10
1025.080658336394
 20
334.9109013876528
 30
0.0
 11
1025.108068779498
 21
334.8846515756285
 31
0.0
  0
LINE
  5
463
330
22
100
AcDbEntity
  8
_2-7_ビス
  6
Continuous
 62
     7
100
AcDbLine
 10
1025.108068779498
 20
334.8846515756285
 30
0.0
 11
1025.139208847849
 21
334.8640335245788
 31
0.0
  0
LINE
  5
464
330
22
100
AcDbEntity
  8
_2-7_ビス
  6
Continuous
 62
     7
100
AcDbLine
 10
1025.139208847849
 20
334.8640335245788
 30
0.0
 11
1025.17313236623
 21
334.8496737035515
 31
0.0
  0
LINE
  5
465
330
22
100
AcDbEntity
  8
_2-7_ビス
  6
Continuous
 62
     7
100
AcDbLine
 10
1025.17313236623
 20
334.8496737035515
 30
0.0
 11
1025.183029583226
 21
334.846828749358
 31
0.0
  0
LINE
  5
466
330
22
100
AcDbEntity
  8
_2-7_ビス
  6
Continuous
 62
     7
100
AcDbLine
 10
1025.045754764535
 20
333.5275305045591
 30
0.0
 11
1025.045754764535
 21
333.5275305045591
 31
0.0
  0
LINE
  5
467
330
22
100
AcDbEntity
  8
_2-7_ビス
  6
Continuous
 62
     7
100
AcDbLine
 10
1025.045754764535
 20
333.5275305045591
 30
0.0
 11
1025.045083658949
 21
333.4875723505707
 31
0.0
  0
LINE
  5
468
330
22
100
AcDbEntity
  8
_2-7_ビス
  6
Continuous
 62
     7
100
AcDbLine
 10
1025.045083658949
 20
333.4875723505707
 30
0.0
 11
1025.050733977513
 21
333.4480931289884
 31
0.0
  0
LINE
  5
469
330
22
100
AcDbEntity
  8
_2-7_ビス
  6
Continuous
 62
     7
100
AcDbLine
 10
1025.050733977513
 20
333.4480931289884
 30
0.0
 11
1025.062534038158
 21
333.4102923959826
 31
0.0
  0
LINE
  5
46A
330
22
100
AcDbEntity
  8
_2-7_ビス
  6
Continuous
 62
     7
100
AcDbLine
 10
1025.062534038158
 20
333.4102923959826
 30
0.0
 11
1025.080125302011
 21
333.3753187076973
 31
0.0
  0
LINE
  5
46B
330
22
100
AcDbEntity
  8
_2-7_ビス
  6
Continuous
 62
     7
100
AcDbLine
 10
1025.080125302011
 20
333.3753187076973
 30
0.0
 11
1025.102973267424
 21
333.3442347219538
 31
0.0
  0
LINE
  5
46C
330
22
100
AcDbEntity
  8
_2-7_ビス
  6
Continuous
 62
     7
100
AcDbLine
 10
1025.102973267424
 20
333.3442347219538
 30
0.0
 11
1025.130383710528
 21
333.3179849099296
 31
0.0
  0
LINE
  5
46D
330
22
100
AcDbEntity
  8
_2-7_ビス
  6
Continuous
 62
     7
100
AcDbLine
 10
1025.130383710528
 20
333.3179849099296
 30
0.0
 11
1025.161523778879
 21
333.2973668588798
 31
0.0
  0
LINE
  5
46E
330
22
100
AcDbEntity
  8
_2-7_ビス
  6
Continuous
 62
     7
100
AcDbLine
 10
1025.161523778879
 20
333.2973668588798
 30
0.0
 11
1025.195447297259
 21
333.2830070378526
 31
0.0
  0
LINE
  5
46F
330
22
100
AcDbEntity
  8
_2-7_ビス
  6
Continuous
 62
     7
100
AcDbLine
 10
1025.195447297259
 20
333.2830070378526
 30
0.0
 11
1025.205344514256
 21
333.280162083659
 31
0.0
  0
LINE
  5
470
330
22
100
AcDbEntity
  8
_2-7_ビス
  6
Continuous
 62
     7
100
AcDbLine
 10
1025.07925734347
 20
331.9855921598283
 30
0.0
 11
1025.07925734347
 21
331.9855921598283
 31
0.0
  0
LINE
  5
471
330
22
100
AcDbEntity
  8
_2-7_ビス
  6
Continuous
 62
     7
100
AcDbLine
 10
1025.07925734347
 20
331.9855921598283
 30
0.0
 11
1025.06559519172
 21
331.9593041578511
 31
0.0
  0
LINE
  5
472
330
22
100
AcDbEntity
  8
_2-7_ビス
  6
Continuous
 62
     7
100
AcDbLine
 10
1025.06559519172
 20
331.9593041578511
 30
0.0
 11
1025.056292682172
 21
331.9308072685375
 31
0.0
  0
LINE
  5
473
330
22
100
AcDbEntity
  8
_2-7_ビス
  6
Continuous
 62
     7
100
AcDbLine
 10
1025.056292682172
 20
331.9308072685375
 30
0.0
 11
1025.05163246687
 21
331.9009673554492
 31
0.0
  0
LINE
  5
474
330
22
100
AcDbEntity
  8
_2-7_ビス
  6
Continuous
 62
     7
100
AcDbLine
 10
1025.05163246687
 20
331.9009673554492
 30
0.0
 11
1025.051756144099
 21
331.8706910892455
 31
0.0
  0
LINE
  5
475
330
22
100
AcDbEntity
  8
_2-7_ビス
  6
Continuous
 62
     7
100
AcDbLine
 10
1025.051756144099
 20
331.8706910892455
 30
0.0
 11
1025.05665995599
 21
331.8408983989547
 31
0.0
  0
LINE
  5
476
330
22
100
AcDbEntity
  8
_2-7_ビス
  6
Continuous
 62
     7
100
AcDbLine
 10
1025.05665995599
 20
331.8408983989547
 30
0.0
 11
1025.066194902697
 21
331.8124945203952
 31
0.0
  0
LINE
  5
477
330
22
100
AcDbEntity
  8
_2-7_ビス
  6
Continuous
 62
     7
100
AcDbLine
 10
1025.066194902697
 20
331.8124945203952
 30
0.0
 11
1025.080071269692
 21
331.7863424910443
 31
0.0
  0
LINE
  5
478
330
22
100
AcDbEntity
  8
_2-7_ビス
  6
Continuous
 62
     7
100
AcDbLine
 10
1025.080071269692
 20
331.7863424910443
 30
0.0
 11
1025.097867430584
 21
331.76323692708
 31
0.0
  0
LINE
  5
479
330
22
100
AcDbEntity
  8
_2-7_ビス
  6
Continuous
 62
     7
100
AcDbLine
 10
1025.097867430584
 20
331.76323692708
 30
0.0
 11
1025.11904265803
 21
331.7438798793714
 31
0.0
  0
LINE
  5
47A
330
22
100
AcDbEntity
  8
_2-7_ビス
  6
Continuous
 62
     7
100
AcDbLine
 10
1025.11904265803
 20
331.7438798793714
 30
0.0
 11
1025.142953553461
 21
331.7288595020181
 31
0.0
  0
LINE
  5
47B
330
22
100
AcDbEntity
  8
_2-7_ビス
  6
Continuous
 62
     7
100
AcDbLine
 10
1025.142953553461
 20
331.7288595020181
 30
0.0
 11
1025.168873596416
 21
331.7186321815852
 31
0.0
  0
LINE
  5
47C
330
22
100
AcDbEntity
  8
_2-7_ビス
  6
Continuous
 62
     7
100
AcDbLine
 10
1025.168873596416
 20
331.7186321815852
 30
0.0
 11
1025.196015219508
 21
331.7135086700288
 31
0.0
  0
LINE
  5
47D
330
22
100
AcDbEntity
  8
_2-7_ビス
  6
Continuous
 62
     7
100
AcDbLine
 10
1025.196015219508
 20
331.7135086700288
 30
0.0
 11
1025.196161329324
 21
331.7134954179588
 31
0.0
  0
LINE
  5
47E
330
22
100
AcDbEntity
  8
_2-7_ビス
  6
Continuous
 62
     7
100
AcDbLine
 10
1025.499270079325
 20
340.6187585703585
 30
0.0
 11
1025.499270079325
 21
340.6187585703585
 31
0.0
  0
LINE
  5
47F
330
22
100
AcDbEntity
  8
_2-7_ビス
  6
Continuous
 62
     7
100
AcDbLine
 10
1025.499270079325
 20
340.6187585703585
 30
0.0
 11
1025.414944248531
 21
340.6064986137108
 31
0.0
  0
LINE
  5
480
330
22
100
AcDbEntity
  8
_2-7_ビス
  6
Continuous
 62
     7
100
AcDbLine
 10
1025.414944248531
 20
340.6064986137108
 30
0.0
 11
1025.333835927073
 21
340.5783261470037
 31
0.0
  0
LINE
  5
481
330
22
100
AcDbEntity
  8
_2-7_ビス
  6
Continuous
 62
     7
100
AcDbLine
 10
1025.333835927073
 20
340.5783261470037
 30
0.0
 11
1025.258409550255
 21
340.5350971763821
 31
0.0
  0
LINE
  5
482
330
22
100
AcDbEntity
  8
_2-7_ビス
  6
Continuous
 62
     7
100
AcDbLine
 10
1025.258409550255
 20
340.5350971763821
 30
0.0
 11
1025.190956910369
 21
340.4781251922436
 31
0.0
  0
LINE
  5
483
330
22
100
AcDbEntity
  8
_2-7_ビス
  6
Continuous
 62
     7
100
AcDbLine
 10
1025.190956910369
 20
340.4781251922436
 30
0.0
 11
1025.133527521746
 21
340.4091412594969
 31
0.0
  0
LINE
  5
484
330
22
100
AcDbEntity
  8
_2-7_ビス
  6
Continuous
 62
     7
100
AcDbLine
 10
1025.133527521746
 20
340.4091412594969
 30
0.0
 11
1025.087866347297
 21
340.330241420031
 31
0.0
  0
LINE
  5
485
330
22
100
AcDbEntity
  8
_2-7_ビス
  6
Continuous
 62
     7
100
AcDbLine
 10
1025.087866347297
 20
340.330241420031
 30
0.0
 11
1025.055360778704
 21
340.2438230055428
 31
0.0
  0
LINE
  5
486
330
22
100
AcDbEntity
  8
_2-7_ビス
  6
Continuous
 62
     7
100
AcDbLine
 10
1025.055360778704
 20
340.2438230055428
 30
0.0
 11
1025.036998481219
 21
340.1525117958267
 31
0.0
  0
LINE
  5
487
330
22
100
AcDbEntity
  8
_2-7_ビス
  6
Continuous
 62
     7
100
AcDbLine
 10
1025.036998481219
 20
340.1525117958267
 30
0.0
 11
1025.033337383959
 21
340.0590822357843
 31
0.0
  0
LINE
  5
488
330
22
100
AcDbEntity
  8
_2-7_ビス
  6
Continuous
 62
     7
100
AcDbLine
 10
1025.033337383959
 20
340.0590822357843
 30
0.0
 11
1025.044488727513
 21
339.9663731353196
 31
0.0
  0
LINE
  5
489
330
22
100
AcDbEntity
  8
_2-7_ビス
  6
Continuous
 62
     7
100
AcDbLine
 10
1025.044488727513
 20
339.9663731353196
 30
0.0
 11
1025.070113683948
 21
339.8772014135375
 31
0.0
  0
LINE
  5
48A
330
22
100
AcDbEntity
  8
_2-7_ビス
  6
Continuous
 62
     7
100
AcDbLine
 10
1025.070113683948
 20
339.8772014135375
 30
0.0
 11
1025.109433651931
 21
339.794276508081
 31
0.0
  0
LINE
  5
48B
330
22
100
AcDbEntity
  8
_2-7_ビス
  6
Continuous
 62
     7
100
AcDbLine
 10
1025.109433651931
 20
339.794276508081
 30
0.0
 11
1025.161253914132
 21
339.7201180502406
 31
0.0
  0
LINE
  5
48C
330
22
100
AcDbEntity
  8
_2-7_ビス
  6
Continuous
 62
     7
100
AcDbLine
 10
1025.161253914132
 20
339.7201180502406
 30
0.0
 11
1025.223999938106
 21
339.6569793072316
 31
0.0
  0
LINE
  5
48D
330
22
100
AcDbEntity
  8
_2-7_ビス
  6
Continuous
 62
     7
100
AcDbLine
 10
1025.223999938106
 20
339.6569793072316
 30
0.0
 11
1025.295765217664
 21
339.6067787178105
 31
0.0
  0
LINE
  5
48E
330
22
100
AcDbEntity
  8
_2-7_ビス
  6
Continuous
 62
     7
100
AcDbLine
 10
1025.295765217664
 20
339.6067787178105
 30
0.0
 11
1025.374369201103
 21
339.5710416014845
 31
0.0
  0
LINE
  5
48F
330
22
100
AcDbEntity
  8
_2-7_ビス
  6
Continuous
 62
     7
100
AcDbLine
 10
1025.374369201103
 20
339.5710416014845
 30
0.0
 11
1025.457423546162
 21
339.5508538124491
 31
0.0
  0
LINE
  5
490
330
22
100
AcDbEntity
  8
_2-7_ビス
  6
Continuous
 62
     7
100
AcDbLine
 10
1025.457423546162
 20
339.5508538124491
 30
0.0
 11
1025.499270079325
 21
339.5468287464585
 31
0.0
  0
LINE
  5
491
330
22
100
AcDbEntity
  8
_2-7_ビス
  6
Continuous
 62
     7
100
AcDbLine
 10
1025.499270079325
 20
348.4520918988587
 30
0.0
 11
1025.499270079325
 21
348.4520918988587
 31
0.0
  0
LINE
  5
492
330
22
100
AcDbEntity
  8
_2-7_ビス
  6
Continuous
 62
     7
100
AcDbLine
 10
1025.499270079325
 20
348.4520918988587
 30
0.0
 11
1025.414944248531
 21
348.4398319422109
 31
0.0
  0
LINE
  5
493
330
22
100
AcDbEntity
  8
_2-7_ビス
  6
Continuous
 62
     7
100
AcDbLine
 10
1025.414944248531
 20
348.4398319422109
 30
0.0
 11
1025.333835927073
 21
348.4116594755038
 31
0.0
  0
LINE
  5
494
330
22
100
AcDbEntity
  8
_2-7_ビス
  6
Continuous
 62
     7
100
AcDbLine
 10
1025.333835927073
 20
348.4116594755038
 30
0.0
 11
1025.258409550255
 21
348.3684305048824
 31
0.0
  0
LINE
  5
495
330
22
100
AcDbEntity
  8
_2-7_ビス
  6
Continuous
 62
     7
100
AcDbLine
 10
1025.258409550255
 20
348.3684305048824
 30
0.0
 11
1025.190956910369
 21
348.3114585207438
 31
0.0
  0
LINE
  5
496
330
22
100
AcDbEntity
  8
_2-7_ビス
  6
Continuous
 62
     7
100
AcDbLine
 10
1025.190956910369
 20
348.3114585207438
 30
0.0
 11
1025.133527521746
 21
348.2424745879972
 31
0.0
  0
LINE
  5
497
330
22
100
AcDbEntity
  8
_2-7_ビス
  6
Continuous
 62
     7
100
AcDbLine
 10
1025.133527521746
 20
348.2424745879972
 30
0.0
 11
1025.087866347297
 21
348.1635747485313
 31
0.0
  0
LINE
  5
498
330
22
100
AcDbEntity
  8
_2-7_ビス
  6
Continuous
 62
     7
100
AcDbLine
 10
1025.087866347297
 20
348.1635747485313
 30
0.0
 11
1025.055360778704
 21
348.077156334043
 31
0.0
  0
LINE
  5
499
330
22
100
AcDbEntity
  8
_2-7_ビス
  6
Continuous
 62
     7
100
AcDbLine
 10
1025.055360778704
 20
348.077156334043
 30
0.0
 11
1025.036998481219
 21
347.9858451243269
 31
0.0
  0
LINE
  5
49A
330
22
100
AcDbEntity
  8
_2-7_ビス
  6
Continuous
 62
     7
100
AcDbLine
 10
1025.036998481219
 20
347.9858451243269
 30
0.0
 11
1025.033337383959
 21
347.8924155642844
 31
0.0
  0
LINE
  5
49B
330
22
100
AcDbEntity
  8
_2-7_ビス
  6
Continuous
 62
     7
100
AcDbLine
 10
1025.033337383959
 20
347.8924155642844
 30
0.0
 11
1025.044488727513
 21
347.7997064638198
 31
0.0
  0
LINE
  5
49C
330
22
100
AcDbEntity
  8
_2-7_ビス
  6
Continuous
 62
     7
100
AcDbLine
 10
1025.044488727513
 20
347.7997064638198
 30
0.0
 11
1025.070113683948
 21
347.7105347420377
 31
0.0
  0
LINE
  5
49D
330
22
100
AcDbEntity
  8
_2-7_ビス
  6
Continuous
 62
     7
100
AcDbLine
 10
1025.070113683948
 20
347.7105347420377
 30
0.0
 11
1025.109433651931
 21
347.6276098365812
 31
0.0
  0
LINE
  5
49E
330
22
100
AcDbEntity
  8
_2-7_ビス
  6
Continuous
 62
     7
100
AcDbLine
 10
1025.109433651931
 20
347.6276098365812
 30
0.0
 11
1025.161253914132
 21
347.5534513787408
 31
0.0
  0
LINE
  5
49F
330
22
100
AcDbEntity
  8
_2-7_ビス
  6
Continuous
 62
     7
100
AcDbLine
 10
1025.161253914132
 20
347.5534513787408
 30
0.0
 11
1025.223999938106
 21
347.4903126357318
 31
0.0
  0
LINE
  5
4A0
330
22
100
AcDbEntity
  8
_2-7_ビス
  6
Continuous
 62
     7
100
AcDbLine
 10
1025.223999938106
 20
347.4903126357318
 30
0.0
 11
1025.295765217664
 21
347.4401120463108
 31
0.0
  0
LINE
  5
4A1
330
22
100
AcDbEntity
  8
_2-7_ビス
  6
Continuous
 62
     7
100
AcDbLine
 10
1025.295765217664
 20
347.4401120463108
 30
0.0
 11
1025.374369201103
 21
347.4043749299847
 31
0.0
  0
LINE
  5
4A2
330
22
100
AcDbEntity
  8
_2-7_ビス
  6
Continuous
 62
     7
100
AcDbLine
 10
1025.374369201103
 20
347.4043749299847
 30
0.0
 11
1025.457423546162
 21
347.3841871409492
 31
0.0
  0
LINE
  5
4A3
330
22
100
AcDbEntity
  8
_2-7_ビス
  6
Continuous
 62
     7
100
AcDbLine
 10
1025.457423546162
 20
347.3841871409492
 30
0.0
 11
1025.499270079325
 21
347.3801620749587
 31
0.0
  0
LINE
  5
4A4
330
22
100
AcDbEntity
  8
_2-7_ビス
  6
Continuous
 62
     7
100
AcDbLine
 10
1025.174053268523
 20
329.3222673492581
 30
0.0
 11
1025.174053268523
 21
329.3222673492581
 31
0.0
  0
LINE
  5
4A5
330
22
100
AcDbEntity
  8
_2-7_ビス
  6
Continuous
 62
     7
100
AcDbLine
 10
1025.174053268523
 20
329.3222673492581
 30
0.0
 11
1025.137868054621
 21
329.1886830224909
 31
0.0
  0
LINE
  5
4A6
330
22
100
AcDbEntity
  8
_2-7_ビス
  6
Continuous
 62
     7
100
AcDbLine
 10
1025.137868054621
 20
329.1886830224909
 30
0.0
 11
1025.123331678679
 21
329.0502199702755
 31
0.0
  0
LINE
  5
4A7
330
22
100
AcDbEntity
  8
_2-7_ビス
  6
Continuous
 62
     7
100
AcDbLine
 10
1025.123331678679
 20
329.0502199702755
 30
0.0
 11
1025.123777935434
 21
328.9924427880582
 31
0.0
  0
LINE
  5
4A8
330
22
100
AcDbEntity
  8
_2-7_ビス
  6
Continuous
 62
     7
100
AcDbLine
 10
1024.616235829325
 20
327.0134954208585
 30
0.0
 11
1024.616235829325
 21
327.0134954208585
 31
0.0
  0
LINE
  5
4A9
330
22
100
AcDbEntity
  8
_2-7_ビス
  6
Continuous
 62
     7
100
AcDbLine
 10
1024.616235829325
 20
327.0134954208585
 30
0.0
 11
1024.610195051782
 21
327.0690259960363
 31
0.0
  0
LINE
  5
4AA
330
22
100
AcDbEntity
  8
_2-7_ビス
  6
Continuous
 62
     7
100
AcDbLine
 10
1024.610195051782
 20
327.0690259960363
 30
0.0
 11
1024.595475217832
 21
327.1225596834208
 31
0.0
  0
LINE
  5
4AB
330
22
100
AcDbEntity
  8
_2-7_ビス
  6
Continuous
 62
     7
100
AcDbLine
 10
1024.595475217832
 20
327.1225596834208
 30
0.0
 11
1024.572523582182
 21
327.1724698890103
 31
0.0
  0
LINE
  5
4AC
330
22
100
AcDbEntity
  8
_2-7_ビス
  6
Continuous
 62
     7
100
AcDbLine
 10
1024.572523582182
 20
327.1724698890103
 30
0.0
 11
1024.542037518665
 21
327.2172401164636
 31
0.0
  0
LINE
  5
4AD
330
22
100
AcDbEntity
  8
_2-7_ビス
  6
Continuous
 62
     7
100
AcDbLine
 10
1024.542037518665
 20
327.2172401164636
 30
0.0
 11
1024.504943330897
 21
327.2555100450746
 31
0.0
  0
LINE
  5
4AE
330
22
100
AcDbEntity
  8
_2-7_ビス
  6
Continuous
 62
     7
100
AcDbLine
 10
1024.504943330897
 20
327.2555100450746
 30
0.0
 11
1024.462368107
 21
327.2861168624278
 31
0.0
  0
LINE
  5
4AF
330
22
100
AcDbEntity
  8
_2-7_ビス
  6
Continuous
 62
     7
100
AcDbLine
 10
1024.462368107
 20
327.2861168624278
 30
0.0
 11
1024.415605473611
 21
327.3081305958657
 31
0.0
  0
LINE
  5
4B0
330
22
100
AcDbEntity
  8
_2-7_ビス
  6
Continuous
 62
     7
100
AcDbLine
 10
1024.415605473611
 20
327.3081305958657
 30
0.0
 11
1024.36607628968
 21
327.3208823692373
 31
0.0
  0
LINE
  5
4B1
330
22
100
AcDbEntity
  8
_2-7_ビス
  6
Continuous
 62
     7
100
AcDbLine
 10
1024.36607628968
 20
327.3208823692373
 30
0.0
 11
1024.315285474398
 21
327.3239847263615
 31
0.0
  0
LINE
  5
4B2
330
22
100
AcDbEntity
  8
_2-7_ビス
  6
Continuous
 62
     7
100
AcDbLine
 10
1024.315285474398
 20
327.3239847263615
 30
0.0
 11
1024.264776280987
 21
327.3173434036869
 31
0.0
  0
LINE
  5
4B3
330
22
100
AcDbEntity
  8
_2-7_ビス
  6
Continuous
 62
     7
100
AcDbLine
 10
1024.264776280987
 20
327.3173434036869
 30
0.0
 11
1024.21608340573
 21
327.3011601944423
 31
0.0
  0
LINE
  5
4B4
330
22
100
AcDbEntity
  8
_2-7_ビス
  6
Continuous
 62
     7
100
AcDbLine
 10
1024.21608340573
 20
327.3011601944423
 30
0.0
 11
1024.170686357001
 21
327.2759268172515
 31
0.0
  0
LINE
  5
4B5
330
22
100
AcDbEntity
  8
_2-7_ビス
  6
Continuous
 62
     7
100
AcDbLine
 10
1024.170686357001
 20
327.2759268172515
 30
0.0
 11
1024.129964501153
 21
327.2424099755117
 31
0.0
  0
LINE
  5
4B6
330
22
100
AcDbEntity
  8
_2-7_ビス
  6
Continuous
 62
     7
100
AcDbLine
 10
1024.129964501153
 20
327.2424099755117
 30
0.0
 11
1024.095155151172
 21
327.2016280614987
 31
0.0
  0
LINE
  5
4B7
330
22
100
AcDbEntity
  8
_2-7_ビス
  6
Continuous
 62
     7
100
AcDbLine
 10
1024.095155151172
 20
327.2016280614987
 30
0.0
 11
1024.067315971541
 21
327.1548202130335
 31
0.0
  0
LINE
  5
4B8
330
22
100
AcDbEntity
  8
_2-7_ビス
  6
Continuous
 62
     7
100
AcDbLine
 10
1024.067315971541
 20
327.1548202130335
 30
0.0
 11
1024.047292841646
 21
327.1034086629054
 31
0.0
  0
LINE
  5
4B9
330
22
100
AcDbEntity
  8
_2-7_ビス
  6
Continuous
 62
     7
100
AcDbLine
 10
1024.047292841646
 20
327.1034086629054
 30
0.0
 11
1024.035694154158
 21
327.04895552505
 31
0.0
  0
LINE
  5
4BA
330
22
100
AcDbEntity
  8
_2-7_ビス
  6
Continuous
 62
     7
100
AcDbLine
 10
1024.035694154158
 20
327.04895552505
 30
0.0
 11
1024.032872329325
 21
326.9931153305059
 31
0.0
  0
LINE
  5
4BB
330
22
100
AcDbEntity
  8
_2-7_ビス
  6
Continuous
 62
     7
100
AcDbLine
 10
1024.032872329325
 20
326.9931153305059
 30
0.0
 11
1024.032872329325
 21
326.9931153305058
 31
0.0
  0
LINE
  5
4BC
330
22
100
AcDbEntity
  8
_2-7_ビス
  6
Continuous
 62
     7
100
AcDbLine
 10
1019.330520079323
 20
363.9811681173467
 30
0.0
 11
1019.330520079323
 21
368.0766532902589
 31
0.0
  0
LINE
  5
4BD
330
22
100
AcDbEntity
  8
_2-7_ビス
  6
Continuous
 62
     7
100
AcDbLine
 10
1019.330520079323
 20
368.0766532902589
 30
0.0
 11
1022.330520079324
 21
368.0766532902589
 31
0.0
  0
LINE
  5
4BE
330
22
100
AcDbEntity
  8
_2-7_ビス
  6
Continuous
 62
     7
100
AcDbLine
 10
1019.330520079323
 20
363.9811681173467
 30
0.0
 11
1018.580520079324
 21
363.1566071971429
 31
0.0
  0
LINE
  5
4BF
330
22
100
AcDbEntity
  8
_2-7_ビス
  6
Continuous
 62
     7
100
AcDbLine
 10
1018.580520079324
 20
363.1566071971429
 30
0.0
 11
1018.580520079324
 21
361.0580014700282
 31
0.0
  0
LINE
  5
4C0
330
22
100
AcDbEntity
  8
_2-7_ビス
  6
Continuous
 62
     7
100
AcDbLine
 10
1018.580520079324
 20
361.0580014700282
 30
0.0
 11
1019.128739329325
 21
356.9404081567791
 31
0.0
  0
LINE
  5
4C1
330
22
100
AcDbEntity
  8
_2-7_ビス
  6
Continuous
 62
     7
100
AcDbLine
 10
1019.128739329325
 20
356.9404081567791
 30
0.0
 11
1019.370663079325
 21
356.5327936482583
 31
0.0
  0
LINE
  5
4C2
330
22
100
AcDbEntity
  8
_2-7_ビス
  6
Continuous
 62
     7
100
AcDbLine
 10
1019.370663079325
 20
356.5327936482583
 30
0.0
 11
1019.330520079323
 21
356.5327936482583
 31
0.0
  0
LINE
  5
4C3
330
22
100
AcDbEntity
  8
_2-7_ビス
  6
Continuous
 62
     7
100
AcDbLine
 10
1019.330520079323
 20
356.5327936482583
 30
0.0
 11
1019.330520079323
 21
354.7187585616586
 31
0.0
  0
LINE
  5
4C4
330
22
100
AcDbEntity
  8
_2-7_ビス
  6
Continuous
 62
     7
100
AcDbLine
 10
1019.330520079323
 20
354.7187585616586
 30
0.0
 11
1019.763532639892
 21
353.8941971586587
 31
0.0
  0
LINE
  5
4C5
330
22
100
AcDbEntity
  8
_2-7_ビス
  6
Continuous
 62
     7
100
AcDbLine
 10
1019.633628829324
 20
353.646828737758
 30
0.0
 11
1018.655520079325
 21
353.646828737758
 31
0.0
  0
LINE
  5
4C6
330
22
100
AcDbEntity
  8
_2-7_ビス
  6
Continuous
 62
     7
100
AcDbLine
 10
1018.655520079325
 20
353.646828737758
 30
0.0
 11
1018.655520079325
 21
349.4134381438789
 31
0.0
  0
LINE
  5
4C7
330
22
100
AcDbEntity
  8
_2-7_ビス
  6
Continuous
 62
     7
100
AcDbLine
 10
1018.655520079325
 20
349.4134381438789
 30
0.0
 11
1019.156989579325
 21
348.4520918988585
 31
0.0
  0
LINE
  5
4C8
330
22
100
AcDbEntity
  8
_2-7_ビス
  6
Continuous
 62
     7
100
AcDbLine
 10
1019.156989579325
 20
348.4520918988585
 30
0.0
 11
1019.161770079325
 21
348.4520918988585
 31
0.0
  0
LINE
  5
4C9
330
22
100
AcDbEntity
  8
_2-7_ビス
  6
Continuous
 62
     7
100
AcDbLine
 10
1019.161774252609
 20
348.4520922526405
 30
0.0
 11
1019.161770079325
 21
348.4520918988585
 31
0.0
  0
LINE
  5
4CA
330
22
100
AcDbEntity
  8
_2-7_ビス
  6
Continuous
 62
     7
100
AcDbLine
 10
1019.161774252609
 20
348.4520922526405
 30
0.0
 11
1019.161770079325
 21
348.4520918988585
 31
0.0
  0
LINE
  5
4CB
330
22
100
AcDbEntity
  8
_2-7_ビス
  6
Continuous
 62
     7
100
AcDbLine
 10
1019.194361329325
 20
347.3801620749589
 30
0.0
 11
1018.655520079325
 21
347.3801620749589
 31
0.0
  0
LINE
  5
4CC
330
22
100
AcDbEntity
  8
_2-7_ビス
  6
Continuous
 62
     7
100
AcDbLine
 10
1018.655520079325
 20
347.3801620749589
 30
0.0
 11
1018.655520079325
 21
341.5829289381849
 31
0.0
  0
LINE
  5
4CD
330
22
100
AcDbEntity
  8
_2-7_ビス
  6
Continuous
 62
     7
100
AcDbLine
 10
1018.655520079325
 20
341.5829289381849
 30
0.0
 11
1019.161767266386
 21
340.6187775684203
 31
0.0
  0
LINE
  5
4CE
330
22
100
AcDbEntity
  8
_2-7_ビス
  6
Continuous
 62
     7
100
AcDbLine
 10
1019.161770079325
 20
340.6187585703583
 30
0.0
 11
1019.16536170968
 21
341.0962099675988
 31
0.0
  0
LINE
  5
4CF
330
22
100
AcDbEntity
  8
_2-7_ビス
  6
Continuous
 62
     7
100
AcDbLine
 10
1019.16536170968
 20
341.0962099675988
 30
0.0
 11
1019.486041717304
 21
341.1134954121587
 31
0.0
  0
LINE
  5
4D0
330
22
100
AcDbEntity
  8
_2-7_ビス
  6
Continuous
 62
     7
100
AcDbLine
 10
1019.644703757472
 20
341.3608638330584
 30
0.0
 11
1019.194361329325
 21
342.1854252360584
 31
0.0
  0
LINE
  5
4D1
330
22
100
AcDbEntity
  8
_2-7_ビス
  6
Continuous
 62
     7
100
AcDbLine
 10
1019.194361329325
 20
342.1854252360584
 30
0.0
 11
1019.194361177201
 21
342.6628767050534
 31
0.0
  0
LINE
  5
4D2
330
22
100
AcDbEntity
  8
_2-7_ビス
  6
Continuous
 62
     7
100
AcDbLine
 10
1019.194361177201
 20
342.6628767050534
 30
0.0
 11
1019.542393579325
 21
342.6801620778588
 31
0.0
  0
LINE
  5
4D3
330
22
100
AcDbEntity
  8
_2-7_ビス
  6
Continuous
 62
     7
100
AcDbLine
 10
1019.701983329045
 20
342.9275304987584
 30
0.0
 11
1019.194361329325
 21
343.7520919017583
 31
0.0
  0
LINE
  5
4D4
330
22
100
AcDbEntity
  8
_2-7_ビス
  6
Continuous
 62
     7
100
AcDbLine
 10
1019.194361329325
 20
343.7520919017583
 30
0.0
 11
1019.194361329325
 21
344.229543462867
 31
0.0
  0
LINE
  5
4D5
330
22
100
AcDbEntity
  8
_2-7_ビス
  6
Continuous
 62
     7
100
AcDbLine
 10
1019.194361329325
 20
344.229543462867
 30
0.0
 11
1019.542393579325
 21
344.2468287435588
 31
0.0
  0
LINE
  5
4D6
330
22
100
AcDbEntity
  8
_2-7_ビス
  6
Continuous
 62
     7
100
AcDbLine
 10
1019.701983329045
 20
344.4941971644585
 30
0.0
 11
1019.194361329325
 21
345.3187585674584
 31
0.0
  0
LINE
  5
4D7
330
22
100
AcDbEntity
  8
_2-7_ビス
  6
Continuous
 62
     7
100
AcDbLine
 10
1019.194361329325
 20
345.3187585674584
 30
0.0
 11
1019.194361329325
 21
345.7962101285671
 31
0.0
  0
LINE
  5
4D8
330
22
100
AcDbEntity
  8
_2-7_ビス
  6
Continuous
 62
     7
100
AcDbLine
 10
1019.194361329325
 20
345.7962101285671
 30
0.0
 11
1019.542393579325
 21
345.8134954092588
 31
0.0
  0
LINE
  5
4D9
330
22
100
AcDbEntity
  8
_2-7_ビス
  6
Continuous
 62
     7
100
AcDbLine
 10
1019.701983329045
 20
346.0608638301585
 30
0.0
 11
1019.194361177201
 21
346.8854252331585
 31
0.0
  0
LINE
  5
4DA
330
22
100
AcDbEntity
  8
_2-7_ビス
  6
Continuous
 62
     7
100
AcDbLine
 10
1019.194361177201
 20
346.8854252331585
 30
0.0
 11
1019.194361329325
 21
347.3801620749589
 31
0.0
  0
LINE
  5
4DB
330
22
100
AcDbEntity
  8
_2-7_ビス
  6
Continuous
 62
     7
100
AcDbLine
 10
1019.161774252609
 20
348.4520922526405
 30
0.0
 11
1019.165459453854
 21
348.9295437216345
 31
0.0
  0
LINE
  5
4DC
330
22
100
AcDbEntity
  8
_2-7_ビス
  6
Continuous
 62
     7
100
AcDbLine
 10
1019.165459453854
 20
348.9295437216345
 30
0.0
 11
1019.482904329324
 21
348.9468287406589
 31
0.0
  0
LINE
  5
4DD
330
22
100
AcDbEntity
  8
_2-7_ビス
  6
Continuous
 62
     7
100
AcDbLine
 10
1019.644996469645
 20
349.1941971615585
 30
0.0
 11
1019.194361177201
 21
350.0187585645585
 31
0.0
  0
LINE
  5
4DE
330
22
100
AcDbEntity
  8
_2-7_ビス
  6
Continuous
 62
     7
100
AcDbLine
 10
1019.194361177201
 20
350.0187585645585
 30
0.0
 11
1019.194361177201
 21
350.4962100335524
 31
0.0
  0
LINE
  5
4DF
330
22
100
AcDbEntity
  8
_2-7_ビス
  6
Continuous
 62
     7
100
AcDbLine
 10
1019.194361177201
 20
350.4962100335524
 30
0.0
 11
1019.542393579325
 21
350.513495406359
 31
0.0
  0
LINE
  5
4E0
330
22
100
AcDbEntity
  8
_2-7_ビス
  6
Continuous
 62
     7
100
AcDbLine
 10
1019.701983329045
 20
350.7608638272586
 30
0.0
 11
1019.194361329325
 21
351.5854252302586
 31
0.0
  0
LINE
  5
4E1
330
22
100
AcDbEntity
  8
_2-7_ビス
  6
Continuous
 62
     7
100
AcDbLine
 10
1019.194361329325
 20
351.5854252302586
 30
0.0
 11
1019.194361177201
 21
352.0628766992524
 31
0.0
  0
LINE
  5
4E2
330
22
100
AcDbEntity
  8
_2-7_ビス
  6
Continuous
 62
     7
100
AcDbLine
 10
1019.194361177201
 20
352.0628766992524
 30
0.0
 11
1019.543279671813
 21
352.0803936532184
 31
0.0
  0
LINE
  5
4E3
330
22
100
AcDbEntity
  8
_2-7_ビス
  6
Continuous
 62
     7
100
AcDbLine
 10
1019.701983329045
 20
352.3275304929586
 30
0.0
 11
1019.194361177201
 21
353.1520918959586
 31
0.0
  0
LINE
  5
4E4
330
22
100
AcDbEntity
  8
_2-7_ビス
  6
Continuous
 62
     7
100
AcDbLine
 10
1019.194361177201
 20
353.1520918959586
 30
0.0
 11
1019.194361334831
 21
353.646828737758
 31
0.0
  0
LINE
  5
4E5
330
22
100
AcDbEntity
  8
_2-7_ビス
  6
Continuous
 62
     7
100
AcDbLine
 10
1019.194361329325
 20
339.5468287464587
 30
0.0
 11
1018.655520079325
 21
339.5468287464587
 31
0.0
  0
LINE
  5
4E6
330
22
100
AcDbEntity
  8
_2-7_ビス
  6
Continuous
 62
     7
100
AcDbLine
 10
1018.655520079325
 20
339.5468287464587
 30
0.0
 11
1018.655520079325
 21
336.2985870116211
 31
0.0
  0
LINE
  5
4E7
330
22
100
AcDbEntity
  8
_2-7_ビス
  6
Continuous
 62
     7
100
AcDbLine
 10
1018.655520079325
 20
336.2985870116211
 30
0.0
 11
1019.161305829324
 21
332.7854252418581
 31
0.0
  0
LINE
  5
4E8
330
22
100
AcDbEntity
  8
_2-7_ビス
  6
Continuous
 62
     7
100
AcDbLine
 10
1019.161305829324
 20
332.7854252418581
 30
0.0
 11
1019.162040346988
 21
333.2628763259993
 31
0.0
  0
LINE
  5
4E9
330
22
100
AcDbEntity
  8
_2-7_ビス
  6
Continuous
 62
     7
100
AcDbLine
 10
1019.162040346988
 20
333.2628763259993
 30
0.0
 11
1019.470728829325
 21
333.2801620836585
 31
0.0
  0
LINE
  5
4EA
330
22
100
AcDbEntity
  8
_2-7_ビス
  6
Continuous
 62
     7
100
AcDbLine
 10
1019.161305829324
 20
332.7854252418581
 30
0.0
 11
1019.594782639892
 21
331.9608638388581
 31
0.0
  0
LINE
  5
4EB
330
22
100
AcDbEntity
  8
_2-7_ビス
  6
Continuous
 62
     7
100
AcDbLine
 10
1019.615285394112
 20
333.5275305045582
 30
0.0
 11
1019.164683060652
 21
334.3520919075581
 31
0.0
  0
LINE
  5
4EC
330
22
100
AcDbEntity
  8
_2-7_ビス
  6
Continuous
 62
     7
100
AcDbLine
 10
1019.164683060652
 20
334.3520919075581
 30
0.0
 11
1019.166767964914
 21
334.8295429916982
 31
0.0
  0
LINE
  5
4ED
330
22
100
AcDbEntity
  8
_2-7_ビス
  6
Continuous
 62
     7
100
AcDbLine
 10
1019.166767964914
 20
334.8295429916982
 30
0.0
 11
1019.489094829324
 21
334.8468287493586
 31
0.0
  0
LINE
  5
4EE
330
22
100
AcDbEntity
  8
_2-7_ビス
  6
Continuous
 62
     7
100
AcDbLine
 10
1019.637600325143
 20
335.0941971702582
 30
0.0
 11
1019.173732465818
 21
335.9187581884044
 31
0.0
  0
LINE
  5
4EF
330
22
100
AcDbEntity
  8
_2-7_ビス
  6
Continuous
 62
     7
100
AcDbLine
 10
1019.173732465818
 20
335.9187581884044
 30
0.0
 11
1019.177795306515
 21
336.3962096573994
 31
0.0
  0
LINE
  5
4F0
330
22
100
AcDbEntity
  8
_2-7_ビス
  6
Continuous
 62
     7
100
AcDbLine
 10
1019.177795306515
 20
336.3962096573994
 30
0.0
 11
1019.512448661784
 21
336.4134954150586
 31
0.0
  0
LINE
  5
4F1
330
22
100
AcDbEntity
  8
_2-7_ビス
  6
Continuous
 62
     7
100
AcDbLine
 10
1019.669703277951
 20
336.6608638359583
 30
0.0
 11
1019.189500653746
 21
337.4854248541044
 31
0.0
  0
LINE
  5
4F2
330
22
100
AcDbEntity
  8
_2-7_ビス
  6
Continuous
 62
     7
100
AcDbLine
 10
1019.189500653746
 20
337.4854248541044
 30
0.0
 11
1019.194361329325
 21
337.9628768000668
 31
0.0
  0
LINE
  5
4F3
330
22
100
AcDbEntity
  8
_2-7_ビス
  6
Continuous
 62
     7
100
AcDbLine
 10
1019.194361329325
 20
337.9628768000668
 30
0.0
 11
1019.542393579325
 21
337.9801620807587
 31
0.0
  0
LINE
  5
4F4
330
22
100
AcDbEntity
  8
_2-7_ビス
  6
Continuous
 62
     7
100
AcDbLine
 10
1019.701983329045
 20
338.2275305016583
 30
0.0
 11
1019.194361177201
 21
339.0520919046583
 31
0.0
  0
LINE
  5
4F5
330
22
100
AcDbEntity
  8
_2-7_ビス
  6
Continuous
 62
     7
100
AcDbLine
 10
1019.194361177201
 20
339.0520919046583
 30
0.0
 11
1019.194361329325
 21
339.5468287464587
 31
0.0
  0
LINE
  5
4F6
330
22
100
AcDbEntity
  8
_2-7_ビス
  6
Continuous
 62
     7
100
AcDbLine
 10
1019.464878829325
 20
331.7134954179585
 30
0.0
 11
1019.330520079323
 21
331.7134954179585
 31
0.0
  0
LINE
  5
4F7
330
22
100
AcDbEntity
  8
_2-7_ビス
  6
Continuous
 62
     7
100
AcDbLine
 10
1019.330520079323
 20
331.7134954179585
 30
0.0
 11
1019.330520079323
 21
330.9301620851079
 31
0.0
  0
LINE
  5
4F8
330
22
100
AcDbEntity
  8
_2-7_ビス
  6
Continuous
 62
     7
100
AcDbLine
 10
1019.330520079323
 20
330.9301620851079
 30
0.0
 11
1019.480520079325
 21
330.9301620851079
 31
0.0
  0
LINE
  5
4F9
330
22
100
AcDbEntity
  8
_2-7_ビス
  6
Continuous
 62
     7
100
AcDbLine
 10
1019.480520079325
 20
330.9301620851079
 30
0.0
 11
1019.480520079325
 21
329.3222673492585
 31
0.0
  0
LINE
  5
4FA
330
22
100
AcDbEntity
  8
_2-7_ビス
  6
Continuous
 62
     7
100
AcDbLine
 10
1019.480520079325
 20
329.3222673492585
 30
0.0
 11
1019.486986890125
 21
329.3222673492585
 31
0.0
  0
LINE
  5
4FB
330
22
100
AcDbEntity
  8
_2-7_ビス
  6
Continuous
 62
     7
100
AcDbLine
 10
1019.537262079324
 20
328.992442788059
 30
0.0
 11
1019.537262225863
 21
323.0420011952389
 31
0.0
  0
LINE
  5
4FC
330
22
100
AcDbEntity
  8
_2-7_ビス
  6
Continuous
 62
     7
100
AcDbLine
 10
1019.537262225863
 20
323.0420011952389
 30
0.0
 11
1019.977699579324
 21
322.3905803710795
 31
0.0
  0
LINE
  5
4FD
330
22
100
AcDbEntity
  8
_2-7_ビス
  6
Continuous
 62
     7
100
AcDbLine
 10
1019.977699579324
 20
322.3905803710795
 30
0.0
 11
1020.980520079324
 21
321.0766533192589
 31
0.0
  0
LINE
  5
4FE
330
22
100
AcDbEntity
  8
_2-7_ビス
  6
Continuous
 62
     7
100
AcDbLine
 10
1020.980520079324
 20
321.0766533192589
 30
0.0
 11
1021.129898558819
 21
321.0766533192589
 31
0.0
  0
LINE
  5
4FF
330
22
100
AcDbEntity
  8
_2-7_ビス
  6
Continuous
 62
     7
100
AcDbLine
 10
1021.129898558819
 20
321.0766533192589
 30
0.0
 11
1020.044804449504
 21
323.0420011952389
 31
0.0
  0
LINE
  5
500
330
22
100
AcDbEntity
  8
_2-7_ビス
  6
Continuous
 62
     7
100
AcDbLine
 10
1020.044804449504
 20
323.0420011952389
 30
0.0
 11
1020.044804329324
 21
327.0134954208584
 31
0.0
  0
LINE
  5
501
330
22
100
AcDbEntity
  8
_2-7_ビス
  6
Continuous
 62
     7
100
AcDbLine
 10
1020.628167829324
 20
327.0134954208584
 30
0.0
 11
1020.628167555892
 21
323.0420013479375
 31
0.0
  0
LINE
  5
502
330
22
100
AcDbEntity
  8
_2-7_ビス
  6
Continuous
 62
     7
100
AcDbLine
 10
1020.628167555892
 20
323.0420013479375
 30
0.0
 11
1021.713261921126
 21
321.0766533192589
 31
0.0
  0
LINE
  5
503
330
22
100
AcDbEntity
  8
_2-7_ビス
  6
Continuous
 62
     7
100
AcDbLine
 10
1021.713261921126
 20
321.0766533192589
 30
0.0
 11
1022.330520079324
 21
321.0766533192589
 31
0.0
  0
LINE
  5
504
330
22
100
AcDbEntity
  8
_2-7_ビス
  6
Continuous
 62
     7
100
AcDbLine
 10
1019.633628829324
 20
353.646828737758
 30
0.0
 11
1019.633628829324
 21
353.646828737758
 31
0.0
  0
LINE
  5
505
330
22
100
AcDbEntity
  8
_2-7_ビス
  6
Continuous
 62
     7
100
AcDbLine
 10
1019.633628829324
 20
353.646828737758
 30
0.0
 11
1019.660587280225
 21
353.6514825224732
 31
0.0
  0
LINE
  5
506
330
22
100
AcDbEntity
  8
_2-7_ビス
  6
Continuous
 62
     7
100
AcDbLine
 10
1019.660587280225
 20
353.6514825224732
 30
0.0
 11
1019.686401125238
 21
353.661212282603
 31
0.0
  0
LINE
  5
507
330
22
100
AcDbEntity
  8
_2-7_ビス
  6
Continuous
 62
     7
100
AcDbLine
 10
1019.686401125238
 20
353.661212282603
 30
0.0
 11
1019.710286023745
 21
353.6757223843096
 31
0.0
  0
LINE
  5
508
330
22
100
AcDbEntity
  8
_2-7_ビス
  6
Continuous
 62
     7
100
AcDbLine
 10
1019.710286023745
 20
353.6757223843096
 30
0.0
 11
1019.731516245192
 21
353.694571945495
 31
0.0
  0
LINE
  5
509
330
22
100
AcDbEntity
  8
_2-7_ビス
  6
Continuous
 62
     7
100
AcDbLine
 10
1019.731516245192
 20
353.694571945495
 30
0.0
 11
1019.749446720042
 21
353.7171882317807
 31
0.0
  0
LINE
  5
50A
330
22
100
AcDbEntity
  8
_2-7_ビス
  6
Continuous
 62
     7
100
AcDbLine
 10
1019.749446720042
 20
353.7171882317807
 30
0.0
 11
1019.763532639892
 21
353.7428840587526
 31
0.0
  0
LINE
  5
50B
330
22
100
AcDbEntity
  8
_2-7_ビス
  6
Continuous
 62
     7
100
AcDbLine
 10
1019.763532639892
 20
353.7428840587526
 30
0.0
 11
1019.773346011193
 21
353.7708786717106
 31
0.0
  0
LINE
  5
50C
330
22
100
AcDbEntity
  8
_2-7_ビス
  6
Continuous
 62
     7
100
AcDbLine
 10
1019.773346011193
 20
353.7708786717106
 30
0.0
 11
1019.778588659625
 21
353.8003214685062
 31
0.0
  0
LINE
  5
50D
330
22
100
AcDbEntity
  8
_2-7_ビス
  6
Continuous
 62
     7
100
AcDbLine
 10
1019.778588659625
 20
353.8003214685062
 30
0.0
 11
1019.779101289968
 21
353.8303178446574
 31
0.0
  0
LINE
  5
50E
330
22
100
AcDbEntity
  8
_2-7_ビス
  6
Continuous
 62
     7
100
AcDbLine
 10
1019.779101289968
 20
353.8303178446574
 30
0.0
 11
1019.774868326209
 21
353.8599563754538
 31
0.0
  0
LINE
  5
50F
330
22
100
AcDbEntity
  8
_2-7_ビス
  6
Continuous
 62
     7
100
AcDbLine
 10
1019.774868326209
 20
353.8599563754538
 30
0.0
 11
1019.766018384808
 21
353.8883365091349
 31
0.0
  0
LINE
  5
510
330
22
100
AcDbEntity
  8
_2-7_ビス
  6
Continuous
 62
     7
100
AcDbLine
 10
1019.766018384808
 20
353.8883365091349
 30
0.0
 11
1019.752820366758
 21
353.9145959296999
 31
0.0
  0
LINE
  5
511
330
22
100
AcDbEntity
  8
_2-7_ビス
  6
Continuous
 62
     7
100
AcDbLine
 10
1019.752820366758
 20
353.9145959296999
 30
0.0
 11
1019.752819974241
 21
353.9145965713241
 31
0.0
  0
LINE
  5
512
330
22
100
AcDbEntity
  8
_2-7_ビス
  6
Continuous
 62
     7
100
AcDbLine
 10
1019.542393579325
 20
352.0801620720584
 30
0.0
 11
1019.542393579325
 21
352.0801620720584
 31
0.0
  0
LINE
  5
513
330
22
100
AcDbEntity
  8
_2-7_ビス
  6
Continuous
 62
     7
100
AcDbLine
 10
1019.542393579325
 20
352.0801620720584
 30
0.0
 11
1019.57691680766
 21
352.0926756223174
 31
0.0
  0
LINE
  5
514
330
22
100
AcDbEntity
  8
_2-7_ビス
  6
Continuous
 62
     7
100
AcDbLine
 10
1019.57691680766
 20
352.0926756223174
 30
0.0
 11
1019.608939086013
 21
352.1115899430956
 31
0.0
  0
LINE
  5
515
330
22
100
AcDbEntity
  8
_2-7_ビス
  6
Continuous
 62
     7
100
AcDbLine
 10
1019.608939086013
 20
352.1115899430956
 30
0.0
 11
1019.63748743366
 21
352.136330332327
 31
0.0
  0
LINE
  5
516
330
22
100
AcDbEntity
  8
_2-7_ビス
  6
Continuous
 62
     7
100
AcDbLine
 10
1019.63748743366
 20
352.136330332327
 30
0.0
 11
1019.661694423505
 21
352.1661450658042
 31
0.0
  0
LINE
  5
517
330
22
100
AcDbEntity
  8
_2-7_ビス
  6
Continuous
 62
     7
100
AcDbLine
 10
1019.661694423505
 20
352.1661450658042
 30
0.0
 11
1019.680824538411
 21
352.2001282379374
 31
0.0
  0
LINE
  5
518
330
22
100
AcDbEntity
  8
_2-7_ビス
  6
Continuous
 62
     7
100
AcDbLine
 10
1019.680824538411
 20
352.2001282379374
 30
0.0
 11
1019.694296519515
 21
352.2372472872377
 31
0.0
  0
LINE
  5
519
330
22
100
AcDbEntity
  8
_2-7_ビス
  6
Continuous
 62
     7
100
AcDbLine
 10
1019.694296519515
 20
352.2372472872377
 30
0.0
 11
1019.701701027489
 21
352.2763743701752
 31
0.0
  0
LINE
  5
51A
330
22
100
AcDbEntity
  8
_2-7_ビス
  6
Continuous
 62
     7
100
AcDbLine
 10
1019.701701027489
 20
352.2763743701752
 30
0.0
 11
1019.702813080106
 21
352.3163206301343
 31
0.0
  0
LINE
  5
51B
330
22
100
AcDbEntity
  8
_2-7_ビス
  6
Continuous
 62
     7
100
AcDbLine
 10
1019.702813080106
 20
352.3163206301343
 30
0.0
 11
1019.701983329045
 21
352.3275304929584
 31
0.0
  0
LINE
  5
51C
330
22
100
AcDbEntity
  8
_2-7_ビス
  6
Continuous
 62
     7
100
AcDbLine
 10
1019.542393579325
 20
350.5134954063584
 30
0.0
 11
1019.542393579325
 21
350.5134954063584
 31
0.0
  0
LINE
  5
51D
330
22
100
AcDbEntity
  8
_2-7_ビス
  6
Continuous
 62
     7
100
AcDbLine
 10
1019.542393579325
 20
350.5134954063584
 30
0.0
 11
1019.57691680766
 21
350.5260089566174
 31
0.0
  0
LINE
  5
51E
330
22
100
AcDbEntity
  8
_2-7_ビス
  6
Continuous
 62
     7
100
AcDbLine
 10
1019.57691680766
 20
350.5260089566174
 30
0.0
 11
1019.608939086013
 21
350.5449232773955
 31
0.0
  0
LINE
  5
51F
330
22
100
AcDbEntity
  8
_2-7_ビス
  6
Continuous
 62
     7
100
AcDbLine
 10
1019.608939086013
 20
350.5449232773955
 30
0.0
 11
1019.63748743366
 21
350.5696636666268
 31
0.0
  0
LINE
  5
520
330
22
100
AcDbEntity
  8
_2-7_ビス
  6
Continuous
 62
     7
100
AcDbLine
 10
1019.63748743366
 20
350.5696636666268
 30
0.0
 11
1019.661694423505
 21
350.5994784001042
 31
0.0
  0
LINE
  5
521
330
22
100
AcDbEntity
  8
_2-7_ビス
  6
Continuous
 62
     7
100
AcDbLine
 10
1019.661694423505
 20
350.5994784001042
 30
0.0
 11
1019.680824538411
 21
350.6334615722374
 31
0.0
  0
LINE
  5
522
330
22
100
AcDbEntity
  8
_2-7_ビス
  6
Continuous
 62
     7
100
AcDbLine
 10
1019.680824538411
 20
350.6334615722374
 30
0.0
 11
1019.694296519515
 21
350.6705806215377
 31
0.0
  0
LINE
  5
523
330
22
100
AcDbEntity
  8
_2-7_ビス
  6
Continuous
 62
     7
100
AcDbLine
 10
1019.694296519515
 20
350.6705806215377
 30
0.0
 11
1019.701701027489
 21
350.7097077044753
 31
0.0
  0
LINE
  5
524
330
22
100
AcDbEntity
  8
_2-7_ビス
  6
Continuous
 62
     7
100
AcDbLine
 10
1019.701701027489
 20
350.7097077044753
 30
0.0
 11
1019.702813080106
 21
350.7496539644343
 31
0.0
  0
LINE
  5
525
330
22
100
AcDbEntity
  8
_2-7_ビス
  6
Continuous
 62
     7
100
AcDbLine
 10
1019.702813080106
 20
350.7496539644343
 30
0.0
 11
1019.701983329045
 21
350.7608638272584
 31
0.0
  0
LINE
  5
526
330
22
100
AcDbEntity
  8
_2-7_ビス
  6
Continuous
 62
     7
100
AcDbLine
 10
1019.485406719923
 20
348.9468287406584
 30
0.0
 11
1019.485406719923
 21
348.9468287406584
 31
0.0
  0
LINE
  5
527
330
22
100
AcDbEntity
  8
_2-7_ビス
  6
Continuous
 62
     7
100
AcDbLine
 10
1019.485406719923
 20
348.9468287406584
 30
0.0
 11
1019.519929948258
 21
348.9593422909173
 31
0.0
  0
LINE
  5
528
330
22
100
AcDbEntity
  8
_2-7_ビス
  6
Continuous
 62
     7
100
AcDbLine
 10
1019.519929948258
 20
348.9593422909173
 30
0.0
 11
1019.551952226612
 21
348.9782566116955
 31
0.0
  0
LINE
  5
529
330
22
100
AcDbEntity
  8
_2-7_ビス
  6
Continuous
 62
     7
100
AcDbLine
 10
1019.551952226612
 20
348.9782566116955
 30
0.0
 11
1019.580500574259
 21
349.0029970009269
 31
0.0
  0
LINE
  5
52A
330
22
100
AcDbEntity
  8
_2-7_ビス
  6
Continuous
 62
     7
100
AcDbLine
 10
1019.580500574259
 20
349.0029970009269
 30
0.0
 11
1019.604707564104
 21
349.0328117344041
 31
0.0
  0
LINE
  5
52B
330
22
100
AcDbEntity
  8
_2-7_ビス
  6
Continuous
 62
     7
100
AcDbLine
 10
1019.604707564104
 20
349.0328117344041
 30
0.0
 11
1019.623837679009
 21
349.0667949065373
 31
0.0
  0
LINE
  5
52C
330
22
100
AcDbEntity
  8
_2-7_ビス
  6
Continuous
 62
     7
100
AcDbLine
 10
1019.623837679009
 20
349.0667949065373
 30
0.0
 11
1019.637309660113
 21
349.1039139558377
 31
0.0
  0
LINE
  5
52D
330
22
100
AcDbEntity
  8
_2-7_ビス
  6
Continuous
 62
     7
100
AcDbLine
 10
1019.637309660113
 20
349.1039139558377
 30
0.0
 11
1019.644714168088
 21
349.1430410387752
 31
0.0
  0
LINE
  5
52E
330
22
100
AcDbEntity
  8
_2-7_ビス
  6
Continuous
 62
     7
100
AcDbLine
 10
1019.644714168088
 20
349.1430410387752
 30
0.0
 11
1019.645826220705
 21
349.1829872987343
 31
0.0
  0
LINE
  5
52F
330
22
100
AcDbEntity
  8
_2-7_ビス
  6
Continuous
 62
     7
100
AcDbLine
 10
1019.645826220705
 20
349.1829872987343
 30
0.0
 11
1019.644996469644
 21
349.1941971615582
 31
0.0
  0
LINE
  5
530
330
22
100
AcDbEntity
  8
_2-7_ビス
  6
Continuous
 62
     7
100
AcDbLine
 10
1019.542393579325
 20
345.8134954092583
 30
0.0
 11
1019.542393579325
 21
345.8134954092583
 31
0.0
  0
LINE
  5
531
330
22
100
AcDbEntity
  8
_2-7_ビス
  6
Continuous
 62
     7
100
AcDbLine
 10
1019.542393579325
 20
345.8134954092583
 30
0.0
 11
1019.57691680766
 21
345.8260089595172
 31
0.0
  0
LINE
  5
532
330
22
100
AcDbEntity
  8
_2-7_ビス
  6
Continuous
 62
     7
100
AcDbLine
 10
1019.57691680766
 20
345.8260089595172
 30
0.0
 11
1019.608939086013
 21
345.8449232802954
 31
0.0
  0
LINE
  5
533
330
22
100
AcDbEntity
  8
_2-7_ビス
  6
Continuous
 62
     7
100
AcDbLine
 10
1019.608939086013
 20
345.8449232802954
 30
0.0
 11
1019.63748743366
 21
345.8696636695268
 31
0.0
  0
LINE
  5
534
330
22
100
AcDbEntity
  8
_2-7_ビス
  6
Continuous
 62
     7
100
AcDbLine
 10
1019.63748743366
 20
345.8696636695268
 30
0.0
 11
1019.661694423505
 21
345.8994784030041
 31
0.0
  0
LINE
  5
535
330
22
100
AcDbEntity
  8
_2-7_ビス
  6
Continuous
 62
     7
100
AcDbLine
 10
1019.661694423505
 20
345.8994784030041
 30
0.0
 11
1019.680824538411
 21
345.9334615751373
 31
0.0
  0
LINE
  5
536
330
22
100
AcDbEntity
  8
_2-7_ビス
  6
Continuous
 62
     7
100
AcDbLine
 10
1019.680824538411
 20
345.9334615751373
 30
0.0
 11
1019.694296519515
 21
345.9705806244376
 31
0.0
  0
LINE
  5
537
330
22
100
AcDbEntity
  8
_2-7_ビス
  6
Continuous
 62
     7
100
AcDbLine
 10
1019.694296519515
 20
345.9705806244376
 30
0.0
 11
1019.701701027489
 21
346.0097077073752
 31
0.0
  0
LINE
  5
538
330
22
100
AcDbEntity
  8
_2-7_ビス
  6
Continuous
 62
     7
100
AcDbLine
 10
1019.701701027489
 20
346.0097077073752
 30
0.0
 11
1019.702813080106
 21
346.0496539673342
 31
0.0
  0
LINE
  5
539
330
22
100
AcDbEntity
  8
_2-7_ビス
  6
Continuous
 62
     7
100
AcDbLine
 10
1019.702813080106
 20
346.0496539673342
 30
0.0
 11
1019.701983329045
 21
346.0608638301581
 31
0.0
  0
LINE
  5
53A
330
22
100
AcDbEntity
  8
_2-7_ビス
  6
Continuous
 62
     7
100
AcDbLine
 10
1019.542393579325
 20
344.2468287435582
 30
0.0
 11
1019.542393579325
 21
344.2468287435582
 31
0.0
  0
LINE
  5
53B
330
22
100
AcDbEntity
  8
_2-7_ビス
  6
Continuous
 62
     7
100
AcDbLine
 10
1019.542393579325
 20
344.2468287435582
 30
0.0
 11
1019.57691680766
 21
344.2593422938172
 31
0.0
  0
LINE
  5
53C
330
22
100
AcDbEntity
  8
_2-7_ビス
  6
Continuous
 62
     7
100
AcDbLine
 10
1019.57691680766
 20
344.2593422938172
 30
0.0
 11
1019.608939086013
 21
344.2782566145954
 31
0.0
  0
LINE
  5
53D
330
22
100
AcDbEntity
  8
_2-7_ビス
  6
Continuous
 62
     7
100
AcDbLine
 10
1019.608939086013
 20
344.2782566145954
 30
0.0
 11
1019.63748743366
 21
344.3029970038268
 31
0.0
  0
LINE
  5
53E
330
22
100
AcDbEntity
  8
_2-7_ビス
  6
Continuous
 62
     7
100
AcDbLine
 10
1019.63748743366
 20
344.3029970038268
 30
0.0
 11
1019.661694423505
 21
344.332811737304
 31
0.0
  0
LINE
  5
53F
330
22
100
AcDbEntity
  8
_2-7_ビス
  6
Continuous
 62
     7
100
AcDbLine
 10
1019.661694423505
 20
344.332811737304
 30
0.0
 11
1019.680824538411
 21
344.3667949094372
 31
0.0
  0
LINE
  5
540
330
22
100
AcDbEntity
  8
_2-7_ビス
  6
Continuous
 62
     7
100
AcDbLine
 10
1019.680824538411
 20
344.3667949094372
 30
0.0
 11
1019.694296519515
 21
344.4039139587375
 31
0.0
  0
LINE
  5
541
330
22
100
AcDbEntity
  8
_2-7_ビス
  6
Continuous
 62
     7
100
AcDbLine
 10
1019.694296519515
 20
344.4039139587375
 30
0.0
 11
1019.701701027489
 21
344.443041041675
 31
0.0
  0
LINE
  5
542
330
22
100
AcDbEntity
  8
_2-7_ビス
  6
Continuous
 62
     7
100
AcDbLine
 10
1019.701701027489
 20
344.443041041675
 30
0.0
 11
1019.702813080106
 21
344.4829873016341
 31
0.0
  0
LINE
  5
543
330
22
100
AcDbEntity
  8
_2-7_ビス
  6
Continuous
 62
     7
100
AcDbLine
 10
1019.702813080106
 20
344.4829873016341
 30
0.0
 11
1019.701983329045
 21
344.4941971644582
 31
0.0
  0
LINE
  5
544
330
22
100
AcDbEntity
  8
_2-7_ビス
  6
Continuous
 62
     7
100
AcDbLine
 10
1019.542393579325
 20
342.6801620778582
 30
0.0
 11
1019.542393579325
 21
342.6801620778582
 31
0.0
  0
LINE
  5
545
330
22
100
AcDbEntity
  8
_2-7_ビス
  6
Continuous
 62
     7
100
AcDbLine
 10
1019.542393579325
 20
342.6801620778582
 30
0.0
 11
1019.57691680766
 21
342.6926756281172
 31
0.0
  0
LINE
  5
546
330
22
100
AcDbEntity
  8
_2-7_ビス
  6
Continuous
 62
     7
100
AcDbLine
 10
1019.57691680766
 20
342.6926756281172
 30
0.0
 11
1019.608939086013
 21
342.7115899488953
 31
0.0
  0
LINE
  5
547
330
22
100
AcDbEntity
  8
_2-7_ビス
  6
Continuous
 62
     7
100
AcDbLine
 10
1019.608939086013
 20
342.7115899488953
 30
0.0
 11
1019.63748743366
 21
342.7363303381268
 31
0.0
  0
LINE
  5
548
330
22
100
AcDbEntity
  8
_2-7_ビス
  6
Continuous
 62
     7
100
AcDbLine
 10
1019.63748743366
 20
342.7363303381268
 30
0.0
 11
1019.661694423505
 21
342.766145071604
 31
0.0
  0
LINE
  5
549
330
22
100
AcDbEntity
  8
_2-7_ビス
  6
Continuous
 62
     7
100
AcDbLine
 10
1019.661694423505
 20
342.766145071604
 30
0.0
 11
1019.680824538411
 21
342.8001282437372
 31
0.0
  0
LINE
  5
54A
330
22
100
AcDbEntity
  8
_2-7_ビス
  6
Continuous
 62
     7
100
AcDbLine
 10
1019.680824538411
 20
342.8001282437372
 30
0.0
 11
1019.694296519515
 21
342.8372472930375
 31
0.0
  0
LINE
  5
54B
330
22
100
AcDbEntity
  8
_2-7_ビス
  6
Continuous
 62
     7
100
AcDbLine
 10
1019.694296519515
 20
342.8372472930375
 30
0.0
 11
1019.701701027489
 21
342.8763743759751
 31
0.0
  0
LINE
  5
54C
330
22
100
AcDbEntity
  8
_2-7_ビス
  6
Continuous
 62
     7
100
AcDbLine
 10
1019.701701027489
 20
342.8763743759751
 30
0.0
 11
1019.702813080106
 21
342.9163206359341
 31
0.0
  0
LINE
  5
54D
330
22
100
AcDbEntity
  8
_2-7_ビス
  6
Continuous
 62
     7
100
AcDbLine
 10
1019.702813080106
 20
342.9163206359341
 30
0.0
 11
1019.701983329045
 21
342.9275304987581
 31
0.0
  0
LINE
  5
54E
330
22
100
AcDbEntity
  8
_2-7_ビス
  6
Continuous
 62
     7
100
AcDbLine
 10
1019.48511400775
 20
341.1134954121581
 30
0.0
 11
1019.48511400775
 21
341.1134954121581
 31
0.0
  0
LINE
  5
54F
330
22
100
AcDbEntity
  8
_2-7_ビス
  6
Continuous
 62
     7
100
AcDbLine
 10
1019.48511400775
 20
341.1134954121581
 30
0.0
 11
1019.519637236085
 21
341.1260089624172
 31
0.0
  0
LINE
  5
550
330
22
100
AcDbEntity
  8
_2-7_ビス
  6
Continuous
 62
     7
100
AcDbLine
 10
1019.519637236085
 20
341.1260089624172
 30
0.0
 11
1019.551659514439
 21
341.1449232831953
 31
0.0
  0
LINE
  5
551
330
22
100
AcDbEntity
  8
_2-7_ビス
  6
Continuous
 62
     7
100
AcDbLine
 10
1019.551659514439
 20
341.1449232831953
 30
0.0
 11
1019.580207862086
 21
341.1696636724267
 31
0.0
  0
LINE
  5
552
330
22
100
AcDbEntity
  8
_2-7_ビス
  6
Continuous
 62
     7
100
AcDbLine
 10
1019.580207862086
 20
341.1696636724267
 30
0.0
 11
1019.604414851931
 21
341.1994784059039
 31
0.0
  0
LINE
  5
553
330
22
100
AcDbEntity
  8
_2-7_ビス
  6
Continuous
 62
     7
100
AcDbLine
 10
1019.604414851931
 20
341.1994784059039
 30
0.0
 11
1019.623544966836
 21
341.2334615780371
 31
0.0
  0
LINE
  5
554
330
22
100
AcDbEntity
  8
_2-7_ビス
  6
Continuous
 62
     7
100
AcDbLine
 10
1019.623544966836
 20
341.2334615780371
 30
0.0
 11
1019.63701694794
 21
341.2705806273375
 31
0.0
  0
LINE
  5
555
330
22
100
AcDbEntity
  8
_2-7_ビス
  6
Continuous
 62
     7
100
AcDbLine
 10
1019.63701694794
 20
341.2705806273375
 30
0.0
 11
1019.644421455915
 21
341.309707710275
 31
0.0
  0
LINE
  5
556
330
22
100
AcDbEntity
  8
_2-7_ビス
  6
Continuous
 62
     7
100
AcDbLine
 10
1019.644421455915
 20
341.309707710275
 30
0.0
 11
1019.645533508532
 21
341.349653970234
 31
0.0
  0
LINE
  5
557
330
22
100
AcDbEntity
  8
_2-7_ビス
  6
Continuous
 62
     7
100
AcDbLine
 10
1019.645533508532
 20
341.349653970234
 30
0.0
 11
1019.644703757471
 21
341.360863833058
 31
0.0
  0
LINE
  5
558
330
22
100
AcDbEntity
  8
_2-7_ビス
  6
Continuous
 62
     7
100
AcDbLine
 10
1019.542393579325
 20
337.980162080758
 30
0.0
 11
1019.542393579325
 21
337.980162080758
 31
0.0
  0
LINE
  5
559
330
22
100
AcDbEntity
  8
_2-7_ビス
  6
Continuous
 62
     7
100
AcDbLine
 10
1019.542393579325
 20
337.980162080758
 30
0.0
 11
1019.57691680766
 21
337.9926756310171
 31
0.0
  0
LINE
  5
55A
330
22
100
AcDbEntity
  8
_2-7_ビス
  6
Continuous
 62
     7
100
AcDbLine
 10
1019.57691680766
 20
337.9926756310171
 30
0.0
 11
1019.608939086013
 21
338.0115899517952
 31
0.0
  0
LINE
  5
55B
330
22
100
AcDbEntity
  8
_2-7_ビス
  6
Continuous
 62
     7
100
AcDbLine
 10
1019.608939086013
 20
338.0115899517952
 30
0.0
 11
1019.63748743366
 21
338.0363303410266
 31
0.0
  0
LINE
  5
55C
330
22
100
AcDbEntity
  8
_2-7_ビス
  6
Continuous
 62
     7
100
AcDbLine
 10
1019.63748743366
 20
338.0363303410266
 30
0.0
 11
1019.661694423505
 21
338.0661450745038
 31
0.0
  0
LINE
  5
55D
330
22
100
AcDbEntity
  8
_2-7_ビス
  6
Continuous
 62
     7
100
AcDbLine
 10
1019.661694423505
 20
338.0661450745038
 30
0.0
 11
1019.680824538411
 21
338.1001282466371
 31
0.0
  0
LINE
  5
55E
330
22
100
AcDbEntity
  8
_2-7_ビス
  6
Continuous
 62
     7
100
AcDbLine
 10
1019.680824538411
 20
338.1001282466371
 30
0.0
 11
1019.694296519515
 21
338.1372472959374
 31
0.0
  0
LINE
  5
55F
330
22
100
AcDbEntity
  8
_2-7_ビス
  6
Continuous
 62
     7
100
AcDbLine
 10
1019.694296519515
 20
338.1372472959374
 30
0.0
 11
1019.701701027489
 21
338.1763743788749
 31
0.0
  0
LINE
  5
560
330
22
100
AcDbEntity
  8
_2-7_ビス
  6
Continuous
 62
     7
100
AcDbLine
 10
1019.701701027489
 20
338.1763743788749
 30
0.0
 11
1019.702813080106
 21
338.216320638834
 31
0.0
  0
LINE
  5
561
330
22
100
AcDbEntity
  8
_2-7_ビス
  6
Continuous
 62
     7
100
AcDbLine
 10
1019.702813080106
 20
338.216320638834
 30
0.0
 11
1019.701983329045
 21
338.227530501658
 31
0.0
  0
LINE
  5
562
330
22
100
AcDbEntity
  8
_2-7_ビス
  6
Continuous
 62
     7
100
AcDbLine
 10
1019.51011352823
 20
336.413495415058
 30
0.0
 11
1019.51011352823
 21
336.413495415058
 31
0.0
  0
LINE
  5
563
330
22
100
AcDbEntity
  8
_2-7_ビス
  6
Continuous
 62
     7
100
AcDbLine
 10
1019.51011352823
 20
336.413495415058
 30
0.0
 11
1019.544636756565
 21
336.426008965317
 31
0.0
  0
LINE
  5
564
330
22
100
AcDbEntity
  8
_2-7_ビス
  6
Continuous
 62
     7
100
AcDbLine
 10
1019.544636756565
 20
336.426008965317
 30
0.0
 11
1019.576659034918
 21
336.4449232860952
 31
0.0
  0
LINE
  5
565
330
22
100
AcDbEntity
  8
_2-7_ビス
  6
Continuous
 62
     7
100
AcDbLine
 10
1019.576659034918
 20
336.4449232860952
 30
0.0
 11
1019.605207382566
 21
336.4696636753266
 31
0.0
  0
LINE
  5
566
330
22
100
AcDbEntity
  8
_2-7_ビス
  6
Continuous
 62
     7
100
AcDbLine
 10
1019.605207382566
 20
336.4696636753266
 30
0.0
 11
1019.629414372411
 21
336.4994784088037
 31
0.0
  0
LINE
  5
567
330
22
100
AcDbEntity
  8
_2-7_ビス
  6
Continuous
 62
     7
100
AcDbLine
 10
1019.629414372411
 20
336.4994784088037
 30
0.0
 11
1019.648544487316
 21
336.533461580937
 31
0.0
  0
LINE
  5
568
330
22
100
AcDbEntity
  8
_2-7_ビス
  6
Continuous
 62
     7
100
AcDbLine
 10
1019.648544487316
 20
336.533461580937
 30
0.0
 11
1019.66201646842
 21
336.5705806302373
 31
0.0
  0
LINE
  5
569
330
22
100
AcDbEntity
  8
_2-7_ビス
  6
Continuous
 62
     7
100
AcDbLine
 10
1019.66201646842
 20
336.5705806302373
 30
0.0
 11
1019.669420976395
 21
336.6097077131749
 31
0.0
  0
LINE
  5
56A
330
22
100
AcDbEntity
  8
_2-7_ビス
  6
Continuous
 62
     7
100
AcDbLine
 10
1019.669420976395
 20
336.6097077131749
 30
0.0
 11
1019.670533029012
 21
336.6496539731339
 31
0.0
  0
LINE
  5
56B
330
22
100
AcDbEntity
  8
_2-7_ビス
  6
Continuous
 62
     7
100
AcDbLine
 10
1019.670533029012
 20
336.6496539731339
 30
0.0
 11
1019.669703277951
 21
336.660863835958
 31
0.0
  0
LINE
  5
56C
330
22
100
AcDbEntity
  8
_2-7_ビス
  6
Continuous
 62
     7
100
AcDbLine
 10
1019.478010575422
 20
334.846828749358
 30
0.0
 11
1019.478010575422
 21
334.846828749358
 31
0.0
  0
LINE
  5
56D
330
22
100
AcDbEntity
  8
_2-7_ビス
  6
Continuous
 62
     7
100
AcDbLine
 10
1019.478010575422
 20
334.846828749358
 30
0.0
 11
1019.512533803757
 21
334.8593422996169
 31
0.0
  0
LINE
  5
56E
330
22
100
AcDbEntity
  8
_2-7_ビス
  6
Continuous
 62
     7
100
AcDbLine
 10
1019.512533803757
 20
334.8593422996169
 30
0.0
 11
1019.54455608211
 21
334.8782566203951
 31
0.0
  0
LINE
  5
56F
330
22
100
AcDbEntity
  8
_2-7_ビス
  6
Continuous
 62
     7
100
AcDbLine
 10
1019.54455608211
 20
334.8782566203951
 30
0.0
 11
1019.573104429758
 21
334.9029970096265
 31
0.0
  0
LINE
  5
570
330
22
100
AcDbEntity
  8
_2-7_ビス
  6
Continuous
 62
     7
100
AcDbLine
 10
1019.573104429758
 20
334.9029970096265
 30
0.0
 11
1019.597311419603
 21
334.9328117431038
 31
0.0
  0
LINE
  5
571
330
22
100
AcDbEntity
  8
_2-7_ビス
  6
Continuous
 62
     7
100
AcDbLine
 10
1019.597311419603
 20
334.9328117431038
 30
0.0
 11
1019.616441534507
 21
334.9667949152369
 31
0.0
  0
LINE
  5
572
330
22
100
AcDbEntity
  8
_2-7_ビス
  6
Continuous
 62
     7
100
AcDbLine
 10
1019.616441534507
 20
334.9667949152369
 30
0.0
 11
1019.629913515612
 21
335.0039139645372
 31
0.0
  0
LINE
  5
573
330
22
100
AcDbEntity
  8
_2-7_ビス
  6
Continuous
 62
     7
100
AcDbLine
 10
1019.629913515612
 20
335.0039139645372
 30
0.0
 11
1019.637318023586
 21
335.0430410474749
 31
0.0
  0
LINE
  5
574
330
22
100
AcDbEntity
  8
_2-7_ビス
  6
Continuous
 62
     7
100
AcDbLine
 10
1019.637318023586
 20
335.0430410474749
 30
0.0
 11
1019.638430076203
 21
335.0829873074339
 31
0.0
  0
LINE
  5
575
330
22
100
AcDbEntity
  8
_2-7_ビス
  6
Continuous
 62
     7
100
AcDbLine
 10
1019.638430076203
 20
335.0829873074339
 30
0.0
 11
1019.637600325143
 21
335.0941971702579
 31
0.0
  0
LINE
  5
576
330
22
100
AcDbEntity
  8
_2-7_ビス
  6
Continuous
 62
     7
100
AcDbLine
 10
1019.455695644392
 20
333.280162083659
 30
0.0
 11
1019.455695644392
 21
333.280162083659
 31
0.0
  0
LINE
  5
577
330
22
100
AcDbEntity
  8
_2-7_ビス
  6
Continuous
 62
     7
100
AcDbLine
 10
1019.455695644392
 20
333.280162083659
 30
0.0
 11
1019.490218872727
 21
333.2926756339181
 31
0.0
  0
LINE
  5
578
330
22
100
AcDbEntity
  8
_2-7_ビス
  6
Continuous
 62
     7
100
AcDbLine
 10
1019.490218872727
 20
333.2926756339181
 30
0.0
 11
1019.522241151081
 21
333.3115899546962
 31
0.0
  0
LINE
  5
579
330
22
100
AcDbEntity
  8
_2-7_ビス
  6
Continuous
 62
     7
100
AcDbLine
 10
1019.522241151081
 20
333.3115899546962
 30
0.0
 11
1019.550789498728
 21
333.3363303439276
 31
0.0
  0
LINE
  5
57A
330
22
100
AcDbEntity
  8
_2-7_ビス
  6
Continuous
 62
     7
100
AcDbLine
 10
1019.550789498728
 20
333.3363303439276
 30
0.0
 11
1019.574996488573
 21
333.3661450774048
 31
0.0
  0
LINE
  5
57B
330
22
100
AcDbEntity
  8
_2-7_ビス
  6
Continuous
 62
     7
100
AcDbLine
 10
1019.574996488573
 20
333.3661450774048
 30
0.0
 11
1019.594126603478
 21
333.4001282495381
 31
0.0
  0
LINE
  5
57C
330
22
100
AcDbEntity
  8
_2-7_ビス
  6
Continuous
 62
     7
100
AcDbLine
 10
1019.594126603478
 20
333.4001282495381
 30
0.0
 11
1019.607598584582
 21
333.4372472988384
 31
0.0
  0
LINE
  5
57D
330
22
100
AcDbEntity
  8
_2-7_ビス
  6
Continuous
 62
     7
100
AcDbLine
 10
1019.607598584582
 20
333.4372472988384
 30
0.0
 11
1019.615003092557
 21
333.4763743817759
 31
0.0
  0
LINE
  5
57E
330
22
100
AcDbEntity
  8
_2-7_ビス
  6
Continuous
 62
     7
100
AcDbLine
 10
1019.615003092557
 20
333.4763743817759
 30
0.0
 11
1019.616115145174
 21
333.5163206417349
 31
0.0
  0
LINE
  5
57F
330
22
100
AcDbEntity
  8
_2-7_ビス
  6
Continuous
 62
     7
100
AcDbLine
 10
1019.616115145174
 20
333.5163206417349
 30
0.0
 11
1019.615285394113
 21
333.5275305045591
 31
0.0
  0
LINE
  5
580
330
22
100
AcDbEntity
  8
_2-7_ビス
  6
Continuous
 62
     7
100
AcDbLine
 10
1019.464878829325
 20
331.7134954179588
 30
0.0
 11
1019.464878829325
 21
331.7134954179588
 31
0.0
  0
LINE
  5
581
330
22
100
AcDbEntity
  8
_2-7_ビス
  6
Continuous
 62
     7
100
AcDbLine
 10
1019.464878829325
 20
331.7134954179588
 30
0.0
 11
1019.492024765263
 21
331.7185912368076
 31
0.0
  0
LINE
  5
582
330
22
100
AcDbEntity
  8
_2-7_ビス
  6
Continuous
 62
     7
100
AcDbLine
 10
1019.492024765263
 20
331.7185912368076
 30
0.0
 11
1019.517953429495
 21
331.7287921086192
 31
0.0
  0
LINE
  5
583
330
22
100
AcDbEntity
  8
_2-7_ビス
  6
Continuous
 62
     7
100
AcDbLine
 10
1019.517953429495
 20
331.7287921086192
 30
0.0
 11
1019.541876992678
 21
331.7437880850655
 31
0.0
  0
LINE
  5
584
330
22
100
AcDbEntity
  8
_2-7_ビス
  6
Continuous
 62
     7
100
AcDbLine
 10
1019.541876992678
 20
331.7437880850655
 30
0.0
 11
1019.563068549449
 21
331.7631235209906
 31
0.0
  0
LINE
  5
585
330
22
100
AcDbEntity
  8
_2-7_ビス
  6
Continuous
 62
     7
100
AcDbLine
 10
1019.563068549449
 20
331.7631235209906
 30
0.0
 11
1019.580884205081
 21
331.786210918958
 31
0.0
  0
LINE
  5
586
330
22
100
AcDbEntity
  8
_2-7_ビス
  6
Continuous
 62
     7
100
AcDbLine
 10
1019.580884205081
 20
331.786210918958
 30
0.0
 11
1019.594782639893
 21
331.8123487800635
 31
0.0
  0
LINE
  5
587
330
22
100
AcDbEntity
  8
_2-7_ビス
  6
Continuous
 62
     7
100
AcDbLine
 10
1019.594782639893
 20
331.8123487800635
 30
0.0
 11
1019.604341556974
 21
331.8407429186236
 31
0.0
  0
LINE
  5
588
330
22
100
AcDbEntity
  8
_2-7_ビス
  6
Continuous
 62
     7
100
AcDbLine
 10
1019.604341556974
 20
331.8407429186236
 30
0.0
 11
1019.609270513467
 21
331.8705305931064
 31
0.0
  0
LINE
  5
589
330
22
100
AcDbEntity
  8
_2-7_ビス
  6
Continuous
 62
     7
100
AcDbLine
 10
1019.609270513467
 20
331.8705305931064
 30
0.0
 11
1019.609419745523
 21
331.9008067200958
 31
0.0
  0
LINE
  5
58A
330
22
100
AcDbEntity
  8
_2-7_ビス
  6
Continuous
 62
     7
100
AcDbLine
 10
1019.609419745523
 20
331.9008067200958
 30
0.0
 11
1019.604784718801
 21
331.9306513747939
 31
0.0
  0
LINE
  5
58B
330
22
100
AcDbEntity
  8
_2-7_ビス
  6
Continuous
 62
     7
100
AcDbLine
 10
1019.604784718801
 20
331.9306513747939
 30
0.0
 11
1019.595506266244
 21
331.9591577424698
 31
0.0
  0
LINE
  5
58C
330
22
100
AcDbEntity
  8
_2-7_ビス
  6
Continuous
 62
     7
100
AcDbLine
 10
1019.595506266244
 20
331.9591577424698
 30
0.0
 11
1019.581866308935
 21
331.9854596715665
 31
0.0
  0
LINE
  5
58D
330
22
100
AcDbEntity
  8
_2-7_ビス
  6
Continuous
 62
     7
100
AcDbLine
 10
1019.581866308935
 20
331.9854596715665
 30
0.0
 11
1019.581782815178
 21
331.9855921598283
 31
0.0
  0
LINE
  5
58E
330
22
100
AcDbEntity
  8
_2-7_ビス
  6
Continuous
 62
     7
100
AcDbLine
 10
1019.161770079325
 20
339.5468287464585
 30
0.0
 11
1019.161770079325
 21
339.5468287464585
 31
0.0
  0
LINE
  5
58F
330
22
100
AcDbEntity
  8
_2-7_ビス
  6
Continuous
 62
     7
100
AcDbLine
 10
1019.161770079325
 20
339.5468287464585
 30
0.0
 11
1019.246095910118
 21
339.5590887031062
 31
0.0
  0
LINE
  5
590
330
22
100
AcDbEntity
  8
_2-7_ビス
  6
Continuous
 62
     7
100
AcDbLine
 10
1019.246095910118
 20
339.5590887031062
 30
0.0
 11
1019.327204231577
 21
339.5872611698133
 31
0.0
  0
LINE
  5
591
330
22
100
AcDbEntity
  8
_2-7_ビス
  6
Continuous
 62
     7
100
AcDbLine
 10
1019.327204231577
 20
339.5872611698133
 30
0.0
 11
1019.402630608395
 21
339.6304901404349
 31
0.0
  0
LINE
  5
592
330
22
100
AcDbEntity
  8
_2-7_ビス
  6
Continuous
 62
     7
100
AcDbLine
 10
1019.402630608395
 20
339.6304901404349
 30
0.0
 11
1019.470083248281
 21
339.6874621245733
 31
0.0
  0
LINE
  5
593
330
22
100
AcDbEntity
  8
_2-7_ビス
  6
Continuous
 62
     7
100
AcDbLine
 10
1019.470083248281
 20
339.6874621245733
 30
0.0
 11
1019.527512636904
 21
339.75644605732
 31
0.0
  0
LINE
  5
594
330
22
100
AcDbEntity
  8
_2-7_ビス
  6
Continuous
 62
     7
100
AcDbLine
 10
1019.527512636904
 20
339.75644605732
 30
0.0
 11
1019.573173811353
 21
339.8353458967859
 31
0.0
  0
LINE
  5
595
330
22
100
AcDbEntity
  8
_2-7_ビス
  6
Continuous
 62
     7
100
AcDbLine
 10
1019.573173811353
 20
339.8353458967859
 30
0.0
 11
1019.605679379946
 21
339.9217643112742
 31
0.0
  0
LINE
  5
596
330
22
100
AcDbEntity
  8
_2-7_ビス
  6
Continuous
 62
     7
100
AcDbLine
 10
1019.605679379946
 20
339.9217643112742
 30
0.0
 11
1019.62404167743
 21
340.0130755209902
 31
0.0
  0
LINE
  5
597
330
22
100
AcDbEntity
  8
_2-7_ビス
  6
Continuous
 62
     7
100
AcDbLine
 10
1019.62404167743
 20
340.0130755209902
 30
0.0
 11
1019.62770277469
 21
340.1065050810328
 31
0.0
  0
LINE
  5
598
330
22
100
AcDbEntity
  8
_2-7_ビス
  6
Continuous
 62
     7
100
AcDbLine
 10
1019.62770277469
 20
340.1065050810328
 30
0.0
 11
1019.616551431137
 21
340.1992141814973
 31
0.0
  0
LINE
  5
599
330
22
100
AcDbEntity
  8
_2-7_ビス
  6
Continuous
 62
     7
100
AcDbLine
 10
1019.616551431137
 20
340.1992141814973
 30
0.0
 11
1019.590926474702
 21
340.2883859032795
 31
0.0
  0
LINE
  5
59A
330
22
100
AcDbEntity
  8
_2-7_ビス
  6
Continuous
 62
     7
100
AcDbLine
 10
1019.590926474702
 20
340.2883859032795
 30
0.0
 11
1019.551606506718
 21
340.3713108087359
 31
0.0
  0
LINE
  5
59B
330
22
100
AcDbEntity
  8
_2-7_ビス
  6
Continuous
 62
     7
100
AcDbLine
 10
1019.551606506718
 20
340.3713108087359
 30
0.0
 11
1019.499786244518
 21
340.4454692665764
 31
0.0
  0
LINE
  5
59C
330
22
100
AcDbEntity
  8
_2-7_ビス
  6
Continuous
 62
     7
100
AcDbLine
 10
1019.499786244518
 20
340.4454692665764
 30
0.0
 11
1019.437040220544
 21
340.5086080095854
 31
0.0
  0
LINE
  5
59D
330
22
100
AcDbEntity
  8
_2-7_ビス
  6
Continuous
 62
     7
100
AcDbLine
 10
1019.437040220544
 20
340.5086080095854
 30
0.0
 11
1019.365274940986
 21
340.5588085990064
 31
0.0
  0
LINE
  5
59E
330
22
100
AcDbEntity
  8
_2-7_ビス
  6
Continuous
 62
     7
100
AcDbLine
 10
1019.365274940986
 20
340.5588085990064
 30
0.0
 11
1019.286670957546
 21
340.5945457153325
 31
0.0
  0
LINE
  5
59F
330
22
100
AcDbEntity
  8
_2-7_ビス
  6
Continuous
 62
     7
100
AcDbLine
 10
1019.286670957546
 20
340.5945457153325
 30
0.0
 11
1019.203616612488
 21
340.614733504368
 31
0.0
  0
LINE
  5
5A0
330
22
100
AcDbEntity
  8
_2-7_ビス
  6
Continuous
 62
     7
100
AcDbLine
 10
1019.203616612488
 20
340.614733504368
 30
0.0
 11
1019.161770079325
 21
340.6187585703585
 31
0.0
  0
LINE
  5
5A1
330
22
100
AcDbEntity
  8
_2-7_ビス
  6
Continuous
 62
     7
100
AcDbLine
 10
1019.161770079325
 20
347.3801620749587
 30
0.0
 11
1019.161770079325
 21
347.3801620749587
 31
0.0
  0
LINE
  5
5A2
330
22
100
AcDbEntity
  8
_2-7_ビス
  6
Continuous
 62
     7
100
AcDbLine
 10
1019.161770079325
 20
347.3801620749587
 30
0.0
 11
1019.246095910118
 21
347.3924220316064
 31
0.0
  0
LINE
  5
5A3
330
22
100
AcDbEntity
  8
_2-7_ビス
  6
Continuous
 62
     7
100
AcDbLine
 10
1019.246095910118
 20
347.3924220316064
 30
0.0
 11
1019.327204231577
 21
347.4205944983135
 31
0.0
  0
LINE
  5
5A4
330
22
100
AcDbEntity
  8
_2-7_ビス
  6
Continuous
 62
     7
100
AcDbLine
 10
1019.327204231577
 20
347.4205944983135
 30
0.0
 11
1019.402630608395
 21
347.4638234689351
 31
0.0
  0
LINE
  5
5A5
330
22
100
AcDbEntity
  8
_2-7_ビス
  6
Continuous
 62
     7
100
AcDbLine
 10
1019.402630608395
 20
347.4638234689351
 30
0.0
 11
1019.470083248281
 21
347.5207954530737
 31
0.0
  0
LINE
  5
5A6
330
22
100
AcDbEntity
  8
_2-7_ビス
  6
Continuous
 62
     7
100
AcDbLine
 10
1019.470083248281
 20
347.5207954530737
 30
0.0
 11
1019.527512636904
 21
347.5897793858202
 31
0.0
  0
LINE
  5
5A7
330
22
100
AcDbEntity
  8
_2-7_ビス
  6
Continuous
 62
     7
100
AcDbLine
 10
1019.527512636904
 20
347.5897793858202
 30
0.0
 11
1019.573173811353
 21
347.6686792252861
 31
0.0
  0
LINE
  5
5A8
330
22
100
AcDbEntity
  8
_2-7_ビス
  6
Continuous
 62
     7
100
AcDbLine
 10
1019.573173811353
 20
347.6686792252861
 30
0.0
 11
1019.605679379946
 21
347.7550976397744
 31
0.0
  0
LINE
  5
5A9
330
22
100
AcDbEntity
  8
_2-7_ビス
  6
Continuous
 62
     7
100
AcDbLine
 10
1019.605679379946
 20
347.7550976397744
 30
0.0
 11
1019.62404167743
 21
347.8464088494904
 31
0.0
  0
LINE
  5
5AA
330
22
100
AcDbEntity
  8
_2-7_ビス
  6
Continuous
 62
     7
100
AcDbLine
 10
1019.62404167743
 20
347.8464088494904
 30
0.0
 11
1019.62770277469
 21
347.9398384095329
 31
0.0
  0
LINE
  5
5AB
330
22
100
AcDbEntity
  8
_2-7_ビス
  6
Continuous
 62
     7
100
AcDbLine
 10
1019.62770277469
 20
347.9398384095329
 30
0.0
 11
1019.616551431137
 21
348.0325475099976
 31
0.0
  0
LINE
  5
5AC
330
22
100
AcDbEntity
  8
_2-7_ビス
  6
Continuous
 62
     7
100
AcDbLine
 10
1019.616551431137
 20
348.0325475099976
 30
0.0
 11
1019.590926474702
 21
348.1217192317797
 31
0.0
  0
LINE
  5
5AD
330
22
100
AcDbEntity
  8
_2-7_ビス
  6
Continuous
 62
     7
100
AcDbLine
 10
1019.590926474702
 20
348.1217192317797
 30
0.0
 11
1019.551606506718
 21
348.2046441372361
 31
0.0
  0
LINE
  5
5AE
330
22
100
AcDbEntity
  8
_2-7_ビス
  6
Continuous
 62
     7
100
AcDbLine
 10
1019.551606506718
 20
348.2046441372361
 30
0.0
 11
1019.499786244518
 21
348.2788025950766
 31
0.0
  0
LINE
  5
5AF
330
22
100
AcDbEntity
  8
_2-7_ビス
  6
Continuous
 62
     7
100
AcDbLine
 10
1019.499786244518
 20
348.2788025950766
 30
0.0
 11
1019.437040220544
 21
348.3419413380856
 31
0.0
  0
LINE
  5
5B0
330
22
100
AcDbEntity
  8
_2-7_ビス
  6
Continuous
 62
     7
100
AcDbLine
 10
1019.437040220544
 20
348.3419413380856
 30
0.0
 11
1019.365274940986
 21
348.3921419275067
 31
0.0
  0
LINE
  5
5B1
330
22
100
AcDbEntity
  8
_2-7_ビス
  6
Continuous
 62
     7
100
AcDbLine
 10
1019.365274940986
 20
348.3921419275067
 30
0.0
 11
1019.286670957546
 21
348.4278790438326
 31
0.0
  0
LINE
  5
5B2
330
22
100
AcDbEntity
  8
_2-7_ビス
  6
Continuous
 62
     7
100
AcDbLine
 10
1019.286670957546
 20
348.4278790438326
 30
0.0
 11
1019.203616612488
 21
348.4480668328682
 31
0.0
  0
LINE
  5
5B3
330
22
100
AcDbEntity
  8
_2-7_ビス
  6
Continuous
 62
     7
100
AcDbLine
 10
1019.203616612488
 20
348.4480668328682
 30
0.0
 11
1019.161770079325
 21
348.4520918988587
 31
0.0
  0
LINE
  5
5B4
330
22
100
AcDbEntity
  8
_2-7_ビス
  6
Continuous
 62
     7
100
AcDbLine
 10
1019.537262223214
 20
328.9924427880582
 30
0.0
 11
1019.537262223214
 21
328.9924427880582
 31
0.0
  0
LINE
  5
5B5
330
22
100
AcDbEntity
  8
_2-7_ビス
  6
Continuous
 62
     7
100
AcDbLine
 10
1019.537262223214
 20
328.9924427880582
 30
0.0
 11
1019.531858298788
 21
329.1316984099733
 31
0.0
  0
LINE
  5
5B6
330
22
100
AcDbEntity
  8
_2-7_ビス
  6
Continuous
 62
     7
100
AcDbLine
 10
1019.531858298788
 20
329.1316984099733
 30
0.0
 11
1019.504541610769
 21
329.2678067550562
 31
0.0
  0
LINE
  5
5B7
330
22
100
AcDbEntity
  8
_2-7_ビス
  6
Continuous
 62
     7
100
AcDbLine
 10
1019.504541610769
 20
329.2678067550562
 30
0.0
 11
1019.486986890126
 21
329.3222673492581
 31
0.0
  0
LINE
  5
5B8
330
22
100
AcDbEntity
  8
_2-7_ビス
  6
Continuous
 62
     7
100
AcDbLine
 10
1020.628167829324
 20
326.9931153305058
 30
0.0
 11
1020.628167829324
 21
326.9931153305058
 31
0.0
  0
LINE
  5
5B9
330
22
100
AcDbEntity
  8
_2-7_ビス
  6
Continuous
 62
     7
100
AcDbLine
 10
1020.628167829324
 20
326.9931153305058
 30
0.0
 11
1020.625346004491
 21
327.0489555250498
 31
0.0
  0
LINE
  5
5BA
330
22
100
AcDbEntity
  8
_2-7_ビス
  6
Continuous
 62
     7
100
AcDbLine
 10
1020.625346004491
 20
327.0489555250498
 30
0.0
 11
1020.613747317002
 21
327.1034086629054
 31
0.0
  0
LINE
  5
5BB
330
22
100
AcDbEntity
  8
_2-7_ビス
  6
Continuous
 62
     7
100
AcDbLine
 10
1020.613747317002
 20
327.1034086629054
 30
0.0
 11
1020.593724187107
 21
327.1548202130333
 31
0.0
  0
LINE
  5
5BC
330
22
100
AcDbEntity
  8
_2-7_ビス
  6
Continuous
 62
     7
100
AcDbLine
 10
1020.593724187107
 20
327.1548202130333
 30
0.0
 11
1020.565885007477
 21
327.2016280614987
 31
0.0
  0
LINE
  5
5BD
330
22
100
AcDbEntity
  8
_2-7_ビス
  6
Continuous
 62
     7
100
AcDbLine
 10
1020.565885007477
 20
327.2016280614987
 30
0.0
 11
1020.531075657495
 21
327.2424099755117
 31
0.0
  0
LINE
  5
5BE
330
22
100
AcDbEntity
  8
_2-7_ビス
  6
Continuous
 62
     7
100
AcDbLine
 10
1020.531075657495
 20
327.2424099755117
 30
0.0
 11
1020.490353801648
 21
327.2759268172513
 31
0.0
  0
LINE
  5
5BF
330
22
100
AcDbEntity
  8
_2-7_ビス
  6
Continuous
 62
     7
100
AcDbLine
 10
1020.490353801648
 20
327.2759268172513
 30
0.0
 11
1020.444956752919
 21
327.3011601944423
 31
0.0
  0
LINE
  5
5C0
330
22
100
AcDbEntity
  8
_2-7_ビス
  6
Continuous
 62
     7
100
AcDbLine
 10
1020.444956752919
 20
327.3011601944423
 30
0.0
 11
1020.396263877661
 21
327.3173434036869
 31
0.0
  0
LINE
  5
5C1
330
22
100
AcDbEntity
  8
_2-7_ビス
  6
Continuous
 62
     7
100
AcDbLine
 10
1020.396263877661
 20
327.3173434036869
 30
0.0
 11
1020.34575468425
 21
327.3239847263615
 31
0.0
  0
LINE
  5
5C2
330
22
100
AcDbEntity
  8
_2-7_ビス
  6
Continuous
 62
     7
100
AcDbLine
 10
1020.34575468425
 20
327.3239847263615
 30
0.0
 11
1020.294963868969
 21
327.3208823692373
 31
0.0
  0
LINE
  5
5C3
330
22
100
AcDbEntity
  8
_2-7_ビス
  6
Continuous
 62
     7
100
AcDbLine
 10
1020.294963868969
 20
327.3208823692373
 30
0.0
 11
1020.245434685038
 21
327.3081305958657
 31
0.0
  0
LINE
  5
5C4
330
22
100
AcDbEntity
  8
_2-7_ビス
  6
Continuous
 62
     7
100
AcDbLine
 10
1020.245434685038
 20
327.3081305958657
 30
0.0
 11
1020.198672051648
 21
327.2861168624278
 31
0.0
  0
LINE
  5
5C5
330
22
100
AcDbEntity
  8
_2-7_ビス
  6
Continuous
 62
     7
100
AcDbLine
 10
1020.198672051648
 20
327.2861168624278
 30
0.0
 11
1020.156096827752
 21
327.2555100450746
 31
0.0
  0
LINE
  5
5C6
330
22
100
AcDbEntity
  8
_2-7_ビス
  6
Continuous
 62
     7
100
AcDbLine
 10
1020.156096827752
 20
327.2555100450746
 30
0.0
 11
1020.119002639983
 21
327.2172401164637
 31
0.0
  0
LINE
  5
5C7
330
22
100
AcDbEntity
  8
_2-7_ビス
  6
Continuous
 62
     7
100
AcDbLine
 10
1020.119002639983
 20
327.2172401164637
 30
0.0
 11
1020.088516576467
 21
327.1724698890104
 31
0.0
  0
LINE
  5
5C8
330
22
100
AcDbEntity
  8
_2-7_ビス
  6
Continuous
 62
     7
100
AcDbLine
 10
1020.088516576467
 20
327.1724698890104
 30
0.0
 11
1020.065564940817
 21
327.1225596834209
 31
0.0
  0
LINE
  5
5C9
330
22
100
AcDbEntity
  8
_2-7_ビス
  6
Continuous
 62
     7
100
AcDbLine
 10
1020.065564940817
 20
327.1225596834209
 30
0.0
 11
1020.050845106867
 21
327.0690259960364
 31
0.0
  0
LINE
  5
5CA
330
22
100
AcDbEntity
  8
_2-7_ビス
  6
Continuous
 62
     7
100
AcDbLine
 10
1020.050845106867
 20
327.0690259960364
 30
0.0
 11
1020.044804329324
 21
327.0134954208586
 31
0.0
  0
LINE
  5
5CB
330
22
100
AcDbEntity
  8
_2-7_ビス
  6
Continuous
 62
     7
100
AcDbLine
 10
1020.044804329324
 20
327.0134954208586
 30
0.0
 11
1020.044804329324
 21
327.0134954208585
 31
0.0
  0
POINT
  5
5CC
330
22
100
AcDbEntity
  8
_2-B_DIM
 62
     1
100
AcDbPoint
 10
1051.955520079325
 20
320.0845912056525
 30
0.0
  0
LINE
  5
5CD
330
22
100
AcDbEntity
  8
_2-B_DIM
  6
Continuous
 62
     7
100
AcDbLine
 10
1051.955520079325
 20
320.0845912056525
 30
0.0
 11
1051.955520079325
 21
361.6134896334234
 31
0.0
  0
LINE
  5
5CE
330
22
100
AcDbEntity
  8
_2-B_DIM
  6
Continuous
 62
     7
100
AcDbLine
 10
1051.955520079325
 20
320.0845912056525
 30
0.0
 11
1101.955520079325
 21
320.0845912056525
 31
0.0
  0
LINE
  5
5CF
330
22
100
AcDbEntity
  8
_2-B_DIM
  6
Continuous
 62
     7
100
AcDbLine
 10
1101.955520079325
 20
320.0845912056525
 30
0.0
 11
1101.955520079325
 21
361.6134896334234
 31
0.0
  0
POINT
  5
5D0
330
22
100
AcDbEntity
  8
_2-B_DIM
 62
     1
100
AcDbPoint
 10
1101.955520079325
 20
320.0845912056525
 30
0.0
  0
TEXT
  5
5D1
330
22
100
AcDbEntity
  8
_2-B_DIM
 62
     7
100
AcDbText
 10
1053.967962644303
 20
322.5845912056525
 30
0.0
 40
15.0
  1
40以上
100
AcDbText
  0
LINE
  5
5D2
330
22
100
AcDbEntity
  8
_2-3_
  6
Continuous
 62
     3
100
AcDbLine
 10
995.4117121798574
 20
533.9610826708184
 30
0.0
 11
995.4117121798574
 21
531.961082670818
 31
0.0
  0
LINE
  5
5D3
330
22
100
AcDbEntity
  8
_2-3_
  6
Continuous
 62
     3
100
AcDbLine
 10
988.9305200793263
 20
516.1610826708186
 30
0.0
 11
990.1305200793263
 21
516.1610826708186
 31
0.0
  0
LINE
  5
5D4
330
22
100
AcDbEntity
  8
_2-3_
  6
Continuous
 62
     3
100
AcDbLine
 10
988.9305200793263
 20
533.9610826708184
 30
0.0
 11
988.9305200793263
 21
516.1610826708186
 31
0.0
  0
ARC
  5
5D5
330
22
100
AcDbEntity
  8
_2-3_
  6
Continuous
 62
     3
100
AcDbCircle
 10
989.9305200793255
 20
533.9610826708184
 30
0.0
 40
1.0
100
AcDbArc
 50
90.0
 51
180.0
  0
ARC
  5
5D6
330
22
100
AcDbEntity
  8
_2-3_
  6
Continuous
 62
     3
100
AcDbCircle
 10
991.1305200793256
 20
532.7610826708195
 30
0.0
 40
1.0
100
AcDbArc
 50
90.0
 51
180.0
  0
LINE
  5
5D7
330
22
100
AcDbEntity
  8
_2-3_
  6
Continuous
 62
     3
100
AcDbLine
 10
995.4117121798574
 20
531.961082670818
 30
0.0
 11
994.2117121798574
 21
531.961082670818
 31
0.0
  0
ARC
  5
5D8
330
22
100
AcDbEntity
  8
_2-3_
  6
Continuous
 62
     3
100
AcDbCircle
 10
994.4117121798583
 20
533.9610826708184
 30
0.0
 40
1.0
100
AcDbArc
 50
0.0
 51
90.00000000000003
  0
LINE
  5
5D9
330
22
100
AcDbEntity
  8
_2-3_
  6
Continuous
 62
     3
100
AcDbLine
 10
994.2117121798574
 20
532.7610826708195
 30
0.0
 11
994.2117121798574
 21
531.961082670818
 31
0.0
  0
ARC
  5
5DA
330
22
100
AcDbEntity
  8
_2-3_
  6
Continuous
 62
     3
100
AcDbCircle
 10
993.2117121798583
 20
532.7610826708195
 30
0.0
 40
1.0
100
AcDbArc
 50
0.0
 51
90.0
  0
LINE
  5
5DB
330
22
100
AcDbEntity
  8
_2-3_
  6
Continuous
 62
     3
100
AcDbLine
 10
991.1305200793256
 20
533.7610826708186
 30
0.0
 11
993.2117121798583
 21
533.7610826708186
 31
0.0
  0
LINE
  5
5DC
330
22
100
AcDbEntity
  8
_2-3_
  6
Continuous
 62
     3
100
AcDbLine
 10
1002.330520079325
 20
536.1610826708187
 30
0.0
 11
966.3305200793264
 21
536.1610826708187
 31
0.0
  0
LINE
  5
5DD
330
22
100
AcDbEntity
  8
_2-3_
  6
Continuous
 62
     3
100
AcDbLine
 10
1002.330520079325
 20
534.9610826708175
 30
0.0
 11
966.3305200793264
 21
534.9610826708175
 31
0.0
  0
LINE
  5
5DE
330
22
100
AcDbEntity
  8
_2-3_
  6
Continuous
 62
     3
100
AcDbLine
 10
1002.330520079325
 20
456.1610826708187
 30
0.0
 11
1001.130520079327
 21
456.1610826708187
 31
0.0
  0
LINE
  5
5DF
330
22
100
AcDbEntity
  8
_2-3_
  6
Continuous
 62
     3
100
AcDbLine
 10
1001.130520079327
 20
534.9610826708175
 30
0.0
 11
1001.130520079327
 21
456.1610826708187
 31
0.0
  0
LINE
  5
5E0
330
22
100
AcDbEntity
  8
_2-3_
  6
Continuous
 62
     3
100
AcDbLine
 10
1002.330520079325
 20
536.1610826708187
 30
0.0
 11
1002.330520079325
 21
456.1610826708187
 31
0.0
  0
LINE
  5
5E1
330
22
100
AcDbEntity
  8
_2-3_
  6
Continuous
 62
     3
100
AcDbLine
 10
990.1305200793263
 20
524.9610826708175
 30
0.0
 11
991.3305200793264
 21
524.9610826708175
 31
0.0
  0
ARC
  5
5E2
330
22
100
AcDbEntity
  8
_2-1_
  6
Continuous
 62
     4
100
AcDbCircle
 10
972.3305200793255
 20
532.461082670818
 30
0.0
 40
2.499999999999778
100
AcDbArc
 50
36.86989764584172
 51
143.1301023541582
  0
ARC
  5
5E3
330
22
100
AcDbEntity
  8
_2-1_
  6
Continuous
 62
     4
100
AcDbCircle
 10
972.3305200793255
 20
517.4610826708175
 30
0.0
 40
2.499999999999778
100
AcDbArc
 50
216.8698976458417
 51
323.1301023541582
  0
LINE
  5
5E4
330
22
100
AcDbEntity
  8
_2-1_
  6
Continuous
 62
     4
100
AcDbLine
 10
972.3305200793255
 20
514.9610826708175
 30
0.0
 11
966.3305200793264
 21
514.9610826708175
 31
0.0
  0
LINE
  5
5E5
330
22
100
AcDbEntity
  8
_2-1_
  6
Continuous
 62
     4
100
AcDbLine
 10
974.3305200793262
 20
515.9610826708177
 30
0.0
 11
974.3305200793262
 21
533.9610826708177
 31
0.0
  0
LINE
  5
5E6
330
22
100
AcDbEntity
  8
_2-1_
  6
Continuous
 62
     4
100
AcDbLine
 10
970.3305200793263
 20
515.9610826708177
 30
0.0
 11
970.3305200793263
 21
533.9610826708177
 31
0.0
  0
ARC
  5
5E7
330
22
100
AcDbEntity
  8
_2-1_
  6
Continuous
 62
     4
100
AcDbCircle
 10
966.3305200793264
 20
526.4610826708184
 30
0.0
 40
8.49999999999912
100
AcDbArc
 50
61.92751306414565
 51
90.0
  0
ARC
  5
5E8
330
22
100
AcDbEntity
  8
_2-1_
  6
Continuous
 62
     4
100
AcDbCircle
 10
966.3305200793264
 20
523.4610826708165
 30
0.0
 40
8.49999999999912
100
AcDbArc
 50
270.0
 51
298.0724869358544
  0
LINE
  5
5E9
330
22
100
AcDbEntity
  8
_2-1_
  6
Continuous
 62
     4
100
AcDbLine
 10
971.3305200793262
 20
385.0766532902588
 30
0.0
 11
971.3305200793262
 21
390.0766532902588
 31
0.0
  0
LINE
  5
5EA
330
22
100
AcDbEntity
  8
_2-1_
  6
Continuous
 62
     4
100
AcDbLine
 10
974.3305200793262
 20
385.0766532902588
 30
0.0
 11
974.3305200793262
 21
390.0766532902588
 31
0.0
  0
LINE
  5
5EB
330
22
100
AcDbEntity
  8
_2-1_
  6
Continuous
 62
     4
100
AcDbLine
 10
974.3305200793262
 20
390.0766532902588
 30
0.0
 11
966.3305200793264
 21
390.0766532902588
 31
0.0
  0
LINE
  5
5EC
330
22
100
AcDbEntity
  8
_2-1_
  6
Continuous
 62
     4
100
AcDbLine
 10
969.3305200793261
 20
390.0766532902588
 30
0.0
 11
969.3305200793261
 21
395.0766532902588
 31
0.0
  0
LINE
  5
5ED
330
22
100
AcDbEntity
  8
_2-1_
  6
Continuous
 62
     4
100
AcDbLine
 10
969.3305200793261
 20
395.0766532902588
 30
0.0
 11
970.3305200793263
 21
395.6540035594486
 31
0.0
  0
LINE
  5
5EE
330
22
100
AcDbEntity
  8
_2-1_
  6
Continuous
 62
     4
100
AcDbLine
 10
969.3305200793261
 20
395.0766532902588
 30
0.0
 11
966.3305200793264
 21
395.0766532902588
 31
0.0
  0
LINE
  5
5EF
330
22
100
AcDbEntity
  8
_2-1_
  6
Continuous
 62
     4
100
AcDbLine
 10
983.3305200793258
 20
485.0766532902587
 30
0.0
 11
970.3305200793263
 21
485.0766532902587
 31
0.0
  0
LINE
  5
5F0
330
22
100
AcDbEntity
  8
_2-3_
  6
Continuous
 62
     3
100
AcDbLine
 10
985.3305200793263
 20
485.0766532902587
 30
0.0
 11
983.3305200793258
 21
485.0766532902587
 31
0.0
  0
LINE
  5
5F1
330
22
100
AcDbEntity
  8
_2-3_
  6
Continuous
 62
     3
100
AcDbLine
 10
937.2493279787956
 20
533.9610826708184
 30
0.0
 11
937.2493279787956
 21
531.961082670818
 31
0.0
  0
LINE
  5
5F2
330
22
100
AcDbEntity
  8
_2-3_
  6
Continuous
 62
     3
100
AcDbLine
 10
943.7305200793264
 20
516.1610826708186
 30
0.0
 11
942.5305200793264
 21
516.1610826708186
 31
0.0
  0
LINE
  5
5F3
330
22
100
AcDbEntity
  8
_2-3_
  6
Continuous
 62
     3
100
AcDbLine
 10
943.7305200793264
 20
533.9610826708184
 30
0.0
 11
943.7305200793264
 21
516.1610826708186
 31
0.0
  0
ARC
  5
5F4
330
22
100
AcDbEntity
  8
_2-3_
  6
Continuous
 62
     3
100
AcDbCircle
 10
942.7305200793277
 20
533.9610826708184
 30
0.0
 40
1.0
100
AcDbArc
 50
0.0
 51
90.0
  0
LINE
  5
5F5
330
22
100
AcDbEntity
  8
_2-3_
  6
Continuous
 62
     3
100
AcDbLine
 10
937.2493279787956
 20
531.961082670818
 30
0.0
 11
938.4493279787955
 21
531.961082670818
 31
0.0
  0
ARC
  5
5F6
330
22
100
AcDbEntity
  8
_2-3_
  6
Continuous
 62
     3
100
AcDbCircle
 10
938.2493279787949
 20
533.9610826708184
 30
0.0
 40
1.0
100
AcDbArc
 50
89.99999999999998
 51
180.0
  0
LINE
  5
5F7
330
22
100
AcDbEntity
  8
_2-3_
  6
Continuous
 62
     3
100
AcDbLine
 10
938.4493279787955
 20
532.7610826708195
 30
0.0
 11
938.4493279787955
 21
531.961082670818
 31
0.0
  0
ARC
  5
5F8
330
22
100
AcDbEntity
  8
_2-3_
  6
Continuous
 62
     3
100
AcDbCircle
 10
939.4493279787948
 20
532.7610826708195
 30
0.0
 40
1.0
100
AcDbArc
 50
90.0
 51
180.0
  0
LINE
  5
5F9
330
22
100
AcDbEntity
  8
_2-3_
  6
Continuous
 62
     3
100
AcDbLine
 10
941.5305200793277
 20
533.7610826708186
 30
0.0
 11
939.4493279787948
 21
533.7610826708186
 31
0.0
  0
LINE
  5
5FA
330
22
100
AcDbEntity
  8
_2-3_
  6
Continuous
 62
     3
100
AcDbLine
 10
930.3305200793273
 20
536.1610826708187
 30
0.0
 11
966.3305200793264
 21
536.1610826708187
 31
0.0
  0
LINE
  5
5FB
330
22
100
AcDbEntity
  8
_2-3_
  6
Continuous
 62
     3
100
AcDbLine
 10
930.3305200793273
 20
534.9610826708175
 30
0.0
 11
966.3305200793264
 21
534.9610826708175
 31
0.0
  0
LINE
  5
5FC
330
22
100
AcDbEntity
  8
_2-3_
  6
Continuous
 62
     3
100
AcDbLine
 10
930.3305200793273
 20
456.1610826708187
 30
0.0
 11
931.5305200793263
 21
456.1610826708187
 31
0.0
  0
LINE
  5
5FD
330
22
100
AcDbEntity
  8
_2-3_
  6
Continuous
 62
     3
100
AcDbLine
 10
931.5305200793263
 20
534.9610826708175
 30
0.0
 11
931.5305200793263
 21
456.1610826708187
 31
0.0
  0
LINE
  5
5FE
330
22
100
AcDbEntity
  8
_2-3_
  6
Continuous
 62
     3
100
AcDbLine
 10
930.3305200793273
 20
536.1610826708187
 30
0.0
 11
930.3305200793273
 21
456.1610826708187
 31
0.0
  0
LINE
  5
5FF
330
22
100
AcDbEntity
  8
_2-3_
  6
Continuous
 62
     3
100
AcDbLine
 10
942.5305200793264
 20
524.9610826708175
 30
0.0
 11
941.3305200793264
 21
524.9610826708175
 31
0.0
  0
ARC
  5
600
330
22
100
AcDbEntity
  8
_2-1_
  6
Continuous
 62
     4
100
AcDbCircle
 10
960.3305200793274
 20
532.461082670818
 30
0.0
 40
2.499999999999778
100
AcDbArc
 50
36.86989764584176
 51
143.1301023541583
  0
ARC
  5
601
330
22
100
AcDbEntity
  8
_2-1_
  6
Continuous
 62
     4
100
AcDbCircle
 10
960.3305200793274
 20
517.4610826708175
 30
0.0
 40
2.499999999999778
100
AcDbArc
 50
216.8698976458417
 51
323.1301023541582
  0
LINE
  5
602
330
22
100
AcDbEntity
  8
_2-1_
  6
Continuous
 62
     4
100
AcDbLine
 10
960.3305200793274
 20
514.9610826708175
 30
0.0
 11
966.3305200793264
 21
514.9610826708175
 31
0.0
  0
LINE
  5
603
330
22
100
AcDbEntity
  8
_2-1_
  6
Continuous
 62
     4
100
AcDbLine
 10
958.3305200793269
 20
515.9610826708177
 30
0.0
 11
958.3305200793269
 21
533.9610826708177
 31
0.0
  0
LINE
  5
604
330
22
100
AcDbEntity
  8
_2-1_
  6
Continuous
 62
     4
100
AcDbLine
 10
962.3305200793268
 20
515.9610826708177
 30
0.0
 11
962.3305200793268
 21
533.9610826708177
 31
0.0
  0
ARC
  5
605
330
22
100
AcDbEntity
  8
_2-1_
  6
Continuous
 62
     4
100
AcDbCircle
 10
966.3305200793264
 20
526.4610826708184
 30
0.0
 40
8.49999999999912
100
AcDbArc
 50
90.0
 51
118.0724869358543
  0
ARC
  5
606
330
22
100
AcDbEntity
  8
_2-1_
  6
Continuous
 62
     4
100
AcDbCircle
 10
966.3305200793264
 20
523.4610826708165
 30
0.0
 40
8.49999999999912
100
AcDbArc
 50
241.9275130641456
 51
270.0
  0
LINE
  5
607
330
22
100
AcDbEntity
  8
_2-1_
  6
Continuous
 62
     4
100
AcDbLine
 10
961.3305200793263
 20
385.0766532902588
 30
0.0
 11
961.3305200793263
 21
390.0766532902588
 31
0.0
  0
LINE
  5
608
330
22
100
AcDbEntity
  8
_2-1_
  6
Continuous
 62
     4
100
AcDbLine
 10
958.3305200793269
 20
385.0766532902588
 30
0.0
 11
958.3305200793269
 21
390.0766532902588
 31
0.0
  0
LINE
  5
609
330
22
100
AcDbEntity
  8
_2-1_
  6
Continuous
 62
     4
100
AcDbLine
 10
958.3305200793269
 20
390.0766532902588
 30
0.0
 11
966.3305200793264
 21
390.0766532902588
 31
0.0
  0
LINE
  5
60A
330
22
100
AcDbEntity
  8
_2-1_
  6
Continuous
 62
     4
100
AcDbLine
 10
963.330520079327
 20
390.0766532902588
 30
0.0
 11
963.330520079327
 21
395.0766532902588
 31
0.0
  0
LINE
  5
60B
330
22
100
AcDbEntity
  8
_2-1_
  6
Continuous
 62
     4
100
AcDbLine
 10
963.330520079327
 20
395.0766532902588
 30
0.0
 11
962.3305200793268
 21
395.6540035594486
 31
0.0
  0
LINE
  5
60C
330
22
100
AcDbEntity
  8
_2-1_
  6
Continuous
 62
     4
100
AcDbLine
 10
963.330520079327
 20
395.0766532902588
 30
0.0
 11
966.3305200793264
 21
395.0766532902588
 31
0.0
  0
LINE
  5
60D
330
22
100
AcDbEntity
  8
_2-1_
  6
Continuous
 62
     4
100
AcDbLine
 10
949.3305200793273
 20
485.0766532902587
 30
0.0
 11
962.3305200793268
 21
485.0766532902587
 31
0.0
  0
LINE
  5
60E
330
22
100
AcDbEntity
  8
_2-3_
  6
Continuous
 62
     3
100
AcDbLine
 10
947.3305200793269
 20
485.0766532902587
 30
0.0
 11
949.3305200793273
 21
485.0766532902587
 31
0.0
  0
LINE
  5
60F
330
22
100
AcDbEntity
  8
_2-3_
  6
Continuous
 62
     3
100
AcDbLine
 10
990.1305200793263
 20
532.7610826708195
 30
0.0
 11
990.1305200793263
 21
393.2766532902588
 31
0.0
  0
LINE
  5
610
330
22
100
AcDbEntity
  8
_2-3_
  6
Continuous
 62
     3
100
AcDbLine
 10
991.3305200793264
 20
393.3266532902576
 30
0.0
 11
991.3305200793264
 21
524.9610826708175
 31
0.0
  0
LINE
  5
611
330
22
100
AcDbEntity
  8
_2-3_
  6
Continuous
 62
     3
100
AcDbLine
 10
941.3305200793264
 20
393.3266532902576
 30
0.0
 11
941.3305200793264
 21
524.9610826708175
 31
0.0
  0
ENDSEC
  0
SECTION
  2
OBJECTS
  0
DICTIONARY
  5
C
330
0
100
AcDbDictionary
281
     1
  3
ACAD_COLOR
350
1B
  3
ACAD_GROUP
350
D
  3
ACAD_LAYOUT
350
19
  3
ACAD_MATERIAL
350
1A
  3
ACAD_MLINESTYLE
350
16
  3
ACAD_PLOTSETTINGS
350
18
  3
ACAD_PLOTSTYLENAME
350
E
  3
ACAD_TABLESTYLE
350
1C
  3
ACDBHEADERROUNDTRIPXREC
350
619
  3
AcDbVariableDictionary
350
614
  0
DICTIONARY
  5
1B
102
{ACAD_REACTORS
330
C
102
}
330
C
100
AcDbDictionary
281
     1
  0
DICTIONARY
  5
D
102
{ACAD_REACTORS
330
C
102
}
330
C
100
AcDbDictionary
281
     1
  0
DICTIONARY
  5
19
102
{ACAD_REACTORS
330
C
102
}
330
C
100
AcDbDictionary
281
     1
  3
Model
350
25
  3
レイアウト1
350
21
  0
DICTIONARY
  5
1A
102
{ACAD_REACTORS
330
C
102
}
330
C
100
AcDbDictionary
281
     1
  0
DICTIONARY
  5
16
102
{ACAD_REACTORS
330
C
102
}
330
C
100
AcDbDictionary
281
     1
  3
Standard
350
17
  0
DICTIONARY
  5
18
102
{ACAD_REACTORS
330
C
102
}
330
C
100
AcDbDictionary
281
     1
  0
ACDBDICTIONARYWDFLT
  5
E
102
{ACAD_REACTORS
330
C
102
}
330
C
100
AcDbDictionary
281
     1
  3
Normal
350
F
100
AcDbDictionaryWithDefault
340
F
  0
DICTIONARY
  5
1C
102
{ACAD_REACTORS
330
C
102
}
330
C
100
AcDbDictionary
281
     1
  3
Standard
350
1D
  0
DICTIONARY
  5
619
102
{ACAD_REACTORS
330
C
102
}
330
C
100
AcDbDictionary
281
     1
  0
DICTIONARY
  5
614
102
{ACAD_REACTORS
330
C
102
}
330
C
100
AcDbDictionary
281
     1
  3
CTABLESTYLE
350
615
  3
DIMASSOC
350
616
  3
PROJECTNAME
350
617
  0
LAYOUT
  5
25
102
{ACAD_XDICTIONARY
360
61C
102
}
102
{ACAD_REACTORS
330
19
102
}
330
19
100
AcDbPlotSettings
  1

  2
PC1665
  4

  6

 40
0.0
 41
0.0
 42
0.0
 43
0.0
 44
0.0
 45
0.0
 46
0.0
 47
0.0
 48
0.0
 49
0.0
140
0.0
141
0.0
142
1.0
143
1.0
 70
  1712
 72
     0
 73
     0
 74
     0
  7

 75
     0
147
1.0
148
0.0
149
0.0
100
AcDbLayout
  1
Model
 70
     1
 71
     0
 10
0.0
 20
0.0
 11
12.0
 21
9.0
 12
0.0
 22
0.0
 32
0.0
 14
0.0
 24
0.0
 34
0.0
 15
0.0
 25
0.0
 35
0.0
146
0.0
 13
0.0
 23
0.0
 33
0.0
 16
1.0
 26
0.0
 36
0.0
 17
0.0
 27
1.0
 37
0.0
 76
     0
330
22
  0
LAYOUT
  5
21
102
{ACAD_XDICTIONARY
360
61A
102
}
102
{ACAD_REACTORS
330
19
102
}
330
19
100
AcDbPlotSettings
  1

  2
PC1665
  4

  6

 40
0.0
 41
0.0
 42
0.0
 43
0.0
 44
0.0
 45
0.0
 46
0.0
 47
0.0
 48
0.0
 49
0.0
140
0.0
141
0.0
142
1.0
143
1.0
 70
   688
 72
     0
 73
     0
 74
     5
  7

 75
    16
147
1.0
148
0.0
149
0.0
100
AcDbLayout
  1
レイアウト1
 70
     1
 71
     1
 10
0.0
 20
0.0
 11
12.0
 21
9.0
 12
0.0
 22
0.0
 32
0.0
 14
1.000000000000000E+20
 24
1.000000000000000E+20
 34
1.000000000000000E+20
 15
-1.000000000000000E+20
 25
-1.000000000000000E+20
 35
-1.000000000000000E+20
146
0.0
 13
0.0
 23
0.0
 33
0.0
 16
1.0
 26
0.0
 36
0.0
 17
0.0
 27
1.0
 37
0.0
 76
     0
330
1E
  0
MLINESTYLE
  5
17
102
{ACAD_REACTORS
330
16
102
}
330
16
100
AcDbMlineStyle
  2
STANDARD
 70
     0
  3

 62
   256
 51
90.0
 52
90.0
 71
     2
 49
0.5
 62
   256
  6
BYLAYER
 49
-0.5
 62
   256
  6
BYLAYER
  0
ACDBPLACEHOLDER
  5
F
102
{ACAD_REACTORS
330
E
102
}
330
E
  0
TABLESTYLE
  5
1D
102
{ACAD_REACTORS
330
1C
102
}
330
1C
100
AcDbTableStyle
  3
Standard
 70
     0
 71
     0
 40
0.06
 41
0.06
280
     0
281
     0
  7
STANDARD
140
0.18
170
     2
 62
     0
 63
     7
283
     0
274
    -2
284
     1
 64
     0
275
    -2
285
     1
 65
     0
276
    -2
286
     1
 66
     0
277
    -2
287
     1
 67
     0
278
    -2
288
     1
 68
     0
279
    -2
289
     1
 69
     0
  7
STANDARD
140
0.25
170
     5
 62
     0
 63
     7
283
     0
274
    -2
284
     1
 64
     0
275
    -2
285
     1
 65
     0
276
    -2
286
     1
 66
     0
277
    -2
287
     1
 67
     0
278
    -2
288
     1
 68
     0
279
    -2
289
     1
 69
     0
  7
STANDARD
140
0.18
170
     5
 62
     0
 63
     7
283
     0
274
    -2
284
     1
 64
     0
275
    -2
285
     1
 65
     0
276
    -2
286
     1
 66
     0
277
    -2
287
     1
 67
     0
278
    -2
288
     1
 68
     0
279
    -2
289
     1
 69
     0
  0
DICTIONARYVAR
  5
615
102
{ACAD_REACTORS
330
614
102
}
330
614
100
DictionaryVariables
280
     0
  1
STANDARD
  0
DICTIONARYVAR
  5
616
102
{ACAD_REACTORS
330
614
102
}
330
614
100
DictionaryVariables
280
     0
  1
1
  0
DICTIONARYVAR
  5
617
102
{ACAD_REACTORS
330
614
102
}
330
614
100
DictionaryVariables
280
     0
  1

  0
DICTIONARY
  5
61C
330
25
100
AcDbDictionary
280
     1
281
     1
  3
ACAD_XREC_ROUNDTRIP
360
61D
  0
DICTIONARY
  5
61A
330
21
100
AcDbDictionary
280
     1
281
     1
  3
ACAD_XREC_ROUNDTRIP
360
61B
  0
XRECORD
  5
61D
102
{ACAD_REACTORS
330
61C
102
}
330
61C
100
AcDbXrecord
280
     1
102
SHADEPLOT
 70
     0
102
SHADEPLOTRESLEVEL
 70
     2
102
SHADEPLOTCUSTOMDPI
 70
   300
  0
XRECORD
  5
61B
102
{ACAD_REACTORS
330
61A
102
}
330
61A
100
AcDbXrecord
280
     1
102
SHADEPLOT
 70
     0
102
SHADEPLOTRESLEVEL
 70
     2
102
SHADEPLOTCUSTOMDPI
 70
   300
  0
ENDSEC
  0
EOF
