  0
SECTION
  2
HEADER
  9
$ACADVER
  1
AC1015
  9
$ACADMAINTVER
 70
    20
  9
$DWGCODEPAGE
  3
ANSI_932
  9
$INSBASE
 10
0.0
 20
0.0
 30
0.0
  9
$EXTMIN
 10
599.9496515839701
 20
33.03726545888594
 30
-0.0015258207003583
  9
$EXTMAX
 10
1600.186161534146
 20
1463.065799330437
 30
0.0000000349246037
  9
$LIMMIN
 10
0.0
 20
0.0
  9
$LIMMAX
 10
2100.0
 20
1485.0
  9
$ORTHOMODE
 70
     0
  9
$REGENMODE
 70
     1
  9
$FILLMODE
 70
     1
  9
$QTEXTMODE
 70
     0
  9
$MIRRTEXT
 70
     0
  9
$LTSCALE
 40
5.0
  9
$ATTMODE
 70
     1
  9
$TEXTSIZE
 40
0.2
  9
$TRACEWID
 40
0.05
  9
$TEXTSTYLE
  7
STANDARD
  9
$CLAYER
  8
0
  9
$CELTYPE
  6
CONTINUOUS
  9
$CECOLOR
 62
   256
  9
$CELTSCALE
 40
1.0
  9
$DISPSILH
 70
     0
  9
$DIMSCALE
 40
1.0
  9
$DIMASZ
 40
0.18
  9
$DIMEXO
 40
0.0625
  9
$DIMDLI
 40
0.38
  9
$DIMRND
 40
0.0
  9
$DIMDLE
 40
0.0
  9
$DIMEXE
 40
0.18
  9
$DIMTP
 40
0.0
  9
$DIMTM
 40
0.0
  9
$DIMTXT
 40
0.18
  9
$DIMCEN
 40
0.09
  9
$DIMTSZ
 40
0.0
  9
$DIMTOL
 70
     0
  9
$DIMLIM
 70
     0
  9
$DIMTIH
 70
     1
  9
$DIMTOH
 70
     1
  9
$DIMSE1
 70
     0
  9
$DIMSE2
 70
     0
  9
$DIMTAD
 70
     0
  9
$DIMZIN
 70
     0
  9
$DIMBLK
  1

  9
$DIMASO
 70
     1
  9
$DIMSHO
 70
     1
  9
$DIMPOST
  1

  9
$DIMAPOST
  1

  9
$DIMALT
 70
     0
  9
$DIMALTD
 70
     2
  9
$DIMALTF
 40
25.4
  9
$DIMLFAC
 40
1.0
  9
$DIMTOFL
 70
     0
  9
$DIMTVP
 40
0.0
  9
$DIMTIX
 70
     0
  9
$DIMSOXD
 70
     0
  9
$DIMSAH
 70
     0
  9
$DIMBLK1
  1

  9
$DIMBLK2
  1

  9
$DIMSTYLE
  2
Standard
  9
$DIMCLRD
 70
     0
  9
$DIMCLRE
 70
     0
  9
$DIMCLRT
 70
     0
  9
$DIMTFAC
 40
1.0
  9
$DIMGAP
 40
0.09
  9
$DIMJUST
 70
     0
  9
$DIMSD1
 70
     0
  9
$DIMSD2
 70
     0
  9
$DIMTOLJ
 70
     1
  9
$DIMTZIN
 70
     0
  9
$DIMALTZ
 70
     0
  9
$DIMALTTZ
 70
     0
  9
$DIMUPT
 70
     0
  9
$DIMDEC
 70
     4
  9
$DIMTDEC
 70
     4
  9
$DIMALTU
 70
     2
  9
$DIMALTTD
 70
     2
  9
$DIMTXSTY
  7
STANDARD
  9
$DIMAUNIT
 70
     0
  9
$DIMADEC
 70
     0
  9
$DIMALTRND
 40
0.0
  9
$DIMAZIN
 70
     0
  9
$DIMDSEP
 70
    46
  9
$DIMATFIT
 70
     3
  9
$DIMFRAC
 70
     0
  9
$DIMLDRBLK
  1

  9
$DIMLUNIT
 70
     2
  9
$DIMLWD
 70
    -2
  9
$DIMLWE
 70
    -2
  9
$DIMTMOVE
 70
     0
  9
$LUNITS
 70
     2
  9
$LUPREC
 70
     4
  9
$SKETCHINC
 40
0.1
  9
$FILLETRAD
 40
0.0
  9
$AUNITS
 70
     0
  9
$AUPREC
 70
     0
  9
$MENU
  1
.
  9
$ELEVATION
 40
0.0
  9
$PELEVATION
 40
0.0
  9
$THICKNESS
 40
0.0
  9
$LIMCHECK
 70
     0
  9
$CHAMFERA
 40
0.0
  9
$CHAMFERB
 40
0.0
  9
$CHAMFERC
 40
0.0
  9
$CHAMFERD
 40
0.0
  9
$SKPOLY
 70
     0
  9
$TDCREATE
 40
2454846.618544063
  9
$TDUCREATE
 40
2454846.243544063
  9
$TDUPDATE
 40
2454846.618857824
  9
$TDUUPDATE
 40
2454846.243857824
  9
$TDINDWG
 40
0.0003159259
  9
$TDUSRTIMER
 40
0.0003159259
  9
$USRTIMER
 70
     1
  9
$ANGBASE
 50
0.0
  9
$ANGDIR
 70
     0
  9
$PDMODE
 70
     0
  9
$PDSIZE
 40
0.0
  9
$PLINEWID
 40
0.0
  9
$SPLFRAME
 70
     0
  9
$SPLINETYPE
 70
     6
  9
$SPLINESEGS
 70
     8
  9
$HANDSEED
  5
4A9
  9
$SURFTAB1
 70
     6
  9
$SURFTAB2
 70
     6
  9
$SURFTYPE
 70
     6
  9
$SURFU
 70
     6
  9
$SURFV
 70
     6
  9
$UCSBASE
  2

  9
$UCSNAME
  2

  9
$UCSORG
 10
0.0
 20
0.0
 30
0.0
  9
$UCSXDIR
 10
1.0
 20
0.0
 30
0.0
  9
$UCSYDIR
 10
0.0
 20
1.0
 30
0.0
  9
$UCSORTHOREF
  2

  9
$UCSORTHOVIEW
 70
     0
  9
$UCSORGTOP
 10
0.0
 20
0.0
 30
0.0
  9
$UCSORGBOTTOM
 10
0.0
 20
0.0
 30
0.0
  9
$UCSORGLEFT
 10
0.0
 20
0.0
 30
0.0
  9
$UCSORGRIGHT
 10
0.0
 20
0.0
 30
0.0
  9
$UCSORGFRONT
 10
0.0
 20
0.0
 30
0.0
  9
$UCSORGBACK
 10
0.0
 20
0.0
 30
0.0
  9
$PUCSBASE
  2

  9
$PUCSNAME
  2

  9
$PUCSORG
 10
0.0
 20
0.0
 30
0.0
  9
$PUCSXDIR
 10
1.0
 20
0.0
 30
0.0
  9
$PUCSYDIR
 10
0.0
 20
1.0
 30
0.0
  9
$PUCSORTHOREF
  2

  9
$PUCSORTHOVIEW
 70
     0
  9
$PUCSORGTOP
 10
0.0
 20
0.0
 30
0.0
  9
$PUCSORGBOTTOM
 10
0.0
 20
0.0
 30
0.0
  9
$PUCSORGLEFT
 10
0.0
 20
0.0
 30
0.0
  9
$PUCSORGRIGHT
 10
0.0
 20
0.0
 30
0.0
  9
$PUCSORGFRONT
 10
0.0
 20
0.0
 30
0.0
  9
$PUCSORGBACK
 10
0.0
 20
0.0
 30
0.0
  9
$USERI1
 70
     0
  9
$USERI2
 70
     0
  9
$USERI3
 70
     0
  9
$USERI4
 70
     0
  9
$USERI5
 70
     0
  9
$USERR1
 40
0.0
  9
$USERR2
 40
0.0
  9
$USERR3
 40
0.0
  9
$USERR4
 40
0.0
  9
$USERR5
 40
0.0
  9
$WORLDVIEW
 70
     1
  9
$SHADEDGE
 70
     3
  9
$SHADEDIF
 70
    70
  9
$TILEMODE
 70
     1
  9
$MAXACTVP
 70
    64
  9
$PINSBASE
 10
0.0
 20
0.0
 30
0.0
  9
$PLIMCHECK
 70
     0
  9
$PEXTMIN
 10
1.000000000000000E+20
 20
1.000000000000000E+20
 30
1.000000000000000E+20
  9
$PEXTMAX
 10
-1.000000000000000E+20
 20
-1.000000000000000E+20
 30
-1.000000000000000E+20
  9
$PLIMMIN
 10
0.0
 20
0.0
  9
$PLIMMAX
 10
12.0
 20
9.0
  9
$UNITMODE
 70
     0
  9
$VISRETAIN
 70
     1
  9
$PLINEGEN
 70
     0
  9
$PSLTSCALE
 70
     1
  9
$TREEDEPTH
 70
  3020
  9
$CMLSTYLE
  2
Standard
  9
$CMLJUST
 70
     0
  9
$CMLSCALE
 40
1.0
  9
$PROXYGRAPHICS
 70
     1
  9
$MEASUREMENT
 70
     0
  9
$CELWEIGHT
370
    -1
  9
$ENDCAPS
280
     0
  9
$JOINSTYLE
280
     0
  9
$LWDISPLAY
290
     0
  9
$INSUNITS
 70
     0
  9
$HYPERLINKBASE
  1

  9
$STYLESHEET
  1

  9
$XEDIT
290
     1
  9
$CEPSNTYPE
380
     0
  9
$PSTYLEMODE
290
     1
  9
$FINGERPRINTGUID
  2
{F8DA6754-AD98-411F-8528-987D2025E9C4}
  9
$VERSIONGUID
  2
{D804EC84-4CCA-435B-9173-8AB15C187923}
  9
$EXTNAMES
290
     1
  9
$PSVPSCALE
 40
0.0
  9
$OLESTARTUP
290
     0
  0
ENDSEC
  0
SECTION
  2
CLASSES
  0
CLASS
  1
ACDBDICTIONARYWDFLT
  2
AcDbDictionaryWithDefault
  3
ObjectDBX Classes
 90
        0
280
     0
281
     0
  0
CLASS
  1
TABLESTYLE
  2
AcDbTableStyle
  3
ObjectDBX Classes
 90
     2047
280
     0
281
     0
  0
CLASS
  1
DICTIONARYVAR
  2
AcDbDictionaryVar
  3
ObjectDBX Classes
 90
        0
280
     0
281
     0
  0
CLASS
  1
ACDBPLACEHOLDER
  2
AcDbPlaceHolder
  3
ObjectDBX Classes
 90
        0
280
     0
281
     0
  0
CLASS
  1
LAYOUT
  2
AcDbLayout
  3
ObjectDBX Classes
 90
        0
280
     0
281
     0
  0
ENDSEC
  0
SECTION
  2
TABLES
  0
TABLE
  2
VPORT
  5
8
330
0
100
AcDbSymbolTable
 70
     2
  0
VPORT
  5
4A3
330
8
100
AcDbSymbolTableRecord
100
AcDbViewportTableRecord
  2
*Active
 70
     0
 10
0.0
 20
0.0
 11
1.0
 21
1.0
 12
1100.067906559058
 22
748.0515323946619
 13
0.0
 23
0.0
 14
1.0
 24
1.0
 15
0.0
 25
0.0
 16
0.0
 26
0.0
 36
1.0
 17
0.0
 27
0.0
 37
0.0
 40
1443.009125706997
 41
2.069696969696969
 42
50.0
 43
0.0
 44
0.0
 50
0.0
 51
0.0
 71
     0
 72
   100
 73
     1
 74
     1
 75
     0
 76
     0
 77
     0
 78
     0
281
     0
 65
     1
110
0.0
120
0.0
130
0.0
111
1.0
121
0.0
131
0.0
112
0.0
122
1.0
132
0.0
 79
     0
146
0.0
  0
ENDTAB
  0
TABLE
  2
LTYPE
  5
5
330
0
100
AcDbSymbolTable
 70
    35
  0
LTYPE
  5
13
330
5
100
AcDbSymbolTableRecord
100
AcDbLinetypeTableRecord
  2
ByBlock
 70
     0
  3

 72
    65
 73
     0
 40
0.0
  0
LTYPE
  5
14
330
5
100
AcDbSymbolTableRecord
100
AcDbLinetypeTableRecord
  2
ByLayer
 70
     0
  3

 72
    65
 73
     0
 40
0.0
  0
LTYPE
  5
15
330
5
100
AcDbSymbolTableRecord
100
AcDbLinetypeTableRecord
  2
CONTINUOUS
 70
     0
  3
実線
 72
    65
 73
     0
 40
0.0
  0
LTYPE
  5
26
330
5
100
AcDbSymbolTableRecord
100
AcDbLinetypeTableRecord
  2
DASHED1
 70
     0
  3
--  --  --  --  --  --  --  --  
 72
    65
 73
     2
 40
2.5
 49
1.25
 74
     0
 49
-1.25
 74
     0
  0
LTYPE
  5
27
330
5
100
AcDbSymbolTableRecord
100
AcDbLinetypeTableRecord
  2
DASHED2
 70
     0
  3
----    ----    ----    ----    
 72
    65
 73
     2
 40
5.0
 49
2.5
 74
     0
 49
-2.5
 74
     0
  0
LTYPE
  5
28
330
5
100
AcDbSymbolTableRecord
100
AcDbLinetypeTableRecord
  2
DASHED3
 70
     0
  3
------  ------  ------  ------  
 72
    65
 73
     2
 40
5.0
 49
3.75
 74
     0
 49
-1.25
 74
     0
  0
LTYPE
  5
29
330
5
100
AcDbSymbolTableRecord
100
AcDbLinetypeTableRecord
  2
CENTER1
 70
     0
  3
----- - ----- - ----- - ----- - 
 72
    65
 73
     4
 40
10.0
 49
6.25
 74
     0
 49
-1.25
 74
     0
 49
1.25
 74
     0
 49
-1.25
 74
     0
  0
LTYPE
  5
2A
330
5
100
AcDbSymbolTableRecord
100
AcDbLinetypeTableRecord
  2
CENTER2
 70
     0
  3
----------  --  ----------  --  
 72
    65
 73
     4
 40
20.0
 49
12.5
 74
     0
 49
-2.5
 74
     0
 49
2.5
 74
     0
 49
-2.5
 74
     0
  0
LTYPE
  5
2B
330
5
100
AcDbSymbolTableRecord
100
AcDbLinetypeTableRecord
  2
PHANTOM1
 70
     0
  3
--- - - --- - - --- - - --- - - 
 72
    65
 73
     6
 40
10.0
 49
3.25
 74
     0
 49
-1.25
 74
     0
 49
1.25
 74
     0
 49
-1.25
 74
     0
 49
1.25
 74
     0
 49
-1.25
 74
     0
  0
LTYPE
  5
2C
330
5
100
AcDbSymbolTableRecord
100
AcDbLinetypeTableRecord
  2
PHANTOM2
 70
     0
  3
--------  -  -  --------  -  -  
 72
    65
 73
     6
 40
20.0
 49
10.0
 74
     0
 49
-2.5
 74
     0
 49
1.25
 74
     0
 49
-2.5
 74
     0
 49
1.25
 74
     0
 49
-2.5
 74
     0
  0
LTYPE
  5
2D
330
5
100
AcDbSymbolTableRecord
100
AcDbLinetypeTableRecord
  2
DOT
 70
     0
  3
-   -   -   -   -   -   -   -   
 72
    65
 73
     2
 40
2.5
 49
0.625
 74
     0
 49
-1.875
 74
     0
  0
LTYPE
  5
2E
330
5
100
AcDbSymbolTableRecord
100
AcDbLinetypeTableRecord
  2
DUMMY
 70
     0
  3
ダミー
 72
    65
 73
     0
 40
0.0
  0
LTYPE
  5
2F
330
5
100
AcDbSymbolTableRecord
100
AcDbLinetypeTableRecord
  2
RAND1
 70
     0
  3
ランダム線1
 72
    65
 73
     4
 40
10.0
 49
1.0
 74
     0
 49
-2.0
 74
     0
 49
3.0
 74
     0
 49
-4.0
 74
     0
  0
LTYPE
  5
30
330
5
100
AcDbSymbolTableRecord
100
AcDbLinetypeTableRecord
  2
RAND2
 70
     0
  3
ランダム線2
 72
    65
 73
     4
 40
14.0
 49
2.0
 74
     0
 49
-3.0
 74
     0
 49
4.0
 74
     0
 49
-5.0
 74
     0
  0
LTYPE
  5
31
330
5
100
AcDbSymbolTableRecord
100
AcDbLinetypeTableRecord
  2
RAND3
 70
     0
  3
ランダム線3
 72
    65
 73
     4
 40
18.0
 49
3.0
 74
     0
 49
-4.0
 74
     0
 49
5.0
 74
     0
 49
-6.0
 74
     0
  0
LTYPE
  5
32
330
5
100
AcDbSymbolTableRecord
100
AcDbLinetypeTableRecord
  2
RAND4
 70
     0
  3
ランダム線4
 72
    65
 73
     4
 40
22.0
 49
4.0
 74
     0
 49
-5.0
 74
     0
 49
6.0
 74
     0
 49
-7.0
 74
     0
  0
LTYPE
  5
33
330
5
100
AcDbSymbolTableRecord
100
AcDbLinetypeTableRecord
  2
RAND5
 70
     0
  3
ランダム線5
 72
    65
 73
     4
 40
26.0
 49
5.0
 74
     0
 49
-6.0
 74
     0
 49
7.0
 74
     0
 49
-8.0
 74
     0
  0
LTYPE
  5
34
330
5
100
AcDbSymbolTableRecord
100
AcDbLinetypeTableRecord
  2
LONG1
 70
     0
  3
----------  --  ----------  --  
 72
    65
 73
     4
 40
40.0
 49
32.5
 74
     0
 49
-2.5
 74
     0
 49
2.5
 74
     0
 49
-2.5
 74
     0
  0
LTYPE
  5
35
330
5
100
AcDbSymbolTableRecord
100
AcDbLinetypeTableRecord
  2
LONG2
 70
     0
  3
--------  -  -  --------  -  -  
 72
    65
 73
     6
 40
40.0
 49
30.0
 74
     0
 49
-2.5
 74
     0
 49
1.25
 74
     0
 49
-2.5
 74
     0
 49
1.25
 74
     0
 49
-2.5
 74
     0
  0
LTYPE
  5
36
330
5
100
AcDbSymbolTableRecord
100
AcDbLinetypeTableRecord
  2
LONG3
 70
     0
  3
+++++++++++++++..+++++++++++++++
 72
    65
 73
     2
 40
40.0
 49
37.5
 74
     0
 49
-2.5
 74
     0
  0
LTYPE
  5
37
330
5
100
AcDbSymbolTableRecord
100
AcDbLinetypeTableRecord
  2
LONG4
 70
     0
  3
+++++++++++++++..+++++++++++++++
 72
    65
 73
     2
 40
80.0
 49
75.0
 74
     0
 49
-5.0
 74
     0
  0
LTYPE
  5
38
330
5
100
AcDbSymbolTableRecord
100
AcDbLinetypeTableRecord
  2
LONG5
 70
     0
  3
----------  --  ----------  --  
 72
    65
 73
     4
 40
60.0
 49
37.5
 74
     0
 49
-7.5
 74
     0
 49
7.5
 74
     0
 49
-7.5
 74
     0
  0
LTYPE
  5
39
330
5
100
AcDbSymbolTableRecord
100
AcDbLinetypeTableRecord
  2
DASHED
 70
     0
  3
-------   -------------   ------
 72
    65
 73
     2
 40
7.5
 49
6.0
 74
     0
 49
-1.5
 74
     0
  0
LTYPE
  5
3A
330
5
100
AcDbSymbolTableRecord
100
AcDbLinetypeTableRecord
  2
DASHED_SPACED
 70
     0
  3
----        --------        ----
 72
    65
 73
     2
 40
12.0
 49
6.0
 74
     0
 49
-6.0
 74
     0
  0
LTYPE
  5
3B
330
5
100
AcDbSymbolTableRecord
100
AcDbLinetypeTableRecord
  2
LONG_DASHED_DOTTED
 70
     0
  3
------------- --- --------------
 72
    65
 73
     4
 40
15.25
 49
12.0
 74
     0
 49
-1.5
 74
     0
 49
0.25
 74
     0
 49
-1.5
 74
     0
  0
LTYPE
  5
3C
330
5
100
AcDbSymbolTableRecord
100
AcDbLinetypeTableRecord
  2
LONG_DASHED_DOUBLE-DOTTED
 70
     0
  3
----------- --- --- ------------
 72
    65
 73
     6
 40
17.0
 49
12.0
 74
     0
 49
-1.5
 74
     0
 49
0.25
 74
     0
 49
-1.5
 74
     0
 49
0.25
 74
     0
 49
-1.5
 74
     0
  0
LTYPE
  5
3D
330
5
100
AcDbSymbolTableRecord
100
AcDbLinetypeTableRecord
  2
LONG_DASHED_TRIPLICATE-DOTTED
 70
     0
  3
--------- --- --- --- ----------
 72
    65
 73
     8
 40
18.75
 49
12.0
 74
     0
 49
-1.5
 74
     0
 49
0.25
 74
     0
 49
-1.5
 74
     0
 49
0.25
 74
     0
 49
-1.5
 74
     0
 49
0.25
 74
     0
 49
-1.5
 74
     0
  0
LTYPE
  5
3E
330
5
100
AcDbSymbolTableRecord
100
AcDbLinetypeTableRecord
  2
DOTTED
 70
     0
  3
   -       -       -       -    
 72
    65
 73
     2
 40
1.75
 49
0.25
 74
     0
 49
-1.5
 74
     0
  0
LTYPE
  5
3F
330
5
100
AcDbSymbolTableRecord
100
AcDbLinetypeTableRecord
  2
CHAIN
 70
     0
  3
-------------- -- --------------
 72
    65
 73
     4
 40
18.5
 49
12.0
 74
     0
 49
-1.5
 74
     0
 49
3.5
 74
     0
 49
-1.5
 74
     0
  0
LTYPE
  5
40
330
5
100
AcDbSymbolTableRecord
100
AcDbLinetypeTableRecord
  2
CHAIN_DOUBLE_DASH
 70
     0
  3
------------ -- -- -------------
 72
    65
 73
     6
 40
23.5
 49
12.0
 74
     0
 49
-1.5
 74
     0
 49
3.5
 74
     0
 49
-1.5
 74
     0
 49
3.5
 74
     0
 49
-1.5
 74
     0
  0
LTYPE
  5
41
330
5
100
AcDbSymbolTableRecord
100
AcDbLinetypeTableRecord
  2
DASHED_DOTTED
 70
     0
  3
-----------     -     ----------
 72
    65
 73
     4
 40
9.25
 49
6.0
 74
     0
 49
-1.5
 74
     0
 49
0.25
 74
     0
 49
-1.5
 74
     0
  0
LTYPE
  5
42
330
5
100
AcDbSymbolTableRecord
100
AcDbLinetypeTableRecord
  2
DOUBLE-DASHED_DOTTED
 70
     0
  3
------   -----------   -   -----
 72
    65
 73
     6
 40
16.75
 49
6.0
 74
     0
 49
-1.5
 74
     0
 49
6.0
 74
     0
 49
-1.5
 74
     0
 49
0.25
 74
     0
 49
-1.5
 74
     0
  0
LTYPE
  5
43
330
5
100
AcDbSymbolTableRecord
100
AcDbLinetypeTableRecord
  2
DASHED_DOUBLE-DOTTED
 70
     0
  3
---------    -    -    ---------
 72
    65
 73
     6
 40
11.0
 49
6.0
 74
     0
 49
-1.5
 74
     0
 49
0.25
 74
     0
 49
-1.5
 74
     0
 49
0.25
 74
     0
 49
-1.5
 74
     0
  0
LTYPE
  5
44
330
5
100
AcDbSymbolTableRecord
100
AcDbLinetypeTableRecord
  2
DOUBLE-DASHED_DOUBLE-DOTTED
 70
     0
  3
-----   ---------   -   -   ----
 72
    65
 73
     8
 40
18.5
 49
6.0
 74
     0
 49
-1.5
 74
     0
 49
6.0
 74
     0
 49
-1.5
 74
     0
 49
0.25
 74
     0
 49
-1.5
 74
     0
 49
0.25
 74
     0
 49
-1.5
 74
     0
  0
LTYPE
  5
45
330
5
100
AcDbSymbolTableRecord
100
AcDbLinetypeTableRecord
  2
DASHED_TRIPLICATE-DOTTED
 70
     0
  3
-------    -    -    -    ------
 72
    65
 73
     8
 40
12.75
 49
6.0
 74
     0
 49
-1.5
 74
     0
 49
0.25
 74
     0
 49
-1.5
 74
     0
 49
0.25
 74
     0
 49
-1.5
 74
     0
 49
0.25
 74
     0
 49
-1.5
 74
     0
  0
LTYPE
  5
46
330
5
100
AcDbSymbolTableRecord
100
AcDbLinetypeTableRecord
  2
DOUBLE-DASHED_TRIPLICATE-DOTTED
 70
     0
  3
-----  ---------  -  -  -  -----
 72
    65
 73
    10
 40
20.25
 49
6.0
 74
     0
 49
-1.5
 74
     0
 49
6.0
 74
     0
 49
-1.5
 74
     0
 49
0.25
 74
     0
 49
-1.5
 74
     0
 49
0.25
 74
     0
 49
-1.5
 74
     0
 49
0.25
 74
     0
 49
-1.5
 74
     0
  0
LTYPE
  5
47
330
5
100
AcDbSymbolTableRecord
100
AcDbLinetypeTableRecord
  2
UNDEFINED
 70
     0
  3
--------------------------------
 72
    65
 73
     0
 40
0.0
  0
ENDTAB
  0
TABLE
  2
LAYER
  5
2
330
0
100
AcDbSymbolTable
 70
    16
  0
LAYER
  5
10
330
2
100
AcDbSymbolTableRecord
100
AcDbLayerTableRecord
  2
0
 70
     0
 62
     7
  6
CONTINUOUS
370
    -3
390
F
  0
LAYER
  5
49
330
2
100
AcDbSymbolTableRecord
100
AcDbLayerTableRecord
  2
_2-2_IN_LINE
 70
     0
 62
     7
  6
CONTINUOUS
370
    -3
390
F
  0
LAYER
  5
4A
330
2
100
AcDbSymbolTableRecord
100
AcDbLayerTableRecord
  2
_2-3_
 70
     0
 62
     7
  6
CONTINUOUS
370
    -3
390
F
  0
LAYER
  5
4B
330
2
100
AcDbSymbolTableRecord
100
AcDbLayerTableRecord
  2
_2-4_OUT_LINE
 70
     0
 62
     7
  6
CONTINUOUS
370
    -3
390
F
  0
LAYER
  5
4C
330
2
100
AcDbSymbolTableRecord
100
AcDbLayerTableRecord
  2
_2-6_鋼板__アングル
 70
     0
 62
     7
  6
CONTINUOUS
370
    -3
390
F
  0
LAYER
  5
4D
330
2
100
AcDbSymbolTableRecord
100
AcDbLayerTableRecord
  2
_2-7_ビス
 70
     0
 62
     7
  6
CONTINUOUS
370
    -3
390
F
  0
LAYER
  5
4E
330
2
100
AcDbSymbolTableRecord
100
AcDbLayerTableRecord
  2
_2-A_MOJI
 70
     0
 62
     7
  6
CONTINUOUS
370
    -3
390
F
  0
LAYER
  5
4F
330
2
100
AcDbSymbolTableRecord
100
AcDbLayerTableRecord
  2
_2-B_DIM
 70
     0
 62
     7
  6
CONTINUOUS
370
    -3
390
F
  0
LAYER
  5
50
330
2
100
AcDbSymbolTableRecord
100
AcDbLayerTableRecord
  2
_2-D_ハッチ他
 70
     0
 62
     7
  6
CONTINUOUS
370
    -3
390
F
  0
LAYER
  5
51
330
2
100
AcDbSymbolTableRecord
100
AcDbLayerTableRecord
  2
_2-E_CON他
 70
     0
 62
     7
  6
CONTINUOUS
370
    -3
390
F
  0
LAYER
  5
52
330
2
100
AcDbSymbolTableRecord
100
AcDbLayerTableRecord
  2
_F-2_
 70
     0
 62
     7
  6
CONTINUOUS
370
    -3
390
F
  0
LAYER
  5
53
330
2
100
AcDbSymbolTableRecord
100
AcDbLayerTableRecord
  2
_F-5_
 70
     0
 62
     7
  6
CONTINUOUS
370
    -3
390
F
  0
LAYER
  5
54
330
2
100
AcDbSymbolTableRecord
100
AcDbLayerTableRecord
  2
_F-7_
 70
     0
 62
     7
  6
CONTINUOUS
370
    -3
390
F
  0
LAYER
  5
55
330
2
100
AcDbSymbolTableRecord
100
AcDbLayerTableRecord
  2
_F-8_
 70
     0
 62
     7
  6
CONTINUOUS
370
    -3
390
F
  0
LAYER
  5
56
330
2
100
AcDbSymbolTableRecord
100
AcDbLayerTableRecord
  2
_F-A_
 70
     0
 62
     7
  6
CONTINUOUS
370
    -3
390
F
  0
LAYER
  5
57
330
2
100
AcDbSymbolTableRecord
100
AcDbLayerTableRecord
  2
ADD_LINE
 70
     0
 62
     7
  6
CONTINUOUS
370
    -3
390
F
  0
ENDTAB
  0
TABLE
  2
STYLE
  5
3
330
0
100
AcDbSymbolTable
 70
     2
  0
STYLE
  5
11
330
3
100
AcDbSymbolTableRecord
100
AcDbTextStyleTableRecord
  2
STANDARD
 70
     0
 40
0.0
 41
1.0
 50
0.0
 71
     0
 42
0.2
  3
txt
  4
bigfont.shx
  0
STYLE
  5
48
330
3
100
AcDbSymbolTableRecord
100
AcDbTextStyleTableRecord
  2
TATEGAKI
 70
     4
 40
0.0
 41
1.0
 50
0.0
 71
     0
 42
1.0
  3
txt
  4
bigfont.shx
  0
ENDTAB
  0
TABLE
  2
VIEW
  5
6
330
0
100
AcDbSymbolTable
 70
     0
  0
ENDTAB
  0
TABLE
  2
UCS
  5
7
330
0
100
AcDbSymbolTable
 70
     0
  0
ENDTAB
  0
TABLE
  2
APPID
  5
9
330
0
100
AcDbSymbolTable
 70
     1
  0
APPID
  5
12
330
9
100
AcDbSymbolTableRecord
100
AcDbRegAppTableRecord
  2
ACAD
 70
     0
  0
ENDTAB
  0
TABLE
  2
DIMSTYLE
  5
A
330
0
100
AcDbSymbolTable
 70
     1
100
AcDbDimStyleTable
 71
     0
  0
DIMSTYLE
105
49D
330
A
100
AcDbSymbolTableRecord
100
AcDbDimStyleTableRecord
  2
Standard
 70
     0
340
11
  0
ENDTAB
  0
TABLE
  2
BLOCK_RECORD
  5
1
330
0
100
AcDbSymbolTable
 70
     0
  0
BLOCK_RECORD
  5
22
330
1
100
AcDbSymbolTableRecord
100
AcDbBlockTableRecord
  2
*Model_Space
340
25
  0
BLOCK_RECORD
  5
1E
330
1
100
AcDbSymbolTableRecord
100
AcDbBlockTableRecord
  2
*Paper_Space
340
21
  0
ENDTAB
  0
ENDSEC
  0
SECTION
  2
BLOCKS
  0
BLOCK
  5
23
330
22
100
AcDbEntity
  8
0
100
AcDbBlockBegin
  2
*Model_Space
 70
     0
 10
0.0
 20
0.0
 30
0.0
  3
*Model_Space
  1

  0
ENDBLK
  5
24
330
22
100
AcDbEntity
  8
0
100
AcDbBlockEnd
  0
BLOCK
  5
1F
330
1E
100
AcDbEntity
 67
     1
  8
0
100
AcDbBlockBegin
  2
*Paper_Space
 70
     0
 10
0.0
 20
0.0
 30
0.0
  3
*Paper_Space
  1

  0
ENDBLK
  5
20
330
1E
100
AcDbEntity
 67
     1
  8
0
100
AcDbBlockEnd
  0
ENDSEC
  0
SECTION
  2
ENTITIES
  0
LINE
  5
5B
330
22
100
AcDbEntity
  8
ADD_LINE
  6
DOT
 62
   136
100
AcDbLine
 10
600.064421713416
 20
1463.055331710943
 30
0.0
 11
600.064421713416
 21
33.05533171094297
 31
0.0
  0
LINE
  5
5C
330
22
100
AcDbEntity
  8
ADD_LINE
  6
DOT
 62
   136
100
AcDbLine
 10
600.064421713416
 20
1463.055331710943
 30
0.0
 11
1600.064421713416
 21
1463.055331710943
 31
0.0
  0
LINE
  5
5D
330
22
100
AcDbEntity
  8
_F-7_
  6
Continuous
 62
     1
100
AcDbLine
 10
700.064421713416
 20
1363.055331710943
 30
0.0
 11
1500.064421713416
 21
1363.055331710943
 31
0.0
  0
LINE
  5
5E
330
22
100
AcDbEntity
  8
ADD_LINE
  6
DOT
 62
   136
100
AcDbLine
 10
1600.064421713416
 20
1463.055331710943
 30
0.0
 11
1600.064421713416
 21
33.05533171094297
 31
0.0
  0
LINE
  5
5F
330
22
100
AcDbEntity
  8
ADD_LINE
  6
DOT
 62
   136
100
AcDbLine
 10
1600.064421713416
 20
33.05533171094297
 30
0.0
 11
600.0644217134138
 21
33.05533171094297
 31
0.0
  0
LINE
  5
60
330
22
100
AcDbEntity
  8
_F-7_
  6
Continuous
 62
     1
100
AcDbLine
 10
700.064421713416
 20
773.0553317109428
 30
0.0
 11
1500.064421713416
 21
773.0553317109428
 31
0.0
  0
LINE
  5
61
330
22
100
AcDbEntity
  8
_F-7_
  6
Continuous
 62
     1
100
AcDbLine
 10
1500.064421713416
 20
1363.055331710943
 30
0.0
 11
1500.064421713416
 21
773.0553317109428
 31
0.0
  0
LINE
  5
62
330
22
100
AcDbEntity
  8
_F-7_
  6
Continuous
 62
     1
100
AcDbLine
 10
700.064421713416
 20
1363.055331710943
 30
0.0
 11
700.064421713416
 21
773.0553317109428
 31
0.0
  0
LINE
  5
63
330
22
100
AcDbEntity
  8
ADD_LINE
  6
DOT
 62
   136
100
AcDbLine
 10
700.064421713416
 20
793.0553317109428
 30
0.0
 11
1500.064421713416
 21
793.0553317109428
 31
0.0
  0
LINE
  5
64
330
22
100
AcDbEntity
  8
_F-7_
  6
Continuous
 62
     1
100
AcDbLine
 10
700.064421713416
 20
723.0553317109428
 30
0.0
 11
1500.064421713416
 21
723.0553317109428
 31
0.0
  0
LINE
  5
65
330
22
100
AcDbEntity
  8
_F-7_
  6
Continuous
 62
     1
100
AcDbLine
 10
700.064421713416
 20
723.0553317109428
 30
0.0
 11
700.064421713416
 21
133.0553317109429
 31
0.0
  0
LINE
  5
66
330
22
100
AcDbEntity
  8
_F-7_
  6
Continuous
 62
     1
100
AcDbLine
 10
1500.064421713416
 20
723.0553317109428
 30
0.0
 11
1500.064421713416
 21
133.0553317109429
 31
0.0
  0
LINE
  5
67
330
22
100
AcDbEntity
  8
_F-5_
  6
Continuous
 62
     6
100
AcDbLine
 10
700.064421713416
 20
813.0553317109427
 30
0.0
 11
1500.064421713416
 21
813.0553317109427
 31
0.0
  0
LINE
  5
68
330
22
100
AcDbEntity
  8
ADD_LINE
  6
DOT
 62
   136
100
AcDbLine
 10
720.064421713416
 20
813.0553317109427
 30
0.0
 11
720.064421713416
 21
773.0553317109428
 31
0.0
  0
LINE
  5
69
330
22
100
AcDbEntity
  8
_F-2_
  6
Continuous
 62
     7
100
AcDbLine
 10
990.0644217134161
 20
813.0553317109427
 30
0.0
 11
990.0644217134161
 21
773.0553317109428
 31
0.0
  0
LINE
  5
6A
330
22
100
AcDbEntity
  8
ADD_LINE
  6
DOT
 62
   136
100
AcDbLine
 10
1005.064421713416
 20
813.0553317109427
 30
0.0
 11
1005.064421713416
 21
773.0553317109428
 31
0.0
  0
LINE
  5
6B
330
22
100
AcDbEntity
  8
ADD_LINE
  6
DOT
 62
   136
100
AcDbLine
 10
855.0644217134161
 20
813.0553317109427
 30
0.0
 11
855.0644217134161
 21
773.0553317109428
 31
0.0
  0
TEXT
  5
6C
330
22
100
AcDbEntity
  8
_F-A_
 62
     7
100
AcDbText
 10
855.0644217134161
 20
783.0553317109428
 30
0.0
 40
17.5
  1
下地：ＲＣ
100
AcDbText
  0
TEXT
  5
6D
330
22
100
AcDbEntity
  8
_F-A_
 62
     7
100
AcDbText
 10
1005.064421713416
 20
783.0553317109428
 30
0.0
 40
17.5
  1
部位：平場
100
AcDbText
  0
LINE
  5
6E
330
22
100
AcDbEntity
  8
_F-7_
  6
Continuous
 62
     1
100
AcDbLine
 10
700.064421713416
 20
133.0553317109429
 30
0.0
 11
1500.064421713416
 21
133.0553317109429
 31
0.0
  0
LINE
  5
6F
330
22
100
AcDbEntity
  8
ADD_LINE
  6
DOT
 62
   136
100
AcDbLine
 10
700.064421713416
 20
153.0553317109428
 30
0.0
 11
1500.064421713416
 21
153.0553317109428
 31
0.0
  0
LINE
  5
70
330
22
100
AcDbEntity
  8
_F-5_
  6
Continuous
 62
     6
100
AcDbLine
 10
700.064421713416
 20
173.0553317109429
 30
0.0
 11
1500.064421713416
 21
173.0553317109429
 31
0.0
  0
LINE
  5
71
330
22
100
AcDbEntity
  8
ADD_LINE
  6
DOT
 62
   136
100
AcDbLine
 10
720.064421713416
 20
173.0553317109429
 30
0.0
 11
720.064421713416
 21
133.0553317109429
 31
0.0
  0
LINE
  5
72
330
22
100
AcDbEntity
  8
_F-2_
  6
Continuous
 62
     7
100
AcDbLine
 10
990.0644217134161
 20
173.0553317109429
 30
0.0
 11
990.0644217134161
 21
133.0553317109429
 31
0.0
  0
LINE
  5
73
330
22
100
AcDbEntity
  8
ADD_LINE
  6
DOT
 62
   136
100
AcDbLine
 10
1005.064421713416
 20
173.0553317109429
 30
0.0
 11
1005.064421713416
 21
133.0553317109429
 31
0.0
  0
LINE
  5
74
330
22
100
AcDbEntity
  8
ADD_LINE
  6
DOT
 62
   136
100
AcDbLine
 10
855.0644217134161
 20
173.0553317109429
 30
0.0
 11
855.0644217134161
 21
133.0553317109429
 31
0.0
  0
LINE
  5
75
330
22
100
AcDbEntity
  8
_F-5_
  6
Continuous
 62
     6
100
AcDbLine
 10
840.0644217134161
 20
813.0553317109427
 30
0.0
 11
840.0644217134161
 21
773.0553317109428
 31
0.0
  0
LINE
  5
76
330
22
100
AcDbEntity
  8
_F-5_
  6
Continuous
 62
     6
100
AcDbLine
 10
840.0644217134161
 20
173.0553317109429
 30
0.0
 11
840.0644217134161
 21
133.0553317109429
 31
0.0
  0
LINE
  5
77
330
22
100
AcDbEntity
  8
_F-5_
  6
Continuous
 62
     6
100
AcDbLine
 10
837.564421713416
 20
813.0553317109427
 30
0.0
 11
837.564421713416
 21
773.0553317109428
 31
0.0
  0
LINE
  5
78
330
22
100
AcDbEntity
  8
_F-5_
  6
Continuous
 62
     6
100
AcDbLine
 10
837.564421713416
 20
173.0553317109429
 30
0.0
 11
837.564421713416
 21
133.0553317109429
 31
0.0
  0
TEXT
  5
79
330
22
100
AcDbEntity
  8
_F-A_
 62
     7
100
AcDbText
 10
720.064421713416
 20
783.0553317109428
 30
0.0
 40
20.0
  1
１２３仕様
100
AcDbText
  0
TEXT
  5
7A
330
22
100
AcDbEntity
  8
_F-A_
 62
     7
100
AcDbText
 10
720.064421713416
 20
143.0553317109429
 30
0.0
 40
20.0
  1
１２３仕様
100
AcDbText
  0
TEXT
  5
7B
330
22
100
AcDbEntity
  8
_F-A_
 62
     7
100
AcDbText
 10
855.0644217134161
 20
143.0553317109429
 30
0.0
 40
17.5
  1
下地：ＲＣ
100
AcDbText
  0
LINE
  5
7C
330
22
100
AcDbEntity
  8
ADD_LINE
  6
DOT
 62
   136
100
AcDbLine
 10
1385.064421713416
 20
813.0553317109427
 30
0.0
 11
1385.064421713416
 21
773.0553317109428
 31
0.0
  0
LINE
  5
7D
330
22
100
AcDbEntity
  8
_F-2_
  6
Continuous
 62
     7
100
AcDbLine
 10
1370.064421713416
 20
813.0553317109427
 30
0.0
 11
1370.064421713416
 21
773.0553317109428
 31
0.0
  0
LINE
  5
7E
330
22
100
AcDbEntity
  8
ADD_LINE
  6
DOT
 62
   136
100
AcDbLine
 10
1280.064421713416
 20
813.0553317109427
 30
0.0
 11
1280.064421713416
 21
773.0553317109428
 31
0.0
  0
LINE
  5
7F
330
22
100
AcDbEntity
  8
_F-2_
  6
Continuous
 62
     7
100
AcDbLine
 10
1265.064421713416
 20
813.0553317109427
 30
0.0
 11
1265.064421713416
 21
773.0553317109428
 31
0.0
  0
TEXT
  5
80
330
22
100
AcDbEntity
  8
_F-A_
 62
     7
100
AcDbText
 10
1280.064421713416
 20
783.0553317109428
 30
0.0
 40
15.0
  1
Ｓ＝１：５
100
AcDbText
  0
TEXT
  5
81
330
22
100
AcDbEntity
  8
_F-A_
 62
     7
100
AcDbText
 10
1385.064421713416
 20
783.0553317109428
 30
0.0
 40
15.0
  1
図番
100
AcDbText
  0
LINE
  5
82
330
22
100
AcDbEntity
  8
ADD_LINE
  6
DOT
 62
   136
100
AcDbLine
 10
1385.064421713416
 20
173.0553317109429
 30
0.0
 11
1385.064421713416
 21
133.0553317109429
 31
0.0
  0
LINE
  5
83
330
22
100
AcDbEntity
  8
_F-2_
  6
Continuous
 62
     7
100
AcDbLine
 10
1370.064421713416
 20
173.0553317109429
 30
0.0
 11
1370.064421713416
 21
133.0553317109429
 31
0.0
  0
LINE
  5
84
330
22
100
AcDbEntity
  8
ADD_LINE
  6
DOT
 62
   136
100
AcDbLine
 10
1280.064421713416
 20
173.0553317109429
 30
0.0
 11
1280.064421713416
 21
133.0553317109429
 31
0.0
  0
LINE
  5
85
330
22
100
AcDbEntity
  8
_F-2_
  6
Continuous
 62
     7
100
AcDbLine
 10
1265.064421713416
 20
173.0553317109429
 30
0.0
 11
1265.064421713416
 21
133.0553317109429
 31
0.0
  0
TEXT
  5
86
330
22
100
AcDbEntity
  8
_F-A_
 62
     7
100
AcDbText
 10
1280.064421713416
 20
143.0553317109429
 30
0.0
 40
15.0
  1
Ｓ＝１：５
100
AcDbText
  0
TEXT
  5
87
330
22
100
AcDbEntity
  8
_F-A_
 62
     7
100
AcDbText
 10
1385.064421713416
 20
143.0553317109429
 30
0.0
 40
15.0
  1
図番
100
AcDbText
  0
TEXT
  5
88
330
22
100
AcDbEntity
  8
_F-A_
 62
     7
100
AcDbText
 10
1431.482090437523
 20
783.0553317109428
 30
0.0
 40
15.0
  1
２－１
100
AcDbText
  0
TEXT
  5
89
330
22
100
AcDbEntity
  8
_F-A_
 62
     7
100
AcDbText
 10
1431.482090437523
 20
143.0553317109429
 30
0.0
 40
15.0
  1
２－２
100
AcDbText
  0
TEXT
  5
8A
330
22
100
AcDbEntity
  8
_F-A_
 62
     7
100
AcDbText
 10
1005.064421713416
 20
143.0553317109429
 30
0.0
 40
17.5
  1
部位：立上り角
100
AcDbText
  0
LINE
  5
8B
330
22
100
AcDbEntity
  8
_2-E_CON他
  6
Continuous
 62
     4
100
AcDbLine
 10
900.4992181421163
 20
863.0553317109429
 30
0.0
 11
1050.499218142116
 21
1013.055331710942
 31
0.0
  0
LINE
  5
8C
330
22
100
AcDbEntity
  8
_2-E_CON他
  6
Continuous
 62
     4
100
AcDbLine
 10
914.6413537658462
 20
863.0553317109429
 30
0.0
 11
1064.641353765847
 21
1013.055331710942
 31
0.0
  0
LINE
  5
8D
330
22
100
AcDbEntity
  8
_2-E_CON他
  6
Continuous
 62
     4
100
AcDbLine
 10
907.5702859539816
 20
863.0553317109429
 30
0.0
 11
1057.570285953981
 21
1013.055331710942
 31
0.0
  0
LINE
  5
8E
330
22
100
AcDbEntity
  8
_2-E_CON他
  6
Continuous
 62
     4
100
AcDbLine
 10
1107.570285953981
 20
863.0553317109429
 30
0.0
 11
1257.570285953981
 21
1013.055331710942
 31
0.0
  0
LINE
  5
8F
330
22
100
AcDbEntity
  8
_2-E_CON他
  6
Continuous
 62
     4
100
AcDbLine
 10
1114.641353765846
 20
863.0553317109429
 30
0.0
 11
1264.641353765847
 21
1013.055331710942
 31
0.0
  0
LINE
  5
90
330
22
100
AcDbEntity
  8
_2-E_CON他
  6
Continuous
 62
     4
100
AcDbLine
 10
1100.499218142116
 20
863.0553317109429
 30
0.0
 11
1250.499218142116
 21
1013.055331710942
 31
0.0
  0
LINE
  5
91
330
22
100
AcDbEntity
  8
_2-E_CON他
  6
Continuous
 62
     4
100
AcDbLine
 10
1300.499218142116
 20
863.0553317109429
 30
0.0
 11
1425.064421713416
 21
987.6205352822438
 31
0.0
  0
LINE
  5
92
330
22
100
AcDbEntity
  8
_2-E_CON他
  6
Continuous
 62
     4
100
AcDbLine
 10
1307.570285953982
 20
863.0553317109429
 30
0.0
 11
1425.064421713416
 21
980.5494674703771
 31
0.0
  0
LINE
  5
93
330
22
100
AcDbEntity
  8
_2-E_CON他
  6
Continuous
 62
     4
100
AcDbLine
 10
1314.641353765847
 20
863.0553317109429
 30
0.0
 11
1425.064421713416
 21
973.478399658515
 31
0.0
  0
LINE
  5
94
330
22
100
AcDbEntity
  8
_2-E_CON他
  6
Continuous
 62
     4
100
AcDbLine
 10
775.064421713416
 20
937.6205352822438
 30
0.0
 11
850.4992181421163
 21
1013.055331710942
 31
0.0
  0
LINE
  5
95
330
22
100
AcDbEntity
  8
_2-E_CON他
  6
Continuous
 62
     4
100
AcDbLine
 10
775.064421713416
 20
923.478399658515
 30
0.0
 11
864.6413537658473
 21
1013.055331710942
 31
0.0
  0
LINE
  5
96
330
22
100
AcDbEntity
  8
_2-E_CON他
  6
Continuous
 62
     4
100
AcDbLine
 10
775.064421713416
 20
930.5494674703771
 30
0.0
 11
857.5702859539816
 21
1013.055331710942
 31
0.0
  0
LINE
  5
97
330
22
100
AcDbEntity
  8
_2-D_ハッチ他
  6
Continuous
 62
     4
100
AcDbLine
 10
1421.796589837039
 20
1013.055331710942
 30
0.0
 11
1425.064421713417
 21
1016.323163587321
 31
0.0
  0
LINE
  5
98
330
22
100
AcDbEntity
  8
_2-D_ハッチ他
  6
Continuous
 62
     4
100
AcDbLine
 10
1393.512318589581
 20
1013.055331710942
 30
0.0
 11
1423.512318589581
 21
1043.055331710945
 31
0.0
  0
LINE
  5
99
330
22
100
AcDbEntity
  8
_2-D_ハッチ他
  6
Continuous
 62
     4
100
AcDbLine
 10
1365.228047342115
 20
1013.055331710942
 30
0.0
 11
1395.228047342115
 21
1043.055331710945
 31
0.0
  0
LINE
  5
9A
330
22
100
AcDbEntity
  8
_2-D_ハッチ他
  6
Continuous
 62
     4
100
AcDbLine
 10
1336.943776094648
 20
1013.055331710942
 30
0.0
 11
1366.943776094647
 21
1043.055331710943
 31
0.0
  0
LINE
  5
9B
330
22
100
AcDbEntity
  8
_2-D_ハッチ他
  6
Continuous
 62
     4
100
AcDbLine
 10
1308.65950484719
 20
1013.055331710945
 30
0.0
 11
1338.65950484719
 21
1043.055331710945
 31
0.0
  0
LINE
  5
9C
330
22
100
AcDbEntity
  8
_2-D_ハッチ他
  6
Continuous
 62
     4
100
AcDbLine
 10
1280.375233599733
 20
1013.055331710945
 30
0.0
 11
1310.375233599733
 21
1043.055331710945
 31
0.0
  0
LINE
  5
9D
330
22
100
AcDbEntity
  8
_2-D_ハッチ他
  6
Continuous
 62
     4
100
AcDbLine
 10
1252.090962352266
 20
1013.055331710945
 30
0.0
 11
1282.090962352266
 21
1043.055331710945
 31
0.0
  0
LINE
  5
9E
330
22
100
AcDbEntity
  8
_2-D_ハッチ他
  6
Continuous
 62
     4
100
AcDbLine
 10
1195.522419857342
 20
1013.055331710945
 30
0.0
 11
1225.522419857342
 21
1043.055331710945
 31
0.0
  0
LINE
  5
9F
330
22
100
AcDbEntity
  8
_2-D_ハッチ他
  6
Continuous
 62
     4
100
AcDbLine
 10
1167.238148609882
 20
1013.055331710942
 30
0.0
 11
1197.238148609884
 21
1043.055331710945
 31
0.0
  0
LINE
  5
A0
330
22
100
AcDbEntity
  8
_2-D_ハッチ他
  6
Continuous
 62
     4
100
AcDbLine
 10
1138.953877362417
 20
1013.055331710945
 30
0.0
 11
1168.953877362417
 21
1043.055331710945
 31
0.0
  0
LINE
  5
A1
330
22
100
AcDbEntity
  8
_2-D_ハッチ他
  6
Continuous
 62
     4
100
AcDbLine
 10
1110.669606114957
 20
1013.055331710942
 30
0.0
 11
1140.669606114961
 21
1043.055331710945
 31
0.0
  0
LINE
  5
A2
330
22
100
AcDbEntity
  8
_2-D_ハッチ他
  6
Continuous
 62
     4
100
AcDbLine
 10
1082.385334867493
 20
1013.055331710945
 30
0.0
 11
1112.385334867494
 21
1043.055331710945
 31
0.0
  0
LINE
  5
A3
330
22
100
AcDbEntity
  8
_2-D_ハッチ他
  6
Continuous
 62
     4
100
AcDbLine
 10
1054.101063620033
 20
1013.055331710942
 30
0.0
 11
1084.101063620035
 21
1043.055331710943
 31
0.0
  0
LINE
  5
A4
330
22
100
AcDbEntity
  8
_2-D_ハッチ他
  6
Continuous
 62
     4
100
AcDbLine
 10
1025.81679237257
 20
1013.055331710945
 30
0.0
 11
1055.81679237257
 21
1043.055331710945
 31
0.0
  0
LINE
  5
A5
330
22
100
AcDbEntity
  8
_2-D_ハッチ他
  6
Continuous
 62
     4
100
AcDbLine
 10
969.2482498776461
 20
1013.055331710945
 30
0.0
 11
999.2482498776462
 21
1043.055331710945
 31
0.0
  0
LINE
  5
A6
330
22
100
AcDbEntity
  8
_2-D_ハッチ他
  6
Continuous
 62
     4
100
AcDbLine
 10
940.9639786301863
 20
1013.055331710942
 30
0.0
 11
970.9639786301874
 21
1043.055331710943
 31
0.0
  0
LINE
  5
A7
330
22
100
AcDbEntity
  8
_2-D_ハッチ他
  6
Continuous
 62
     4
100
AcDbLine
 10
912.6797073827196
 20
1013.055331710942
 30
0.0
 11
942.6797073827183
 21
1043.055331710943
 31
0.0
  0
LINE
  5
A8
330
22
100
AcDbEntity
  8
_2-D_ハッチ他
  6
Continuous
 62
     4
100
AcDbLine
 10
884.3954361352629
 20
1013.055331710942
 30
0.0
 11
914.3954361352632
 21
1043.055331710943
 31
0.0
  0
LINE
  5
A9
330
22
100
AcDbEntity
  8
_2-D_ハッチ他
  6
Continuous
 62
     4
100
AcDbLine
 10
856.1111648878053
 20
1013.055331710942
 30
0.0
 11
886.1111648878054
 21
1043.055331710943
 31
0.0
  0
LINE
  5
AA
330
22
100
AcDbEntity
  8
_2-D_ハッチ他
  6
Continuous
 62
     4
100
AcDbLine
 10
827.8268936403389
 20
1013.055331710945
 30
0.0
 11
857.8268936403388
 21
1043.055331710943
 31
0.0
  0
LINE
  5
AB
330
22
100
AcDbEntity
  8
_2-D_ハッチ他
  6
Continuous
 62
     4
100
AcDbLine
 10
799.5426223928723
 20
1013.055331710942
 30
0.0
 11
829.5426223928723
 21
1043.055331710943
 31
0.0
  0
LINE
  5
AC
330
22
100
AcDbEntity
  8
_2-D_ハッチ他
  6
Continuous
 62
     4
100
AcDbLine
 10
775.0644217134172
 20
1016.861402278947
 30
0.0
 11
801.2583511454144
 21
1043.055331710945
 31
0.0
  0
LINE
  5
AD
330
22
100
AcDbEntity
  8
_2-D_ハッチ他
  6
Continuous
 62
     4
100
AcDbLine
 10
775.0644217134138
 20
1018.326038739341
 30
0.0
 11
780.3351287418147
 21
1013.05533171094
 31
0.0
  0
LINE
  5
AE
330
22
100
AcDbEntity
  8
_2-D_ハッチ他
  6
Continuous
 62
     4
100
AcDbLine
 10
778.6193999892791
 20
1043.055331710943
 30
0.0
 11
808.6193999892804
 21
1013.055331710942
 31
0.0
  0
LINE
  5
AF
330
22
100
AcDbEntity
  8
_2-D_ハッチ他
  6
Continuous
 62
     4
100
AcDbLine
 10
806.903671236739
 20
1043.055331710941
 30
0.0
 11
836.9036712367378
 21
1013.055331710942
 31
0.0
  0
LINE
  5
B0
330
22
100
AcDbEntity
  8
_2-D_ハッチ他
  6
Continuous
 62
     4
100
AcDbLine
 10
835.1879424842035
 20
1043.055331710943
 30
0.0
 11
865.1879424842022
 21
1013.055331710942
 31
0.0
  0
LINE
  5
B1
330
22
100
AcDbEntity
  8
_2-D_ハッチ他
  6
Continuous
 62
     4
100
AcDbLine
 10
863.4722137316622
 20
1043.055331710943
 30
0.0
 11
893.4722137316633
 21
1013.05533171094
 31
0.0
  0
LINE
  5
B2
330
22
100
AcDbEntity
  8
_2-D_ハッチ他
  6
Continuous
 62
     4
100
AcDbLine
 10
891.7564849791276
 20
1043.055331710943
 30
0.0
 11
921.7564849791299
 21
1013.05533171094
 31
0.0
  0
LINE
  5
B3
330
22
100
AcDbEntity
  8
_2-D_ハッチ他
  6
Continuous
 62
     4
100
AcDbLine
 10
920.0407562265862
 20
1043.055331710943
 30
0.0
 11
950.0407562265863
 21
1013.055331710942
 31
0.0
  0
LINE
  5
B4
330
22
100
AcDbEntity
  8
_2-D_ハッチ他
  6
Continuous
 62
     4
100
AcDbLine
 10
948.3250274740507
 20
1043.055331710943
 30
0.0
 11
978.3250274740531
 21
1013.055331710942
 31
0.0
  0
LINE
  5
B5
330
22
100
AcDbEntity
  8
_2-D_ハッチ他
  6
Continuous
 62
     4
100
AcDbLine
 10
976.6092987215108
 20
1043.055331710943
 30
0.0
 11
1006.60929872151
 21
1013.055331710942
 31
0.0
  0
LINE
  5
B6
330
22
100
AcDbEntity
  8
_2-D_ハッチ他
  6
Continuous
 62
     4
100
AcDbLine
 10
1033.177841216434
 20
1043.055331710943
 30
0.0
 11
1063.177841216434
 21
1013.055331710942
 31
0.0
  0
LINE
  5
B7
330
22
100
AcDbEntity
  8
_2-D_ハッチ他
  6
Continuous
 62
     4
100
AcDbLine
 10
1061.462112463892
 20
1043.055331710943
 30
0.0
 11
1091.462112463892
 21
1013.055331710942
 31
0.0
  0
LINE
  5
B8
330
22
100
AcDbEntity
  8
_2-D_ハッチ他
  6
Continuous
 62
     4
100
AcDbLine
 10
1089.746383711359
 20
1043.055331710943
 30
0.0
 11
1119.746383711359
 21
1013.055331710942
 31
0.0
  0
LINE
  5
B9
330
22
100
AcDbEntity
  8
_2-D_ハッチ他
  6
Continuous
 62
     4
100
AcDbLine
 10
1118.030654958817
 20
1043.055331710943
 30
0.0
 11
1148.030654958817
 21
1013.055331710942
 31
0.0
  0
LINE
  5
BA
330
22
100
AcDbEntity
  8
_2-D_ハッチ他
  6
Continuous
 62
     4
100
AcDbLine
 10
1146.314926206283
 20
1043.055331710943
 30
0.0
 11
1176.314926206283
 21
1013.055331710942
 31
0.0
  0
LINE
  5
BB
330
22
100
AcDbEntity
  8
_2-D_ハッチ他
  6
Continuous
 62
     4
100
AcDbLine
 10
1174.599197453743
 20
1043.055331710941
 30
0.0
 11
1204.599197453743
 21
1013.05533171094
 31
0.0
  0
LINE
  5
BC
330
22
100
AcDbEntity
  8
_2-D_ハッチ他
  6
Continuous
 62
     4
100
AcDbLine
 10
1202.883468701207
 20
1043.055331710943
 30
0.0
 11
1232.883468701207
 21
1013.055331710942
 31
0.0
  0
LINE
  5
BD
330
22
100
AcDbEntity
  8
_2-D_ハッチ他
  6
Continuous
 62
     4
100
AcDbLine
 10
1259.452011196132
 20
1043.055331710943
 30
0.0
 11
1289.452011196131
 21
1013.055331710942
 31
0.0
  0
LINE
  5
BE
330
22
100
AcDbEntity
  8
_2-D_ハッチ他
  6
Continuous
 62
     4
100
AcDbLine
 10
1287.736282443592
 20
1043.055331710941
 30
0.0
 11
1317.73628244359
 21
1013.05533171094
 31
0.0
  0
LINE
  5
BF
330
22
100
AcDbEntity
  8
_2-D_ハッチ他
  6
Continuous
 62
     4
100
AcDbLine
 10
1316.020553691055
 20
1043.055331710943
 30
0.0
 11
1346.020553691055
 21
1013.055331710942
 31
0.0
  0
LINE
  5
C0
330
22
100
AcDbEntity
  8
_2-D_ハッチ他
  6
Continuous
 62
     4
100
AcDbLine
 10
1344.304824938515
 20
1043.055331710941
 30
0.0
 11
1374.304824938516
 21
1013.05533171094
 31
0.0
  0
LINE
  5
C1
330
22
100
AcDbEntity
  8
_2-D_ハッチ他
  6
Continuous
 62
     4
100
AcDbLine
 10
1372.589096185979
 20
1043.055331710943
 30
0.0
 11
1402.589096185978
 21
1013.055331710942
 31
0.0
  0
LINE
  5
C2
330
22
100
AcDbEntity
  8
_2-D_ハッチ他
  6
Continuous
 62
     4
100
AcDbLine
 10
1400.873367433439
 20
1043.055331710941
 30
0.0
 11
1425.064421713415
 21
1018.864277430966
 31
0.0
  0
LINE
  5
C3
330
22
100
AcDbEntity
  8
_2-D_ハッチ他
  6
Continuous
 62
     4
100
AcDbLine
 10
997.5325211251103
 20
1013.055331710942
 30
0.0
 11
1027.53252112511
 21
1043.055331710943
 31
0.0
  0
LINE
  5
C4
330
22
100
AcDbEntity
  8
_2-D_ハッチ他
  6
Continuous
 62
     4
100
AcDbLine
 10
1004.893569968977
 20
1043.055331710943
 30
0.0
 11
1034.893569968977
 21
1013.055331710942
 31
0.0
  0
LINE
  5
C5
330
22
100
AcDbEntity
  8
_2-E_CON他
  6
Continuous
 62
     4
100
AcDbLine
 10
775.064421713416
 20
495.2218578402898
 30
0.0
 11
925.064421713416
 21
645.2218578402899
 31
0.0
  0
LINE
  5
C6
330
22
100
AcDbEntity
  8
_2-E_CON他
  6
Continuous
 62
     4
100
AcDbLine
 10
775.064421713416
 20
488.1507900284232
 30
0.0
 11
925.064421713416
 21
638.1507900284232
 31
0.0
  0
LINE
  5
C7
330
22
100
AcDbEntity
  8
_2-E_CON他
  6
Continuous
 62
     4
100
AcDbLine
 10
775.064421713416
 20
481.0797222165588
 30
0.0
 11
925.064421713416
 21
631.0797222165587
 31
0.0
  0
LINE
  5
C8
330
22
100
AcDbEntity
  8
_2-E_CON他
  6
Continuous
 62
     4
100
AcDbLine
 10
775.064421713416
 20
281.0797222165588
 30
0.0
 11
925.064421713416
 21
431.0797222165588
 31
0.0
  0
LINE
  5
C9
330
22
100
AcDbEntity
  8
_2-E_CON他
  6
Continuous
 62
     4
100
AcDbLine
 10
775.064421713416
 20
295.2218578402898
 30
0.0
 11
925.064421713416
 21
445.2218578402898
 31
0.0
  0
LINE
  5
CA
330
22
100
AcDbEntity
  8
_2-E_CON他
  6
Continuous
 62
     4
100
AcDbLine
 10
775.064421713416
 20
288.1507900284232
 30
0.0
 11
925.064421713416
 21
438.1507900284232
 31
0.0
  0
LINE
  5
CB
330
22
100
AcDbEntity
  8
_2-E_CON他
  6
Continuous
 62
     4
100
AcDbLine
 10
1152.89789558407
 20
273.0553317109429
 30
0.0
 11
1302.89789558407
 21
423.0553317109428
 31
0.0
  0
LINE
  5
CC
330
22
100
AcDbEntity
  8
_2-E_CON他
  6
Continuous
 62
     4
100
AcDbLine
 10
1167.0400312078
 20
273.0553317109429
 30
0.0
 11
1317.0400312078
 21
423.0553317109428
 31
0.0
  0
LINE
  5
CD
330
22
100
AcDbEntity
  8
_2-E_CON他
  6
Continuous
 62
     4
100
AcDbLine
 10
1159.968963395936
 20
273.0553317109429
 30
0.0
 11
1309.968963395936
 21
423.0553317109428
 31
0.0
  0
LINE
  5
CE
330
22
100
AcDbEntity
  8
_2-E_CON他
  6
Continuous
 62
     4
100
AcDbLine
 10
1367.0400312078
 20
273.0553317109429
 30
0.0
 11
1425.064421713416
 21
331.0797222165588
 31
0.0
  0
LINE
  5
CF
330
22
100
AcDbEntity
  8
_2-E_CON他
  6
Continuous
 62
     4
100
AcDbLine
 10
1359.968963395936
 20
273.0553317109429
 30
0.0
 11
1425.064421713416
 21
338.1507900284232
 31
0.0
  0
LINE
  5
D0
330
22
100
AcDbEntity
  8
_2-E_CON他
  6
Continuous
 62
     4
100
AcDbLine
 10
1352.89789558407
 20
273.0553317109429
 30
0.0
 11
1425.064421713416
 21
345.2218578402898
 31
0.0
  0
LINE
  5
D1
330
22
100
AcDbEntity
  8
_2-D_ハッチ他
  6
Continuous
 62
     4
100
AcDbLine
 10
1373.80669110481
 20
423.0553317109452
 30
0.0
 11
1403.806691104808
 21
453.0553317109428
 31
0.0
  0
LINE
  5
D2
330
22
100
AcDbEntity
  8
_2-D_ハッチ他
  6
Continuous
 62
     4
100
AcDbLine
 10
1345.522419857342
 20
423.0553317109428
 30
0.0
 11
1375.522419857342
 21
453.0553317109428
 31
0.0
  0
LINE
  5
D3
330
22
100
AcDbEntity
  8
_2-D_ハッチ他
  6
Continuous
 62
     4
100
AcDbLine
 10
1317.238148609882
 20
423.0553317109405
 30
0.0
 11
1347.238148609884
 21
453.0553317109428
 31
0.0
  0
LINE
  5
D4
330
22
100
AcDbEntity
  8
_2-D_ハッチ他
  6
Continuous
 62
     4
100
AcDbLine
 10
1288.953877362418
 20
423.0553317109428
 30
0.0
 11
1318.953877362418
 21
453.0553317109428
 31
0.0
  0
LINE
  5
D5
330
22
100
AcDbEntity
  8
_2-D_ハッチ他
  6
Continuous
 62
     4
100
AcDbLine
 10
1260.669606114958
 20
423.0553317109405
 30
0.0
 11
1290.669606114962
 21
453.0553317109451
 31
0.0
  0
LINE
  5
D6
330
22
100
AcDbEntity
  8
_2-D_ハッチ他
  6
Continuous
 62
     4
100
AcDbLine
 10
1232.385334867493
 20
423.0553317109428
 30
0.0
 11
1262.385334867494
 21
453.0553317109451
 31
0.0
  0
LINE
  5
D7
330
22
100
AcDbEntity
  8
_2-D_ハッチ他
  6
Continuous
 62
     4
100
AcDbLine
 10
1204.101063620033
 20
423.0553317109405
 30
0.0
 11
1234.101063620035
 21
453.0553317109428
 31
0.0
  0
LINE
  5
D8
330
22
100
AcDbEntity
  8
_2-D_ハッチ他
  6
Continuous
 62
     4
100
AcDbLine
 10
1175.81679237257
 20
423.0553317109452
 30
0.0
 11
1205.81679237257
 21
453.0553317109451
 31
0.0
  0
LINE
  5
D9
330
22
100
AcDbEntity
  8
_2-D_ハッチ他
  6
Continuous
 62
     4
100
AcDbLine
 10
1119.248249877646
 20
423.0553317109452
 30
0.0
 11
1149.248249877646
 21
453.0553317109451
 31
0.0
  0
LINE
  5
DA
330
22
100
AcDbEntity
  8
_2-D_ハッチ他
  6
Continuous
 62
     4
100
AcDbLine
 10
1090.963978630186
 20
423.0553317109428
 30
0.0
 11
1120.963978630187
 21
453.0553317109428
 31
0.0
  0
LINE
  5
DB
330
22
100
AcDbEntity
  8
_2-D_ハッチ他
  6
Continuous
 62
     4
100
AcDbLine
 10
1062.679707382719
 20
423.0553317109428
 30
0.0
 11
1092.679707382718
 21
453.0553317109406
 31
0.0
  0
LINE
  5
DC
330
22
100
AcDbEntity
  8
_2-D_ハッチ他
  6
Continuous
 62
     4
100
AcDbLine
 10
1034.395436135263
 20
423.0553317109428
 30
0.0
 11
1064.395436135263
 21
453.0553317109428
 31
0.0
  0
LINE
  5
DD
330
22
100
AcDbEntity
  8
_2-D_ハッチ他
  6
Continuous
 62
     4
100
AcDbLine
 10
1006.111164887806
 20
423.0553317109428
 30
0.0
 11
1036.111164887805
 21
453.0553317109428
 31
0.0
  0
LINE
  5
DE
330
22
100
AcDbEntity
  8
_2-D_ハッチ他
  6
Continuous
 62
     4
100
AcDbLine
 10
977.8268936403389
 20
423.0553317109428
 30
0.0
 11
1007.826893640339
 21
453.0553317109428
 31
0.0
  0
LINE
  5
DF
330
22
100
AcDbEntity
  8
_2-D_ハッチ他
  6
Continuous
 62
     4
100
AcDbLine
 10
925.0644217134141
 20
428.3260387393415
 30
0.0
 11
930.3351287418147
 21
423.0553317109405
 31
0.0
  0
LINE
  5
E0
330
22
100
AcDbEntity
  8
_2-D_ハッチ他
  6
Continuous
 62
     4
100
AcDbLine
 10
956.9036712367392
 20
453.0553317109406
 30
0.0
 11
986.9036712367378
 21
423.0553317109405
 31
0.0
  0
LINE
  5
E1
330
22
100
AcDbEntity
  8
_2-D_ハッチ他
  6
Continuous
 62
     4
100
AcDbLine
 10
985.1879424842035
 20
453.0553317109428
 30
0.0
 11
1015.187942484202
 21
423.0553317109428
 31
0.0
  0
LINE
  5
E2
330
22
100
AcDbEntity
  8
_2-D_ハッチ他
  6
Continuous
 62
     4
100
AcDbLine
 10
1013.472213731662
 20
453.0553317109406
 30
0.0
 11
1043.472213731663
 21
423.0553317109405
 31
0.0
  0
LINE
  5
E3
330
22
100
AcDbEntity
  8
_2-D_ハッチ他
  6
Continuous
 62
     4
100
AcDbLine
 10
1041.756484979127
 20
453.0553317109428
 30
0.0
 11
1071.75648497913
 21
423.0553317109405
 31
0.0
  0
LINE
  5
E4
330
22
100
AcDbEntity
  8
_2-D_ハッチ他
  6
Continuous
 62
     4
100
AcDbLine
 10
1070.040756226586
 20
453.0553317109406
 30
0.0
 11
1100.040756226586
 21
423.0553317109405
 31
0.0
  0
LINE
  5
E5
330
22
100
AcDbEntity
  8
_2-D_ハッチ他
  6
Continuous
 62
     4
100
AcDbLine
 10
1098.325027474051
 20
453.0553317109428
 30
0.0
 11
1128.325027474053
 21
423.0553317109405
 31
0.0
  0
LINE
  5
E6
330
22
100
AcDbEntity
  8
_2-D_ハッチ他
  6
Continuous
 62
     4
100
AcDbLine
 10
1126.60929872151
 20
453.0553317109406
 30
0.0
 11
1156.60929872151
 21
423.0553317109405
 31
0.0
  0
LINE
  5
E7
330
22
100
AcDbEntity
  8
_2-D_ハッチ他
  6
Continuous
 62
     4
100
AcDbLine
 10
1183.177841216434
 20
453.0553317109406
 30
0.0
 11
1213.177841216435
 21
423.0553317109405
 31
0.0
  0
LINE
  5
E8
330
22
100
AcDbEntity
  8
_2-D_ハッチ他
  6
Continuous
 62
     4
100
AcDbLine
 10
1211.462112463892
 20
453.0553317109406
 30
0.0
 11
1241.462112463892
 21
423.0553317109405
 31
0.0
  0
LINE
  5
E9
330
22
100
AcDbEntity
  8
_2-D_ハッチ他
  6
Continuous
 62
     4
100
AcDbLine
 10
1239.746383711359
 20
453.0553317109406
 30
0.0
 11
1269.746383711359
 21
423.0553317109405
 31
0.0
  0
LINE
  5
EA
330
22
100
AcDbEntity
  8
_2-D_ハッチ他
  6
Continuous
 62
     4
100
AcDbLine
 10
1268.030654958816
 20
453.0553317109406
 30
0.0
 11
1298.030654958817
 21
423.0553317109405
 31
0.0
  0
LINE
  5
EB
330
22
100
AcDbEntity
  8
_2-D_ハッチ他
  6
Continuous
 62
     4
100
AcDbLine
 10
1296.314926206284
 20
453.0553317109406
 30
0.0
 11
1326.314926206284
 21
423.0553317109405
 31
0.0
  0
LINE
  5
EC
330
22
100
AcDbEntity
  8
_2-D_ハッチ他
  6
Continuous
 62
     4
100
AcDbLine
 10
1324.599197453743
 20
453.0553317109383
 30
0.0
 11
1354.599197453743
 21
423.0553317109383
 31
0.0
  0
LINE
  5
ED
330
22
100
AcDbEntity
  8
_2-D_ハッチ他
  6
Continuous
 62
     4
100
AcDbLine
 10
1352.883468701208
 20
453.0553317109406
 30
0.0
 11
1382.883468701208
 21
423.0553317109405
 31
0.0
  0
LINE
  5
EE
330
22
100
AcDbEntity
  8
_2-D_ハッチ他
  6
Continuous
 62
     4
100
AcDbLine
 10
1381.167739948667
 20
453.0553317109383
 30
0.0
 11
1411.167739948666
 21
423.0553317109405
 31
0.0
  0
LINE
  5
EF
330
22
100
AcDbEntity
  8
_2-D_ハッチ他
  6
Continuous
 62
     4
100
AcDbLine
 10
1147.53252112511
 20
423.0553317109428
 30
0.0
 11
1177.53252112511
 21
453.0553317109428
 31
0.0
  0
LINE
  5
F0
330
22
100
AcDbEntity
  8
_2-D_ハッチ他
  6
Continuous
 62
     4
100
AcDbLine
 10
1154.893569968977
 20
453.0553317109406
 30
0.0
 11
1184.893569968977
 21
423.0553317109405
 31
0.0
  0
LINE
  5
F1
330
22
100
AcDbEntity
  8
_2-D_ハッチ他
  6
Continuous
 62
     4
100
AcDbLine
 10
1402.090962352266
 20
423.0553317109428
 30
0.0
 11
1425.064421713416
 21
446.0287910720939
 31
0.0
  0
LINE
  5
F2
330
22
100
AcDbEntity
  8
_2-D_ハッチ他
  6
Continuous
 62
     4
100
AcDbLine
 10
1409.452011196132
 20
453.0553317109406
 30
0.0
 11
1425.064421713416
 21
437.4429211936575
 31
0.0
  0
ARC
  5
F3
330
22
100
AcDbEntity
  8
_2-4_OUT_LINE
  6
Continuous
 62
     2
100
AcDbCircle
 10
933.0644217134157
 20
469.555331710946
 30
0.0
 40
3.0
100
AcDbArc
 50
180.0
 51
270.0
  0
LINE
  5
F4
330
22
100
AcDbEntity
  8
_2-4_OUT_LINE
  6
Continuous
 62
     2
100
AcDbLine
 10
930.0644217134161
 20
469.555331710946
 30
0.0
 11
930.0644217134161
 21
673.0553317109428
 31
0.0
  0
LINE
  5
F5
330
22
100
AcDbEntity
  8
_2-4_OUT_LINE
  6
Continuous
 62
     2
100
AcDbLine
 10
1021.064421713408
 20
458.0553317109428
 30
0.0
 11
1425.064421713416
 21
458.0553317109428
 31
0.0
  0
LINE
  5
F6
330
22
100
AcDbEntity
  8
_2-4_OUT_LINE
  6
Continuous
 62
     2
100
AcDbLine
 10
1021.064421713408
 20
458.0553317109428
 30
0.0
 11
1021.064421713408
 21
463.0553317109428
 31
0.0
  0
LINE
  5
F7
330
22
100
AcDbEntity
  8
_2-B_DIM
  6
Continuous
 62
     7
100
AcDbLine
 10
1021.064421713408
 20
435.9034229323283
 30
0.0
 11
1021.064421713408
 21
395.8730532194085
 31
0.0
  0
POINT
  5
F8
330
22
100
AcDbEntity
  8
_2-B_DIM
 62
     1
100
AcDbPoint
 10
1021.064421713408
 20
395.8730532194085
 30
0.0
  0
LINE
  5
F9
330
22
100
AcDbEntity
  8
_2-B_DIM
  6
Continuous
 62
     7
100
AcDbLine
 10
977.1265995399039
 20
395.8730532194085
 30
0.0
 11
1021.064421713408
 21
395.8730532194085
 31
0.0
  0
POINT
  5
FA
330
22
100
AcDbEntity
  8
_2-B_DIM
 62
     1
100
AcDbPoint
 10
977.1265995399039
 20
395.8730532194085
 30
0.0
  0
LINE
  5
FB
330
22
100
AcDbEntity
  8
_2-B_DIM
  6
Continuous
 62
     7
100
AcDbLine
 10
977.1265995399039
 20
435.9034229323283
 30
0.0
 11
977.1265995399039
 21
395.8730532194085
 31
0.0
  0
TEXT
  5
FC
330
22
100
AcDbEntity
  8
_2-A_MOJI
 62
     7
100
AcDbText
 10
1153.714925050318
 20
538.3442103311808
 30
0.0
 40
15.0
  1
塩ビシート 接着工法
100
AcDbText
  0
TEXT
  5
FD
330
22
100
AcDbEntity
  8
_2-A_MOJI
 62
     7
100
AcDbText
 10
1153.714925050318
 20
563.3442103311808
 30
0.0
 40
15.0
  1
プルーフシーラー
100
AcDbText
  0
LINE
  5
FE
330
22
100
AcDbEntity
  8
_2-A_MOJI
  6
Continuous
 62
     7
100
AcDbLine
 10
1143.714925050318
 20
520.8442103311808
 30
0.0
 11
1107.136112843261
 21
520.8442103311808
 31
0.0
  0
LINE
  5
FF
330
22
100
AcDbEntity
  8
_2-A_MOJI
  6
Continuous
 62
     7
100
AcDbLine
 10
1143.714925050318
 20
545.8442103311808
 30
0.0
 11
1121.569869573001
 21
545.8442103311808
 31
0.0
  0
LINE
  5
100
330
22
100
AcDbEntity
  8
_2-A_MOJI
  6
Continuous
 62
     7
100
AcDbLine
 10
1143.714925050318
 20
570.8442103311808
 30
0.0
 11
1083.031346946242
 21
570.8442103311808
 31
0.0
  0
LINE
  5
101
330
22
100
AcDbEntity
  8
_2-A_MOJI
  6
Continuous
 62
     7
100
AcDbLine
 10
1061.088255459324
 20
441.0869817625161
 30
0.0
 11
1121.569869573001
 21
545.8442103311808
 31
0.0
  0
LINE
  5
102
330
22
100
AcDbEntity
  8
_2-A_MOJI
  6
Continuous
 62
     7
100
AcDbLine
 10
1022.744543717949
 20
466.4244041138722
 30
0.0
 11
1083.031346946242
 21
570.8442103311808
 31
0.0
  0
LINE
  5
103
330
22
100
AcDbEntity
  8
_2-A_MOJI
  6
Continuous
 62
     7
100
AcDbLine
 10
930.0644217134161
 20
543.4658398413689
 30
0.0
 11
974.7388447451644
 21
620.8442103311808
 31
0.0
  0
LINE
  5
104
330
22
100
AcDbEntity
  8
_2-A_MOJI
  6
Continuous
 62
     7
100
AcDbLine
 10
937.9807496697628
 20
461.5553317109442
 30
0.0
 11
1015.512469890329
 21
595.8442103311808
 31
0.0
  0
LINE
  5
105
330
22
100
AcDbEntity
  8
_2-A_MOJI
  6
Continuous
 62
     7
100
AcDbLine
 10
1052.868206977849
 20
620.8442103311808
 30
0.0
 11
974.7388447451644
 21
620.8442103311808
 31
0.0
  0
TEXT
  5
106
330
22
100
AcDbEntity
  8
_2-A_MOJI
 62
     7
100
AcDbText
 10
1062.868206977849
 20
613.3442103311808
 30
0.0
 40
15.0
  1
塩ビシート 接着工法
100
AcDbText
  0
LINE
  5
107
330
22
100
AcDbEntity
  8
_2-A_MOJI
  6
Continuous
 62
     7
100
AcDbLine
 10
1052.868206977849
 20
595.8442103311808
 30
0.0
 11
1015.512469890329
 21
595.8442103311808
 31
0.0
  0
TEXT
  5
108
330
22
100
AcDbEntity
  8
_2-A_MOJI
 62
     7
100
AcDbText
 10
1062.868206977849
 20
588.3442103311808
 30
0.0
 40
15.0
  1
ＢＰ－Ｈ１５
100
AcDbText
  0
LINE
  5
109
330
22
100
AcDbEntity
  8
_2-3_
  6
Continuous
 62
     3
100
AcDbLine
 10
775.064421713416
 20
863.0553317109429
 30
0.0
 11
1425.064421713416
 21
863.0553317109429
 31
0.0
  0
LINE
  5
10A
330
22
100
AcDbEntity
  8
_2-3_
  6
Continuous
 62
     3
100
AcDbLine
 10
1075.064421713416
 20
273.0553317109429
 30
0.0
 11
1425.064421713416
 21
273.0553317109429
 31
0.0
  0
LINE
  5
10B
330
22
100
AcDbEntity
  8
_2-3_
  6
Continuous
 62
     3
100
AcDbLine
 10
1075.064421713416
 20
273.0553317109429
 30
0.0
 11
1075.064421713416
 21
223.0553317109429
 31
0.0
  0
LINE
  5
10C
330
22
100
AcDbEntity
  8
_2-3_
  6
Continuous
 62
     3
100
AcDbLine
 10
775.064421713416
 20
673.0553317109428
 30
0.0
 11
775.064421713416
 21
223.0553317109429
 31
0.0
  0
TEXT
  5
10D
330
22
100
AcDbEntity
  8
_2-A_MOJI
 62
     7
100
AcDbText
 10
1153.714925050318
 20
513.3442103311808
 30
0.0
 40
15.0
  1
ＬＰフォーム
100
AcDbText
  0
LINE
  5
10E
330
22
100
AcDbEntity
  8
_2-E_CON他
  6
Continuous
 62
     4
100
AcDbLine
 10
902.8978955840704
 20
223.0553317109429
 30
0.0
 11
1019.643863077114
 21
339.8012992039862
 31
0.0
  0
LINE
  5
10F
330
22
100
AcDbEntity
  8
_2-E_CON他
  6
Continuous
 62
     4
100
AcDbLine
 10
1044.263759745855
 20
364.4211958727278
 30
0.0
 11
1102.89789558407
 21
423.0553317109428
 31
0.0
  0
LINE
  5
110
330
22
100
AcDbEntity
  8
_2-E_CON他
  6
Continuous
 62
     4
100
AcDbLine
 10
917.0400312077994
 20
223.0553317109429
 30
0.0
 11
1033.785998700843
 21
339.8012992039862
 31
0.0
  0
LINE
  5
111
330
22
100
AcDbEntity
  8
_2-E_CON他
  6
Continuous
 62
     4
100
AcDbLine
 10
1058.405895369584
 20
364.4211958727278
 30
0.0
 11
1117.0400312078
 21
423.0553317109428
 31
0.0
  0
LINE
  5
112
330
22
100
AcDbEntity
  8
_2-E_CON他
  6
Continuous
 62
     4
100
AcDbLine
 10
909.9689633959359
 20
223.0553317109429
 30
0.0
 11
1026.714930888979
 21
339.8012992039862
 31
0.0
  0
LINE
  5
113
330
22
100
AcDbEntity
  8
_2-E_CON他
  6
Continuous
 62
     4
100
AcDbLine
 10
1051.334827557719
 20
364.4211958727256
 30
0.0
 11
1109.968963395935
 21
423.0553317109428
 31
0.0
  0
LINE
  5
114
330
22
100
AcDbEntity
  8
_2-4_OUT_LINE
  6
Continuous
 62
     2
100
AcDbLine
 10
999.4412767662536
 20
1053.055331710943
 30
0.0
 11
999.4412767662536
 21
1048.055331710942
 31
0.0
  0
LINE
  5
115
330
22
100
AcDbEntity
  8
_2-4_OUT_LINE
  6
Continuous
 62
     2
100
AcDbLine
 10
948.1015308040989
 20
1053.055331710943
 30
0.0
 11
999.4412767662536
 21
1053.055331710943
 31
0.0
  0
LINE
  5
116
330
22
100
AcDbEntity
  8
_2-4_OUT_LINE
  6
Continuous
 62
     2
100
AcDbLine
 10
948.1015308040989
 20
1053.055331710943
 30
0.0
 11
939.4412767662537
 21
1048.055331710942
 31
0.0
  0
LINE
  5
117
330
22
100
AcDbEntity
  8
_2-4_OUT_LINE
  6
Continuous
 62
     2
100
AcDbLine
 10
999.4412767662536
 20
1048.055331710942
 30
0.0
 11
1425.064421713416
 21
1048.055331710942
 31
0.0
  0
LINE
  5
118
330
22
100
AcDbEntity
  8
_2-4_OUT_LINE
  6
Continuous
 62
     2
100
AcDbLine
 10
775.064421713416
 20
1048.055331710942
 30
0.0
 11
939.4412767662537
 21
1048.055331710942
 31
0.0
  0
POINT
  5
119
330
22
100
AcDbEntity
  8
_2-B_DIM
 62
     1
100
AcDbPoint
 10
949.4412767662536
 20
980.8730532194108
 30
0.0
  0
LINE
  5
11A
330
22
100
AcDbEntity
  8
_2-B_DIM
  6
Continuous
 62
     7
100
AcDbLine
 10
949.4412767662536
 20
1020.903422932328
 30
0.0
 11
949.4412767662536
 21
980.8730532194108
 31
0.0
  0
LINE
  5
11B
330
22
100
AcDbEntity
  8
_2-B_DIM
  6
Continuous
 62
     7
100
AcDbLine
 10
999.4412767662536
 20
1020.903422932328
 30
0.0
 11
999.4412767662536
 21
980.8730532194108
 31
0.0
  0
POINT
  5
11C
330
22
100
AcDbEntity
  8
_2-B_DIM
 62
     1
100
AcDbPoint
 10
999.4412767662536
 20
980.8730532194108
 30
0.0
  0
LINE
  5
11D
330
22
100
AcDbEntity
  8
_2-B_DIM
  6
Continuous
 62
     7
100
AcDbLine
 10
949.4412767662536
 20
980.8730532194108
 30
0.0
 11
999.4412767662536
 21
980.8730532194108
 31
0.0
  0
TEXT
  5
11E
330
22
100
AcDbEntity
  8
_2-A_MOJI
 62
     7
100
AcDbText
 10
1160.723321886818
 20
1178.344210331183
 30
0.0
 40
15.0
  1
塩ビシート 接着工法
100
AcDbText
  0
TEXT
  5
11F
330
22
100
AcDbEntity
  8
_2-A_MOJI
 62
     7
100
AcDbText
 10
1160.723321886818
 20
1203.344210331183
 30
0.0
 40
15.0
  1
プルーフシーラー
100
AcDbText
  0
LINE
  5
120
330
22
100
AcDbEntity
  8
_2-A_MOJI
  6
Continuous
 62
     7
100
AcDbLine
 10
1150.723321886818
 20
1160.844210331183
 30
0.0
 11
1114.144509679761
 21
1160.844210331183
 31
0.0
  0
LINE
  5
121
330
22
100
AcDbEntity
  8
_2-A_MOJI
  6
Continuous
 62
     7
100
AcDbLine
 10
1150.723321886818
 20
1185.844210331183
 30
0.0
 11
1128.578266409501
 21
1185.844210331183
 31
0.0
  0
LINE
  5
122
330
22
100
AcDbEntity
  8
_2-A_MOJI
  6
Continuous
 62
     7
100
AcDbLine
 10
1039.229138836342
 20
1031.086981762516
 30
0.0
 11
1128.578266409501
 21
1185.844210331183
 31
0.0
  0
LINE
  5
123
330
22
100
AcDbEntity
  8
_2-A_MOJI
  6
Continuous
 62
     7
100
AcDbLine
 10
1000.885427094967
 20
1056.424404113872
 30
0.0
 11
1090.039743782741
 21
1210.844210331183
 31
0.0
  0
LINE
  5
124
330
22
100
AcDbEntity
  8
_2-A_MOJI
  6
Continuous
 62
     7
100
AcDbLine
 10
1150.723321886818
 20
1210.844210331183
 30
0.0
 11
1090.039743782741
 21
1210.844210331183
 31
0.0
  0
TEXT
  5
125
330
22
100
AcDbEntity
  8
_2-A_MOJI
 62
     7
100
AcDbText
 10
1160.723321886818
 20
1153.344210331183
 30
0.0
 40
15.0
  1
ＬＰフォーム
100
AcDbText
  0
LINE
  5
126
330
22
100
AcDbEntity
  8
_2-A_MOJI
  6
Continuous
 62
     7
100
AcDbLine
 10
860.9608883192661
 20
1046.677556879699
 30
0.0
 11
984.6100633409196
 21
1260.844210331183
 31
0.0
  0
TEXT
  5
127
330
22
100
AcDbEntity
  8
_2-A_MOJI
 62
     7
100
AcDbText
 10
1028.342736542229
 20
1253.344210331183
 30
0.0
 40
15.0
  1
塩ビシート 接着工法
100
AcDbText
  0
LINE
  5
128
330
22
100
AcDbEntity
  8
_2-A_MOJI
  6
Continuous
 62
     7
100
AcDbLine
 10
1018.342736542229
 20
1260.844210331183
 30
0.0
 11
984.6100633409196
 21
1260.844210331183
 31
0.0
  0
LINE
  5
129
330
22
100
AcDbEntity
  8
_2-4_OUT_LINE
  6
Continuous
 62
     2
100
AcDbLine
 10
1226.941276766253
 20
1044.055331710944
 30
0.0
 11
1266.941276766253
 21
1044.055331710944
 31
0.0
  0
LINE
  5
12A
330
22
100
AcDbEntity
  8
_2-A_MOJI
  6
Continuous
 62
     7
100
AcDbLine
 10
1307.484124987966
 20
1110.844210331183
 30
0.0
 11
1274.986378141466
 21
1110.844210331183
 31
0.0
  0
LINE
  5
12B
330
22
100
AcDbEntity
  8
_2-A_MOJI
  6
Continuous
 62
     7
100
AcDbLine
 10
1236.425801091198
 20
1044.055331710944
 30
0.0
 11
1274.986378141466
 21
1110.844210331183
 31
0.0
  0
TEXT
  5
12C
330
22
100
AcDbEntity
  8
_2-A_MOJI
 62
     7
100
AcDbText
 10
1317.484124987966
 20
1103.344210331183
 30
0.0
 40
15.0
  1
ジョイントテープ
100
AcDbText
  0
LINE
  5
12D
330
22
100
AcDbEntity
  8
_2-D_ハッチ他
  6
Continuous
 62
     4
100
AcDbLine
 10
1223.806691104809
 20
1013.055331710945
 30
0.0
 11
1245.441276766254
 21
1034.68991737239
 31
0.0
  0
LINE
  5
12E
330
22
100
AcDbEntity
  8
_2-D_ハッチ他
  6
Continuous
 62
     4
100
AcDbLine
 10
1248.441276766254
 20
1037.68991737239
 30
0.0
 11
1253.806691104808
 21
1043.055331710945
 31
0.0
  0
LINE
  5
12F
330
22
100
AcDbEntity
  8
_2-D_ハッチ他
  6
Continuous
 62
     4
100
AcDbLine
 10
1231.167739948668
 20
1043.055331710941
 30
0.0
 11
1245.441276766254
 21
1028.781794893354
 31
0.0
  0
LINE
  5
130
330
22
100
AcDbEntity
  8
_2-D_ハッチ他
  6
Continuous
 62
     4
100
AcDbLine
 10
1248.441276766254
 20
1025.781794893354
 30
0.0
 11
1261.167739948666
 21
1013.05533171094
 31
0.0
  0
LINE
  5
131
330
22
100
AcDbEntity
  8
_2-A_MOJI
  6
Continuous
 62
     7
100
AcDbLine
 10
992.7207466697799
 20
351.6047168415406
 30
0.0
 11
966.0281370285565
 21
351.6047168415406
 31
0.0
  0
LINE
  5
132
330
22
100
AcDbEntity
  8
_2-A_MOJI
  6
Continuous
 62
     7
100
AcDbLine
 10
949.5877363231464
 20
380.0803261601022
 30
0.0
 11
966.0281370285565
 21
351.6047168415406
 31
0.0
  0
LINE
  5
133
330
22
100
AcDbEntity
  8
_2-2_IN_LINE
  6
Continuous
 62
     7
100
AcDbLine
 10
775.064421713416
 20
1013.055331710942
 30
0.0
 11
1425.064421713416
 21
1013.055331710942
 31
0.0
  0
LINE
  5
134
330
22
100
AcDbEntity
  8
_2-2_IN_LINE
  6
Continuous
 62
     7
100
AcDbLine
 10
925.064421713416
 20
673.0553317109428
 30
0.0
 11
925.064421713416
 21
423.0553317109428
 31
0.0
  0
LINE
  5
135
330
22
100
AcDbEntity
  8
_2-2_IN_LINE
  6
Continuous
 62
     7
100
AcDbLine
 10
925.064421713416
 20
423.0553317109428
 30
0.0
 11
1425.064421713416
 21
423.0553317109428
 31
0.0
  0
ARC
  5
136
330
22
100
AcDbEntity
  8
_2-2_IN_LINE
  6
Continuous
 62
     7
100
AcDbCircle
 10
933.0644217134157
 20
469.555331710946
 30
0.0
 40
8.0
100
AcDbArc
 50
180.0
 51
270.0
  0
LINE
  5
137
330
22
100
AcDbEntity
  8
_2-2_IN_LINE
  6
Continuous
 62
     7
100
AcDbLine
 10
926.5752158407972
 20
458.0553317109428
 30
0.0
 11
1021.064421713408
 21
458.0553317109428
 31
0.0
  0
LINE
  5
138
330
22
100
AcDbEntity
  8
_2-2_IN_LINE
  6
Continuous
 62
     7
100
AcDbLine
 10
1015.067289646476
 20
463.0553317109428
 30
0.0
 11
1015.085508433999
 21
463.1862366576247
 31
0.0
  0
LINE
  5
139
330
22
100
AcDbEntity
  8
_2-2_IN_LINE
  6
Continuous
 62
     7
100
AcDbLine
 10
1015.085508433999
 20
463.1862366576247
 30
0.0
 11
1015.11857521366
 21
463.4113105926433
 31
0.0
  0
LINE
  5
13A
330
22
100
AcDbEntity
  8
_2-2_IN_LINE
  6
Continuous
 62
     7
100
AcDbLine
 10
1015.11857521366
 20
463.4113105926433
 30
0.0
 11
1015.156239429526
 21
463.6346505029013
 31
0.0
  0
LINE
  5
13B
330
22
100
AcDbEntity
  8
_2-2_IN_LINE
  6
Continuous
 62
     7
100
AcDbLine
 10
1015.156239429526
 20
463.6346505029013
 30
0.0
 11
1015.20141085135
 21
463.8551589043728
 31
0.0
  0
LINE
  5
13C
330
22
100
AcDbEntity
  8
_2-2_IN_LINE
  6
Continuous
 62
     7
100
AcDbLine
 10
1015.20141085135
 20
463.8551589043728
 30
0.0
 11
1015.25699924888
 21
464.0717383130317
 31
0.0
  0
LINE
  5
13D
330
22
100
AcDbEntity
  8
_2-2_IN_LINE
  6
Continuous
 62
     7
100
AcDbLine
 10
1015.25699924888
 20
464.0717383130317
 30
0.0
 11
1015.325914391869
 21
464.2832912448506
 31
0.0
  0
LINE
  5
13E
330
22
100
AcDbEntity
  8
_2-2_IN_LINE
  6
Continuous
 62
     7
100
AcDbLine
 10
1015.325914391869
 20
464.2832912448506
 30
0.0
 11
1015.373138090162
 21
464.4032563478431
 31
0.0
  0
LINE
  5
13F
330
22
100
AcDbEntity
  8
_2-2_IN_LINE
  6
Continuous
 62
     7
100
AcDbLine
 10
1015.373138090162
 20
464.4032563478431
 30
0.0
 11
1015.414079151426
 21
464.4953731874324
 31
0.0
  0
LINE
  5
140
330
22
100
AcDbEntity
  8
_2-2_IN_LINE
  6
Continuous
 62
     7
100
AcDbLine
 10
1015.414079151426
 20
464.4953731874324
 30
0.0
 11
1015.492494324107
 21
464.6510874904464
 31
0.0
  0
LINE
  5
141
330
22
100
AcDbEntity
  8
_2-2_IN_LINE
  6
Continuous
 62
     7
100
AcDbLine
 10
1015.492494324107
 20
464.6510874904464
 30
0.0
 11
1015.579601338433
 21
464.8030910933262
 31
0.0
  0
LINE
  5
142
330
22
100
AcDbEntity
  8
_2-2_IN_LINE
  6
Continuous
 62
     7
100
AcDbLine
 10
1015.579601338433
 20
464.8030910933262
 30
0.0
 11
1015.673986327582
 21
464.9516436091261
 31
0.0
  0
LINE
  5
143
330
22
100
AcDbEntity
  8
_2-2_IN_LINE
  6
Continuous
 62
     7
100
AcDbLine
 10
1015.673986327582
 20
464.9516436091261
 30
0.0
 11
1015.774235424726
 21
465.0970046508991
 31
0.0
  0
LINE
  5
144
330
22
100
AcDbEntity
  8
_2-2_IN_LINE
  6
Continuous
 62
     7
100
AcDbLine
 10
1015.774235424726
 20
465.0970046508991
 30
0.0
 11
1015.878934763043
 21
465.2394338316952
 31
0.0
  0
LINE
  5
145
330
22
100
AcDbEntity
  8
_2-2_IN_LINE
  6
Continuous
 62
     7
100
AcDbLine
 10
1015.878934763043
 20
465.2394338316952
 30
0.0
 11
1015.941142342721
 21
465.3208016788989
 31
0.0
  0
LINE
  5
146
330
22
100
AcDbEntity
  8
_2-2_IN_LINE
  6
Continuous
 62
     7
100
AcDbLine
 10
1015.941142342721
 20
465.3208016788989
 30
0.0
 11
1016.015358616657
 21
465.4154852717027
 31
0.0
  0
LINE
  5
147
330
22
100
AcDbEntity
  8
_2-2_IN_LINE
  6
Continuous
 62
     7
100
AcDbLine
 10
1016.015358616657
 20
465.4154852717027
 30
0.0
 11
1016.145583556762
 21
465.5762040655639
 31
0.0
  0
LINE
  5
148
330
22
100
AcDbEntity
  8
_2-2_IN_LINE
  6
Continuous
 62
     7
100
AcDbLine
 10
1016.145583556762
 20
465.5762040655639
 30
0.0
 11
1016.278435375982
 21
465.7340708279543
 31
0.0
  0
LINE
  5
149
330
22
100
AcDbEntity
  8
_2-2_IN_LINE
  6
Continuous
 62
     7
100
AcDbLine
 10
1016.278435375982
 20
465.7340708279543
 30
0.0
 11
1016.41363351411
 21
465.8894913214198
 31
0.0
  0
LINE
  5
14A
330
22
100
AcDbEntity
  8
_2-2_IN_LINE
  6
Continuous
 62
     7
100
AcDbLine
 10
1016.41363351411
 20
465.8894913214198
 30
0.0
 11
1016.550897410934
 21
466.0428713085088
 31
0.0
  0
LINE
  5
14B
330
22
100
AcDbEntity
  8
_2-2_IN_LINE
  6
Continuous
 62
     7
100
AcDbLine
 10
1016.550897410934
 20
466.0428713085088
 30
0.0
 11
1016.689946506242
 21
466.1946165517628
 31
0.0
  0
LINE
  5
14C
330
22
100
AcDbEntity
  8
_2-2_IN_LINE
  6
Continuous
 62
     7
100
AcDbLine
 10
1016.689946506242
 20
466.1946165517628
 30
0.0
 11
1016.771302404155
 21
466.2820396447699
 31
0.0
  0
LINE
  5
14D
330
22
100
AcDbEntity
  8
_2-2_IN_LINE
  6
Continuous
 62
     7
100
AcDbLine
 10
1016.771302404155
 20
466.2820396447699
 30
0.0
 11
1016.856937477569
 21
466.3731098191687
 31
0.0
  0
LINE
  5
14E
330
22
100
AcDbEntity
  8
_2-2_IN_LINE
  6
Continuous
 62
     7
100
AcDbLine
 10
1016.856937477569
 20
466.3731098191687
 30
0.0
 11
1017.006134835876
 21
466.5288115680023
 31
0.0
  0
LINE
  5
14F
330
22
100
AcDbEntity
  8
_2-2_IN_LINE
  6
Continuous
 62
     7
100
AcDbLine
 10
1017.006134835876
 20
466.5288115680023
 30
0.0
 11
1017.157885049447
 21
466.6821575464013
 31
0.0
  0
LINE
  5
150
330
22
100
AcDbEntity
  8
_2-2_IN_LINE
  6
Continuous
 62
     7
100
AcDbLine
 10
1017.157885049447
 20
466.6821575464013
 30
0.0
 11
1017.312874128949
 21
466.8323451853207
 31
0.0
  0
LINE
  5
151
330
22
100
AcDbEntity
  8
_2-2_IN_LINE
  6
Continuous
 62
     7
100
AcDbLine
 10
1017.312874128949
 20
466.8323451853207
 30
0.0
 11
1017.471788085056
 21
466.9785719157192
 31
0.0
  0
LINE
  5
152
330
22
100
AcDbEntity
  8
_2-2_IN_LINE
  6
Continuous
 62
     7
100
AcDbLine
 10
1017.471788085056
 20
466.9785719157192
 30
0.0
 11
1017.635312928438
 21
467.1200351685473
 31
0.0
  0
LINE
  5
153
330
22
100
AcDbEntity
  8
_2-2_IN_LINE
  6
Continuous
 62
     7
100
AcDbLine
 10
1017.635312928438
 20
467.1200351685473
 30
0.0
 11
1017.732540370025
 21
467.1995849758281
 31
0.0
  0
LINE
  5
154
330
22
100
AcDbEntity
  8
_2-2_IN_LINE
  6
Continuous
 62
     7
100
AcDbLine
 10
1017.732540370025
 20
467.1995849758281
 30
0.0
 11
1017.820194069567
 21
467.2683103283242
 31
0.0
  0
LINE
  5
155
330
22
100
AcDbEntity
  8
_2-2_IN_LINE
  6
Continuous
 62
     7
100
AcDbLine
 10
1017.820194069567
 20
467.2683103283242
 30
0.0
 11
1017.974807169487
 21
467.3825230961228
 31
0.0
  0
LINE
  5
156
330
22
100
AcDbEntity
  8
_2-2_IN_LINE
  6
Continuous
 62
     7
100
AcDbLine
 10
1017.974807169487
 20
467.3825230961228
 30
0.0
 11
1018.133772312677
 21
467.4904957850544
 31
0.0
  0
LINE
  5
157
330
22
100
AcDbEntity
  8
_2-2_IN_LINE
  6
Continuous
 62
     7
100
AcDbLine
 10
1018.133772312677
 20
467.4904957850544
 30
0.0
 11
1018.297018969904
 21
467.5912710164807
 31
0.0
  0
LINE
  5
158
330
22
100
AcDbEntity
  8
_2-2_IN_LINE
  6
Continuous
 62
     7
100
AcDbLine
 10
1018.297018969904
 20
467.5912710164807
 30
0.0
 11
1018.464476611934
 21
467.6838914117679
 31
0.0
  0
LINE
  5
159
330
22
100
AcDbEntity
  8
_2-2_IN_LINE
  6
Continuous
 62
     7
100
AcDbLine
 10
1018.464476611934
 20
467.6838914117679
 30
0.0
 11
1018.636074709538
 21
467.7673995922777
 31
0.0
  0
LINE
  5
15A
330
22
100
AcDbEntity
  8
_2-2_IN_LINE
  6
Continuous
 62
     7
100
AcDbLine
 10
1018.636074709538
 20
467.7673995922777
 30
0.0
 11
1018.737470970707
 21
467.8112818632
 31
0.0
  0
LINE
  5
15B
330
22
100
AcDbEntity
  8
_2-2_IN_LINE
  6
Continuous
 62
     7
100
AcDbLine
 10
1018.737470970707
 20
467.8112818632
 30
0.0
 11
1018.851376463446
 21
467.8558105764631
 31
0.0
  0
LINE
  5
15C
330
22
100
AcDbEntity
  8
_2-2_IN_LINE
  6
Continuous
 62
     7
100
AcDbLine
 10
1018.851376463446
 20
467.8558105764631
 30
0.0
 11
1019.051264921301
 21
467.9231212048756
 31
0.0
  0
LINE
  5
15D
330
22
100
AcDbEntity
  8
_2-2_IN_LINE
  6
Continuous
 62
     7
100
AcDbLine
 10
1019.051264921301
 20
467.9231212048756
 30
0.0
 11
1019.254967020159
 21
467.9797247563756
 31
0.0
  0
LINE
  5
15E
330
22
100
AcDbEntity
  8
_2-2_IN_LINE
  6
Continuous
 62
     7
100
AcDbLine
 10
1019.254967020159
 20
467.9797247563756
 30
0.0
 11
1019.461766096967
 21
468.027099630105
 31
0.0
  0
LINE
  5
15F
330
22
100
AcDbEntity
  8
_2-2_IN_LINE
  6
Continuous
 62
     7
100
AcDbLine
 10
1019.461766096967
 20
468.027099630105
 30
0.0
 11
1019.670945488676
 21
468.0667242252156
 31
0.0
  0
LINE
  5
160
330
22
100
AcDbEntity
  8
_2-2_IN_LINE
  6
Continuous
 62
     7
100
AcDbLine
 10
1019.670945488676
 20
468.0667242252156
 30
0.0
 11
1019.881788532233
 21
468.1000769408496
 31
0.0
  0
LINE
  5
161
330
22
100
AcDbEntity
  8
_2-2_IN_LINE
  6
Continuous
 62
     7
100
AcDbLine
 10
1019.881788532233
 20
468.1000769408496
 30
0.0
 11
1020.004557380262
 21
468.117130306884
 31
0.0
  0
LINE
  5
162
330
22
100
AcDbEntity
  8
_2-2_IN_LINE
  6
Continuous
 62
     7
100
AcDbLine
 10
1020.004557380262
 20
468.117130306884
 30
0.0
 11
1020.153014350345
 21
468.1358473061521
 31
0.0
  0
LINE
  5
163
330
22
100
AcDbEntity
  8
_2-2_IN_LINE
  6
Continuous
 62
     7
100
AcDbLine
 10
1020.153014350345
 20
468.1358473061521
 30
0.0
 11
1020.409334615631
 21
468.1627540672407
 31
0.0
  0
LINE
  5
164
330
22
100
AcDbEntity
  8
_2-2_IN_LINE
  6
Continuous
 62
     7
100
AcDbLine
 10
1020.409334615631
 20
468.1627540672407
 30
0.0
 11
1020.665729944212
 21
468.1816123145398
 31
0.0
  0
LINE
  5
165
330
22
100
AcDbEntity
  8
_2-2_IN_LINE
  6
Continuous
 62
     7
100
AcDbLine
 10
1020.665729944212
 20
468.1816123145398
 30
0.0
 11
1020.921757780843
 21
468.1909584057274
 31
0.0
  0
LINE
  5
166
330
22
100
AcDbEntity
  8
_2-2_IN_LINE
  6
Continuous
 62
     7
100
AcDbLine
 10
1020.921757780843
 20
468.1909584057274
 30
0.0
 11
1021.176975570276
 21
468.1893286984808
 31
0.0
  0
LINE
  5
167
330
22
100
AcDbEntity
  8
_2-2_IN_LINE
  6
Continuous
 62
     7
100
AcDbLine
 10
1021.176975570276
 20
468.1893286984808
 30
0.0
 11
1021.430940757268
 21
468.1752595504776
 31
0.0
  0
LINE
  5
168
330
22
100
AcDbEntity
  8
_2-2_IN_LINE
  6
Continuous
 62
     7
100
AcDbLine
 10
1021.430940757268
 20
468.1752595504776
 30
0.0
 11
1021.577492233503
 21
468.1608229416969
 31
0.0
  0
LINE
  5
169
330
22
100
AcDbEntity
  8
_2-2_IN_LINE
  6
Continuous
 62
     7
100
AcDbLine
 10
1021.577492233503
 20
468.1608229416969
 30
0.0
 11
1021.684836425071
 21
468.1471331556116
 31
0.0
  0
LINE
  5
16A
330
22
100
AcDbEntity
  8
_2-2_IN_LINE
  6
Continuous
 62
     7
100
AcDbLine
 10
1021.684836425071
 20
468.1471331556116
 30
0.0
 11
1021.86928648584
 21
468.1181735243711
 31
0.0
  0
LINE
  5
16B
330
22
100
AcDbEntity
  8
_2-2_IN_LINE
  6
Continuous
 62
     7
100
AcDbLine
 10
1021.86928648584
 20
468.1181735243711
 30
0.0
 11
1022.053257343281
 21
468.0838580428321
 31
0.0
  0
LINE
  5
16C
330
22
100
AcDbEntity
  8
_2-2_IN_LINE
  6
Continuous
 62
     7
100
AcDbLine
 10
1022.053257343281
 20
468.0838580428321
 30
0.0
 11
1022.237113379139
 21
468.0458432168046
 31
0.0
  0
LINE
  5
16D
330
22
100
AcDbEntity
  8
_2-2_IN_LINE
  6
Continuous
 62
     7
100
AcDbLine
 10
1022.237113379139
 20
468.0458432168046
 30
0.0
 11
1022.421218975159
 21
468.0057855520994
 31
0.0
  0
LINE
  5
16E
330
22
100
AcDbEntity
  8
_2-2_IN_LINE
  6
Continuous
 62
     7
100
AcDbLine
 10
1022.421218975159
 20
468.0057855520994
 30
0.0
 11
1022.605938513087
 21
467.965341554522
 31
0.0
  0
LINE
  5
16F
330
22
100
AcDbEntity
  8
_2-2_IN_LINE
  6
Continuous
 62
     7
100
AcDbLine
 10
1022.605938513087
 20
467.965341554522
 30
0.0
 11
1022.713500738623
 21
467.9423597676367
 31
0.0
  0
LINE
  5
170
330
22
100
AcDbEntity
  8
_2-2_IN_LINE
  6
Continuous
 62
     7
100
AcDbLine
 10
1022.713500738623
 20
467.9423597676367
 30
0.0
 11
1022.835611969951
 21
467.9170860461381
 31
0.0
  0
LINE
  5
171
330
22
100
AcDbEntity
  8
_2-2_IN_LINE
  6
Continuous
 62
     7
100
AcDbLine
 10
1022.835611969951
 20
467.9170860461381
 30
0.0
 11
1023.046409993514
 21
467.873736529902
 31
0.0
  0
LINE
  5
172
330
22
100
AcDbEntity
  8
_2-2_IN_LINE
  6
Continuous
 62
     7
100
AcDbLine
 10
1023.046409993514
 20
467.873736529902
 30
0.0
 11
1023.256115217352
 21
467.8276033717537
 31
0.0
  0
LINE
  5
173
330
22
100
AcDbEntity
  8
_2-2_IN_LINE
  6
Continuous
 62
     7
100
AcDbLine
 10
1023.256115217352
 20
467.8276033717537
 30
0.0
 11
1023.46307216662
 21
467.7751173300516
 31
0.0
  0
LINE
  5
174
330
22
100
AcDbEntity
  8
_2-2_IN_LINE
  6
Continuous
 62
     7
100
AcDbLine
 10
1023.46307216662
 20
467.7751173300516
 30
0.0
 11
1023.665625366475
 21
467.7127091631513
 31
0.0
  0
LINE
  5
175
330
22
100
AcDbEntity
  8
_2-2_IN_LINE
  6
Continuous
 62
     7
100
AcDbLine
 10
1023.665625366475
 20
467.7127091631513
 30
0.0
 11
1023.862119342075
 21
467.636809629418
 31
0.0
  0
LINE
  5
176
330
22
100
AcDbEntity
  8
_2-2_IN_LINE
  6
Continuous
 62
     7
100
AcDbLine
 10
1023.862119342075
 20
467.636809629418
 30
0.0
 11
1023.972657168195
 21
467.5851996887621
 31
0.0
  0
LINE
  5
177
330
22
100
AcDbEntity
  8
_2-2_IN_LINE
  6
Continuous
 62
     7
100
AcDbLine
 10
1023.972657168195
 20
467.5851996887621
 30
0.0
 11
1024.071979399374
 21
467.5321142168371
 31
0.0
  0
LINE
  5
178
330
22
100
AcDbEntity
  8
_2-2_IN_LINE
  6
Continuous
 62
     7
100
AcDbLine
 10
1024.071979399374
 20
467.5321142168371
 30
0.0
 11
1024.237403314565
 21
467.4288279357388
 31
0.0
  0
LINE
  5
179
330
22
100
AcDbEntity
  8
_2-2_IN_LINE
  6
Continuous
 62
     7
100
AcDbLine
 10
1024.237403314565
 20
467.4288279357388
 30
0.0
 11
1024.395454885924
 21
467.3122783040065
 31
0.0
  0
LINE
  5
17A
330
22
100
AcDbEntity
  8
_2-2_IN_LINE
  6
Continuous
 62
     7
100
AcDbLine
 10
1024.395454885924
 20
467.3122783040065
 30
0.0
 11
1024.546129932341
 21
467.1843516306917
 31
0.0
  0
LINE
  5
17B
330
22
100
AcDbEntity
  8
_2-2_IN_LINE
  6
Continuous
 62
     7
100
AcDbLine
 10
1024.546129932341
 20
467.1843516306917
 30
0.0
 11
1024.689424272706
 21
467.0469342248447
 31
0.0
  0
LINE
  5
17C
330
22
100
AcDbEntity
  8
_2-2_IN_LINE
  6
Continuous
 62
     7
100
AcDbLine
 10
1024.689424272706
 20
467.0469342248447
 30
0.0
 11
1024.825333725911
 21
466.9019123955167
 31
0.0
  0
LINE
  5
17D
330
22
100
AcDbEntity
  8
_2-2_IN_LINE
  6
Continuous
 62
     7
100
AcDbLine
 10
1024.825333725911
 20
466.9019123955167
 30
0.0
 11
1024.900775805897
 21
466.8150586915176
 31
0.0
  0
LINE
  5
17E
330
22
100
AcDbEntity
  8
_2-2_IN_LINE
  6
Continuous
 62
     7
100
AcDbLine
 10
1024.900775805897
 20
466.8150586915176
 30
0.0
 11
1024.985070830268
 21
466.712491303528
 31
0.0
  0
LINE
  5
17F
330
22
100
AcDbEntity
  8
_2-2_IN_LINE
  6
Continuous
 62
     7
100
AcDbLine
 10
1024.985070830268
 20
466.712491303528
 30
0.0
 11
1025.123242689537
 21
466.5312062937909
 31
0.0
  0
LINE
  5
180
330
22
100
AcDbEntity
  8
_2-2_IN_LINE
  6
Continuous
 62
     7
100
AcDbLine
 10
1025.123242689537
 20
466.5312062937909
 30
0.0
 11
1025.253352956556
 21
466.3449816191719
 31
0.0
  0
LINE
  5
181
330
22
100
AcDbEntity
  8
_2-2_IN_LINE
  6
Continuous
 62
     7
100
AcDbLine
 10
1025.253352956556
 20
466.3449816191719
 30
0.0
 11
1025.376572858542
 21
466.1546155580817
 31
0.0
  0
LINE
  5
182
330
22
100
AcDbEntity
  8
_2-2_IN_LINE
  6
Continuous
 62
     7
100
AcDbLine
 10
1025.376572858542
 20
466.1546155580817
 30
0.0
 11
1025.494073622712
 21
465.9609063889383
 31
0.0
  0
LINE
  5
183
330
22
100
AcDbEntity
  8
_2-2_IN_LINE
  6
Continuous
 62
     7
100
AcDbLine
 10
1025.494073622712
 20
465.9609063889383
 30
0.0
 11
1025.607026476281
 21
465.7646523901548
 31
0.0
  0
LINE
  5
184
330
22
100
AcDbEntity
  8
_2-2_IN_LINE
  6
Continuous
 62
     7
100
AcDbLine
 10
1025.607026476281
 20
465.7646523901548
 30
0.0
 11
1025.67091680314
 21
465.649973593126
 31
0.0
  0
LINE
  5
185
330
22
100
AcDbEntity
  8
_2-2_IN_LINE
  6
Continuous
 62
     7
100
AcDbLine
 10
1025.67091680314
 20
465.649973593126
 30
0.0
 11
1025.738184170646
 21
465.5269070009894
 31
0.0
  0
LINE
  5
186
330
22
100
AcDbEntity
  8
_2-2_IN_LINE
  6
Continuous
 62
     7
100
AcDbLine
 10
1025.738184170646
 20
465.5269070009894
 30
0.0
 11
1025.852165411854
 21
465.3137002446209
 31
0.0
  0
LINE
  5
187
330
22
100
AcDbEntity
  8
_2-2_IN_LINE
  6
Continuous
 62
     7
100
AcDbLine
 10
1025.852165411854
 20
465.3137002446209
 30
0.0
 11
1025.964279960219
 21
465.0994032450848
 31
0.0
  0
LINE
  5
188
330
22
100
AcDbEntity
  8
_2-2_IN_LINE
  6
Continuous
 62
     7
100
AcDbLine
 10
1025.964279960219
 20
465.0994032450848
 30
0.0
 11
1026.075296569466
 21
464.8842539840115
 31
0.0
  0
LINE
  5
189
330
22
100
AcDbEntity
  8
_2-2_IN_LINE
  6
Continuous
 62
     7
100
AcDbLine
 10
1026.075296569466
 20
464.8842539840115
 30
0.0
 11
1026.185983993324
 21
464.6684904430293
 31
0.0
  0
LINE
  5
18A
330
22
100
AcDbEntity
  8
_2-2_IN_LINE
  6
Continuous
 62
     7
100
AcDbLine
 10
1026.185983993324
 20
464.6684904430293
 30
0.0
 11
1026.297110985521
 21
464.4523506037734
 31
0.0
  0
LINE
  5
18B
330
22
100
AcDbEntity
  8
_2-2_IN_LINE
  6
Continuous
 62
     7
100
AcDbLine
 10
1026.297110985521
 20
464.4523506037734
 30
0.0
 11
1026.362068980152
 21
464.326910854274
 31
0.0
  0
LINE
  5
18C
330
22
100
AcDbEntity
  8
_2-2_IN_LINE
  6
Continuous
 62
     7
100
AcDbLine
 10
1026.362068980152
 20
464.326910854274
 30
0.0
 11
1026.450482434328
 21
464.1580826712669
 31
0.0
  0
LINE
  5
18D
330
22
100
AcDbEntity
  8
_2-2_IN_LINE
  6
Continuous
 62
     7
100
AcDbLine
 10
1026.450482434328
 20
464.1580826712669
 30
0.0
 11
1026.606987250259
 21
463.8686869053794
 31
0.0
  0
LINE
  5
18E
330
22
100
AcDbEntity
  8
_2-2_IN_LINE
  6
Continuous
 62
     7
100
AcDbLine
 10
1026.606987250259
 20
463.8686869053794
 30
0.0
 11
1026.771208843485
 21
463.5839787291291
 31
0.0
  0
LINE
  5
18F
330
22
100
AcDbEntity
  8
_2-2_IN_LINE
  6
Continuous
 62
     7
100
AcDbLine
 10
1026.771208843485
 20
463.5839787291291
 30
0.0
 11
1026.946132830871
 21
463.3069253011099
 31
0.0
  0
LINE
  5
190
330
22
100
AcDbEntity
  8
_2-2_IN_LINE
  6
Continuous
 62
     7
100
AcDbLine
 10
1026.946132830871
 20
463.3069253011099
 30
0.0
 11
1027.134744829271
 21
463.0404937799239
 31
0.0
  0
LINE
  5
191
330
22
100
AcDbEntity
  8
_2-2_IN_LINE
  6
Continuous
 62
     7
100
AcDbLine
 10
1027.134744829271
 20
463.0404937799239
 30
0.0
 11
1027.340030455546
 21
462.7876513241671
 31
0.0
  0
LINE
  5
192
330
22
100
AcDbEntity
  8
_2-2_IN_LINE
  6
Continuous
 62
     7
100
AcDbLine
 10
1027.340030455546
 20
462.7876513241671
 30
0.0
 11
1027.467912463373
 21
462.6483984243868
 31
0.0
  0
LINE
  5
193
330
22
100
AcDbEntity
  8
_2-2_IN_LINE
  6
Continuous
 62
     7
100
AcDbLine
 10
1027.467912463373
 20
462.6483984243868
 30
0.0
 11
1027.514127635678
 21
462.6012934184764
 31
0.0
  0
LINE
  5
194
330
22
100
AcDbEntity
  8
_2-2_IN_LINE
  6
Continuous
 62
     7
100
AcDbLine
 10
1027.514127635678
 20
462.6012934184764
 30
0.0
 11
1027.595826897218
 21
462.5219483234395
 31
0.0
  0
LINE
  5
195
330
22
100
AcDbEntity
  8
_2-2_IN_LINE
  6
Continuous
 62
     7
100
AcDbLine
 10
1027.595826897218
 20
462.5219483234395
 30
0.0
 11
1027.680029289548
 21
462.4451482139984
 31
0.0
  0
LINE
  5
196
330
22
100
AcDbEntity
  8
_2-2_IN_LINE
  6
Continuous
 62
     7
100
AcDbLine
 10
1027.680029289548
 20
462.4451482139984
 30
0.0
 11
1027.766675265044
 21
462.3710993106732
 31
0.0
  0
LINE
  5
197
330
22
100
AcDbEntity
  8
_2-2_IN_LINE
  6
Continuous
 62
     7
100
AcDbLine
 10
1027.766675265044
 20
462.3710993106732
 30
0.0
 11
1027.855705276079
 21
462.3000078339822
 31
0.0
  0
LINE
  5
198
330
22
100
AcDbEntity
  8
_2-2_IN_LINE
  6
Continuous
 62
     7
100
AcDbLine
 10
1027.855705276079
 20
462.3000078339822
 30
0.0
 11
1027.947059775031
 21
462.2320800044525
 31
0.0
  0
LINE
  5
199
330
22
100
AcDbEntity
  8
_2-2_IN_LINE
  6
Continuous
 62
     7
100
AcDbLine
 10
1027.947059775031
 20
462.2320800044525
 30
0.0
 11
1028.001086999926
 21
462.1942127080632
 31
0.0
  0
LINE
  5
19A
330
22
100
AcDbEntity
  8
_2-2_IN_LINE
  6
Continuous
 62
     7
100
AcDbLine
 10
1028.001086999926
 20
462.1942127080632
 30
0.0
 11
1028.090688411014
 21
462.1349200176855
 31
0.0
  0
LINE
  5
19B
330
22
100
AcDbEntity
  8
_2-2_IN_LINE
  6
Continuous
 62
     7
100
AcDbLine
 10
1028.090688411014
 20
462.1349200176855
 30
0.0
 11
1028.248879855184
 21
462.0385067534898
 31
0.0
  0
LINE
  5
19C
330
22
100
AcDbEntity
  8
_2-2_IN_LINE
  6
Continuous
 62
     7
100
AcDbLine
 10
1028.248879855184
 20
462.0385067534898
 30
0.0
 11
1028.410291142216
 21
461.9471783444186
 31
0.0
  0
LINE
  5
19D
330
22
100
AcDbEntity
  8
_2-2_IN_LINE
  6
Continuous
 62
     7
100
AcDbLine
 10
1028.410291142216
 20
461.9471783444186
 30
0.0
 11
1028.573211090509
 21
461.8582876359681
 31
0.0
  0
LINE
  5
19E
330
22
100
AcDbEntity
  8
_2-2_IN_LINE
  6
Continuous
 62
     7
100
AcDbLine
 10
1028.573211090509
 20
461.8582876359681
 30
0.0
 11
1028.735928518463
 21
461.7691874736324
 31
0.0
  0
LINE
  5
19F
330
22
100
AcDbEntity
  8
_2-2_IN_LINE
  6
Continuous
 62
     7
100
AcDbLine
 10
1028.735928518463
 20
461.7691874736324
 30
0.0
 11
1028.896732244475
 21
461.6772307029072
 31
0.0
  0
LINE
  5
1A0
330
22
100
AcDbEntity
  8
_2-2_IN_LINE
  6
Continuous
 62
     7
100
AcDbLine
 10
1028.896732244475
 20
461.6772307029072
 30
0.0
 11
1028.988447252801
 21
461.6215437613954
 31
0.0
  0
LINE
  5
1A1
330
22
100
AcDbEntity
  8
_2-2_IN_LINE
  6
Continuous
 62
     7
100
AcDbLine
 10
1028.988447252801
 20
461.6215437613954
 30
0.0
 11
1029.080858245199
 21
461.562178991523
 31
0.0
  0
LINE
  5
1A2
330
22
100
AcDbEntity
  8
_2-2_IN_LINE
  6
Continuous
 62
     7
100
AcDbLine
 10
1029.080858245199
 20
461.562178991523
 30
0.0
 11
1029.236801247353
 21
461.4546772297552
 31
0.0
  0
LINE
  5
1A3
330
22
100
AcDbEntity
  8
_2-2_IN_LINE
  6
Continuous
 62
     7
100
AcDbLine
 10
1029.236801247353
 20
461.4546772297552
 30
0.0
 11
1029.389123789575
 21
461.3416940397878
 31
0.0
  0
LINE
  5
1A4
330
22
100
AcDbEntity
  8
_2-2_IN_LINE
  6
Continuous
 62
     7
100
AcDbLine
 10
1029.389123789575
 20
461.3416940397878
 30
0.0
 11
1029.53860027831
 21
461.2244339873923
 31
0.0
  0
LINE
  5
1A5
330
22
100
AcDbEntity
  8
_2-2_IN_LINE
  6
Continuous
 62
     7
100
AcDbLine
 10
1029.53860027831
 20
461.2244339873923
 30
0.0
 11
1029.686005120004
 21
461.1041016383428
 31
0.0
  0
LINE
  5
1A6
330
22
100
AcDbEntity
  8
_2-2_IN_LINE
  6
Continuous
 62
     7
100
AcDbLine
 10
1029.686005120004
 20
461.1041016383428
 30
0.0
 11
1029.832112721099
 21
460.981901558418
 31
0.0
  0
LINE
  5
1A7
330
22
100
AcDbEntity
  8
_2-2_IN_LINE
  6
Continuous
 62
     7
100
AcDbLine
 10
1029.832112721099
 20
460.981901558418
 30
0.0
 11
1029.916565890503
 21
460.9106443793251
 31
0.0
  0
LINE
  5
1A8
330
22
100
AcDbEntity
  8
_2-2_IN_LINE
  6
Continuous
 62
     7
100
AcDbLine
 10
1029.916565890503
 20
460.9106443793251
 30
0.0
 11
1030.022407754121
 21
460.8211637954258
 31
0.0
  0
LINE
  5
1A9
330
22
100
AcDbEntity
  8
_2-2_IN_LINE
  6
Continuous
 62
     7
100
AcDbLine
 10
1030.022407754121
 20
460.8211637954258
 30
0.0
 11
1030.203980532431
 21
460.6660807416296
 31
0.0
  0
LINE
  5
1AA
330
22
100
AcDbEntity
  8
_2-2_IN_LINE
  6
Continuous
 62
     7
100
AcDbLine
 10
1030.203980532431
 20
460.6660807416296
 30
0.0
 11
1030.383155185056
 21
460.5086915733882
 31
0.0
  0
LINE
  5
1AB
330
22
100
AcDbEntity
  8
_2-2_IN_LINE
  6
Continuous
 62
     7
100
AcDbLine
 10
1030.383155185056
 20
460.5086915733882
 30
0.0
 11
1030.55848731128
 21
460.3475013754627
 31
0.0
  0
LINE
  5
1AC
330
22
100
AcDbEntity
  8
_2-2_IN_LINE
  6
Continuous
 62
     7
100
AcDbLine
 10
1030.55848731128
 20
460.3475013754627
 30
0.0
 11
1030.72853251039
 21
460.1810152326123
 31
0.0
  0
LINE
  5
1AD
330
22
100
AcDbEntity
  8
_2-2_IN_LINE
  6
Continuous
 62
     7
100
AcDbLine
 10
1030.72853251039
 20
460.1810152326123
 30
0.0
 11
1030.891846381669
 21
460.007738229603
 31
0.0
  0
LINE
  5
1AE
330
22
100
AcDbEntity
  8
_2-2_IN_LINE
  6
Continuous
 62
     7
100
AcDbLine
 10
1030.891846381669
 20
460.007738229603
 30
0.0
 11
1030.982914963608
 21
459.903536921392
 31
0.0
  0
LINE
  5
1AF
330
22
100
AcDbEntity
  8
_2-2_IN_LINE
  6
Continuous
 62
     7
100
AcDbLine
 10
1030.982914963608
 20
459.903536921392
 30
0.0
 11
1031.034574236245
 21
459.8414496458707
 31
0.0
  0
LINE
  5
1B0
330
22
100
AcDbEntity
  8
_2-2_IN_LINE
  6
Continuous
 62
     7
100
AcDbLine
 10
1031.034574236245
 20
459.8414496458707
 30
0.0
 11
1031.12089934655
 21
459.7319769060317
 31
0.0
  0
LINE
  5
1B1
330
22
100
AcDbEntity
  8
_2-2_IN_LINE
  6
Continuous
 62
     7
100
AcDbLine
 10
1031.12089934655
 20
459.7319769060317
 30
0.0
 11
1031.203259218683
 21
459.6194756482732
 31
0.0
  0
LINE
  5
1B2
330
22
100
AcDbEntity
  8
_2-2_IN_LINE
  6
Continuous
 62
     7
100
AcDbLine
 10
1031.203259218683
 20
459.6194756482732
 30
0.0
 11
1031.281079909428
 21
459.5039947155618
 31
0.0
  0
LINE
  5
1B3
330
22
100
AcDbEntity
  8
_2-2_IN_LINE
  6
Continuous
 62
     7
100
AcDbLine
 10
1031.281079909428
 20
459.5039947155618
 30
0.0
 11
1031.353787475572
 21
459.3855829508692
 31
0.0
  0
LINE
  5
1B4
330
22
100
AcDbEntity
  8
_2-2_IN_LINE
  6
Continuous
 62
     7
100
AcDbLine
 10
1031.353787475572
 20
459.3855829508692
 30
0.0
 11
1031.420807973901
 21
459.2642891971645
 31
0.0
  0
LINE
  5
1B5
330
22
100
AcDbEntity
  8
_2-2_IN_LINE
  6
Continuous
 62
     7
100
AcDbLine
 10
1031.420807973901
 20
459.2642891971645
 30
0.0
 11
1031.456847884989
 21
459.192637539324
 31
0.0
  0
LINE
  5
1B6
330
22
100
AcDbEntity
  8
_2-2_IN_LINE
  6
Continuous
 62
     7
100
AcDbLine
 10
1031.456847884989
 20
459.192637539324
 30
0.0
 11
1031.503499738346
 21
459.0911616482725
 31
0.0
  0
LINE
  5
1B7
330
22
100
AcDbEntity
  8
_2-2_IN_LINE
  6
Continuous
 62
     7
100
AcDbLine
 10
1031.503499738346
 20
459.0911616482725
 30
0.0
 11
1031.574986496697
 21
458.9123972692227
 31
0.0
  0
LINE
  5
1B8
330
22
100
AcDbEntity
  8
_2-2_IN_LINE
  6
Continuous
 62
     7
100
AcDbLine
 10
1031.574986496697
 20
458.9123972692227
 30
0.0
 11
1031.63693783532
 21
458.7295768510734
 31
0.0
  0
LINE
  5
1B9
330
22
100
AcDbEntity
  8
_2-2_IN_LINE
  6
Continuous
 62
     7
100
AcDbLine
 10
1031.63693783532
 20
458.7295768510734
 30
0.0
 11
1031.691435723589
 21
458.5435859918828
 31
0.0
  0
LINE
  5
1BA
330
22
100
AcDbEntity
  8
_2-2_IN_LINE
  6
Continuous
 62
     7
100
AcDbLine
 10
1031.691435723589
 20
458.5435859918828
 30
0.0
 11
1031.740562130876
 21
458.3553102897093
 31
0.0
  0
LINE
  5
1BB
330
22
100
AcDbEntity
  8
_2-2_IN_LINE
  6
Continuous
 62
     7
100
AcDbLine
 10
1031.740562130876
 20
458.3553102897093
 30
0.0
 11
1031.786399026553
 21
458.1656353426041
 31
0.0
  0
LINE
  5
1BC
330
22
100
AcDbEntity
  8
_2-2_IN_LINE
  6
Continuous
 62
     7
100
AcDbLine
 10
1031.786399026553
 20
458.1656353426041
 30
0.0
 11
1031.812297576024
 21
458.0553317109428
 31
0.0
  0
LINE
  5
1BD
330
22
100
AcDbEntity
  8
_2-2_IN_LINE
  6
Continuous
 62
     7
100
AcDbLine
 10
949.4412767662536
 20
1048.055331710942
 30
0.0
 11
949.4412767662536
 21
1043.055331710943
 31
0.0
  0
LINE
  5
1BE
330
22
100
AcDbEntity
  8
_2-2_IN_LINE
  6
Continuous
 62
     7
100
AcDbLine
 10
949.4412767662536
 20
1048.055331710942
 30
0.0
 11
940.7810227284084
 21
1043.055331710943
 31
0.0
  0
LINE
  5
1BF
330
22
100
AcDbEntity
  8
_2-2_IN_LINE
  6
Continuous
 62
     7
100
AcDbLine
 10
993.4441446993215
 20
1053.055331710943
 30
0.0
 11
993.4623634868446
 21
1053.186236657625
 31
0.0
  0
LINE
  5
1C0
330
22
100
AcDbEntity
  8
_2-2_IN_LINE
  6
Continuous
 62
     7
100
AcDbLine
 10
993.4623634868446
 20
1053.186236657625
 30
0.0
 11
993.4954302665047
 21
1053.411310592646
 31
0.0
  0
LINE
  5
1C1
330
22
100
AcDbEntity
  8
_2-2_IN_LINE
  6
Continuous
 62
     7
100
AcDbLine
 10
993.4954302665047
 20
1053.411310592646
 30
0.0
 11
993.5330944823713
 21
1053.634650502903
 31
0.0
  0
LINE
  5
1C2
330
22
100
AcDbEntity
  8
_2-2_IN_LINE
  6
Continuous
 62
     7
100
AcDbLine
 10
993.5330944823713
 20
1053.634650502903
 30
0.0
 11
993.5782659041954
 21
1053.855158904375
 31
0.0
  0
LINE
  5
1C3
330
22
100
AcDbEntity
  8
_2-2_IN_LINE
  6
Continuous
 62
     7
100
AcDbLine
 10
993.5782659041954
 20
1053.855158904375
 30
0.0
 11
993.6338543017258
 21
1054.071738313032
 31
0.0
  0
LINE
  5
1C4
330
22
100
AcDbEntity
  8
_2-2_IN_LINE
  6
Continuous
 62
     7
100
AcDbLine
 10
993.6338543017258
 20
1054.071738313032
 30
0.0
 11
993.7027694447145
 21
1054.28329124485
 31
0.0
  0
LINE
  5
1C5
330
22
100
AcDbEntity
  8
_2-2_IN_LINE
  6
Continuous
 62
     7
100
AcDbLine
 10
993.7027694447145
 20
1054.28329124485
 30
0.0
 11
993.7499931430078
 21
1054.403256347843
 31
0.0
  0
LINE
  5
1C6
330
22
100
AcDbEntity
  8
_2-2_IN_LINE
  6
Continuous
 62
     7
100
AcDbLine
 10
993.7499931430078
 20
1054.403256347843
 30
0.0
 11
993.7909342042713
 21
1054.495373187432
 31
0.0
  0
LINE
  5
1C7
330
22
100
AcDbEntity
  8
_2-2_IN_LINE
  6
Continuous
 62
     7
100
AcDbLine
 10
993.7909342042713
 20
1054.495373187432
 30
0.0
 11
993.8693493769529
 21
1054.651087490446
 31
0.0
  0
LINE
  5
1C8
330
22
100
AcDbEntity
  8
_2-2_IN_LINE
  6
Continuous
 62
     7
100
AcDbLine
 10
993.8693493769529
 20
1054.651087490446
 30
0.0
 11
993.9564563912787
 21
1054.803091093326
 31
0.0
  0
LINE
  5
1C9
330
22
100
AcDbEntity
  8
_2-2_IN_LINE
  6
Continuous
 62
     7
100
AcDbLine
 10
993.9564563912787
 20
1054.803091093326
 30
0.0
 11
994.0508413804273
 21
1054.951643609128
 31
0.0
  0
LINE
  5
1CA
330
22
100
AcDbEntity
  8
_2-2_IN_LINE
  6
Continuous
 62
     7
100
AcDbLine
 10
994.0508413804273
 20
1054.951643609128
 30
0.0
 11
994.1510904775713
 21
1055.097004650899
 31
0.0
  0
LINE
  5
1CB
330
22
100
AcDbEntity
  8
_2-2_IN_LINE
  6
Continuous
 62
     7
100
AcDbLine
 10
994.1510904775713
 20
1055.097004650899
 30
0.0
 11
994.2557898158884
 21
1055.239433831695
 31
0.0
  0
LINE
  5
1CC
330
22
100
AcDbEntity
  8
_2-2_IN_LINE
  6
Continuous
 62
     7
100
AcDbLine
 10
994.2557898158884
 20
1055.239433831695
 30
0.0
 11
994.3179973955666
 21
1055.320801678899
 31
0.0
  0
LINE
  5
1CD
330
22
100
AcDbEntity
  8
_2-2_IN_LINE
  6
Continuous
 62
     7
100
AcDbLine
 10
994.3179973955666
 20
1055.320801678899
 30
0.0
 11
994.3922136695025
 21
1055.415485271702
 31
0.0
  0
LINE
  5
1CE
330
22
100
AcDbEntity
  8
_2-2_IN_LINE
  6
Continuous
 62
     7
100
AcDbLine
 10
994.3922136695025
 20
1055.415485271702
 30
0.0
 11
994.5224386096061
 21
1055.576204065564
 31
0.0
  0
LINE
  5
1CF
330
22
100
AcDbEntity
  8
_2-2_IN_LINE
  6
Continuous
 62
     7
100
AcDbLine
 10
994.5224386096061
 20
1055.576204065564
 30
0.0
 11
994.6552904288273
 21
1055.734070827957
 31
0.0
  0
LINE
  5
1D0
330
22
100
AcDbEntity
  8
_2-2_IN_LINE
  6
Continuous
 62
     7
100
AcDbLine
 10
994.6552904288273
 20
1055.734070827957
 30
0.0
 11
994.7904885669547
 21
1055.889491321422
 31
0.0
  0
LINE
  5
1D1
330
22
100
AcDbEntity
  8
_2-2_IN_LINE
  6
Continuous
 62
     7
100
AcDbLine
 10
994.7904885669547
 20
1055.889491321422
 30
0.0
 11
994.9277524637794
 21
1056.042871308508
 31
0.0
  0
LINE
  5
1D2
330
22
100
AcDbEntity
  8
_2-2_IN_LINE
  6
Continuous
 62
     7
100
AcDbLine
 10
994.9277524637794
 20
1056.042871308508
 30
0.0
 11
995.0668015590872
 21
1056.194616551765
 31
0.0
  0
LINE
  5
1D3
330
22
100
AcDbEntity
  8
_2-2_IN_LINE
  6
Continuous
 62
     7
100
AcDbLine
 10
995.0668015590872
 20
1056.194616551765
 30
0.0
 11
995.1481574569992
 21
1056.28203964477
 31
0.0
  0
LINE
  5
1D4
330
22
100
AcDbEntity
  8
_2-2_IN_LINE
  6
Continuous
 62
     7
100
AcDbLine
 10
995.1481574569992
 20
1056.28203964477
 30
0.0
 11
995.233792530414
 21
1056.373109819169
 31
0.0
  0
LINE
  5
1D5
330
22
100
AcDbEntity
  8
_2-2_IN_LINE
  6
Continuous
 62
     7
100
AcDbLine
 10
995.233792530414
 20
1056.373109819169
 30
0.0
 11
995.3829898887214
 21
1056.528811568002
 31
0.0
  0
LINE
  5
1D6
330
22
100
AcDbEntity
  8
_2-2_IN_LINE
  6
Continuous
 62
     7
100
AcDbLine
 10
995.3829898887214
 20
1056.528811568002
 30
0.0
 11
995.5347401022912
 21
1056.682157546401
 31
0.0
  0
LINE
  5
1D7
330
22
100
AcDbEntity
  8
_2-2_IN_LINE
  6
Continuous
 62
     7
100
AcDbLine
 10
995.5347401022912
 20
1056.682157546401
 30
0.0
 11
995.6897291817949
 21
1056.83234518532
 31
0.0
  0
LINE
  5
1D8
330
22
100
AcDbEntity
  8
_2-2_IN_LINE
  6
Continuous
 62
     7
100
AcDbLine
 10
995.6897291817949
 20
1056.83234518532
 30
0.0
 11
995.8486431379011
 21
1056.978571915719
 31
0.0
  0
LINE
  5
1D9
330
22
100
AcDbEntity
  8
_2-2_IN_LINE
  6
Continuous
 62
     7
100
AcDbLine
 10
995.8486431379011
 20
1056.978571915719
 30
0.0
 11
996.0121679812822
 21
1057.120035168547
 31
0.0
  0
LINE
  5
1DA
330
22
100
AcDbEntity
  8
_2-2_IN_LINE
  6
Continuous
 62
     7
100
AcDbLine
 10
996.0121679812822
 20
1057.120035168547
 30
0.0
 11
996.1093954228703
 21
1057.199584975828
 31
0.0
  0
LINE
  5
1DB
330
22
100
AcDbEntity
  8
_2-2_IN_LINE
  6
Continuous
 62
     7
100
AcDbLine
 10
996.1093954228703
 20
1057.199584975828
 30
0.0
 11
996.197049122412
 21
1057.268310328324
 31
0.0
  0
LINE
  5
1DC
330
22
100
AcDbEntity
  8
_2-2_IN_LINE
  6
Continuous
 62
     7
100
AcDbLine
 10
996.197049122412
 20
1057.268310328324
 30
0.0
 11
996.3516622223322
 21
1057.382523096125
 31
0.0
  0
LINE
  5
1DD
330
22
100
AcDbEntity
  8
_2-2_IN_LINE
  6
Continuous
 62
     7
100
AcDbLine
 10
996.3516622223322
 20
1057.382523096125
 30
0.0
 11
996.5106273655212
 21
1057.490495785054
 31
0.0
  0
LINE
  5
1DE
330
22
100
AcDbEntity
  8
_2-2_IN_LINE
  6
Continuous
 62
     7
100
AcDbLine
 10
996.5106273655212
 20
1057.490495785054
 30
0.0
 11
996.6738740227491
 21
1057.59127101648
 31
0.0
  0
LINE
  5
1DF
330
22
100
AcDbEntity
  8
_2-2_IN_LINE
  6
Continuous
 62
     7
100
AcDbLine
 10
996.6738740227491
 20
1057.59127101648
 30
0.0
 11
996.8413316647795
 21
1057.683891411768
 31
0.0
  0
LINE
  5
1E0
330
22
100
AcDbEntity
  8
_2-2_IN_LINE
  6
Continuous
 62
     7
100
AcDbLine
 10
996.8413316647795
 20
1057.683891411768
 30
0.0
 11
997.012929762384
 21
1057.76739959228
 31
0.0
  0
LINE
  5
1E1
330
22
100
AcDbEntity
  8
_2-2_IN_LINE
  6
Continuous
 62
     7
100
AcDbLine
 10
997.012929762384
 20
1057.76739959228
 30
0.0
 11
997.1143260235519
 21
1057.8112818632
 31
0.0
  0
LINE
  5
1E2
330
22
100
AcDbEntity
  8
_2-2_IN_LINE
  6
Continuous
 62
     7
100
AcDbLine
 10
997.1143260235519
 20
1057.8112818632
 30
0.0
 11
997.2282315162917
 21
1057.855810576463
 31
0.0
  0
LINE
  5
1E3
330
22
100
AcDbEntity
  8
_2-2_IN_LINE
  6
Continuous
 62
     7
100
AcDbLine
 10
997.2282315162917
 20
1057.855810576463
 30
0.0
 11
997.4281199741458
 21
1057.923121204876
 31
0.0
  0
LINE
  5
1E4
330
22
100
AcDbEntity
  8
_2-2_IN_LINE
  6
Continuous
 62
     7
100
AcDbLine
 10
997.4281199741458
 20
1057.923121204876
 30
0.0
 11
997.6318220730034
 21
1057.979724756376
 31
0.0
  0
LINE
  5
1E5
330
22
100
AcDbEntity
  8
_2-2_IN_LINE
  6
Continuous
 62
     7
100
AcDbLine
 10
997.6318220730034
 20
1057.979724756376
 30
0.0
 11
997.8386211498126
 21
1058.027099630107
 31
0.0
  0
LINE
  5
1E6
330
22
100
AcDbEntity
  8
_2-2_IN_LINE
  6
Continuous
 62
     7
100
AcDbLine
 10
997.8386211498126
 20
1058.027099630107
 30
0.0
 11
998.0478005415216
 21
1058.066724225215
 31
0.0
  0
LINE
  5
1E7
330
22
100
AcDbEntity
  8
_2-2_IN_LINE
  6
Continuous
 62
     7
100
AcDbLine
 10
998.0478005415216
 20
1058.066724225215
 30
0.0
 11
998.258643585077
 21
1058.100076940849
 31
0.0
  0
LINE
  5
1E8
330
22
100
AcDbEntity
  8
_2-2_IN_LINE
  6
Continuous
 62
     7
100
AcDbLine
 10
998.258643585077
 20
1058.100076940849
 30
0.0
 11
998.3814124331066
 21
1058.117130306886
 31
0.0
  0
LINE
  5
1E9
330
22
100
AcDbEntity
  8
_2-2_IN_LINE
  6
Continuous
 62
     7
100
AcDbLine
 10
998.3814124331066
 20
1058.117130306886
 30
0.0
 11
998.5298694031904
 21
1058.135847306152
 31
0.0
  0
LINE
  5
1EA
330
22
100
AcDbEntity
  8
_2-2_IN_LINE
  6
Continuous
 62
     7
100
AcDbLine
 10
998.5298694031904
 20
1058.135847306152
 30
0.0
 11
998.7861896684758
 21
1058.162754067243
 31
0.0
  0
LINE
  5
1EB
330
22
100
AcDbEntity
  8
_2-2_IN_LINE
  6
Continuous
 62
     7
100
AcDbLine
 10
998.7861896684758
 20
1058.162754067243
 30
0.0
 11
999.0425849970572
 21
1058.181612314542
 31
0.0
  0
LINE
  5
1EC
330
22
100
AcDbEntity
  8
_2-2_IN_LINE
  6
Continuous
 62
     7
100
AcDbLine
 10
999.0425849970572
 20
1058.181612314542
 30
0.0
 11
999.298612833688
 21
1058.190958405728
 31
0.0
  0
LINE
  5
1ED
330
22
100
AcDbEntity
  8
_2-2_IN_LINE
  6
Continuous
 62
     7
100
AcDbLine
 10
999.298612833688
 20
1058.190958405728
 30
0.0
 11
999.5538306231217
 21
1058.18932869848
 31
0.0
  0
LINE
  5
1EE
330
22
100
AcDbEntity
  8
_2-2_IN_LINE
  6
Continuous
 62
     7
100
AcDbLine
 10
999.5538306231217
 20
1058.18932869848
 30
0.0
 11
999.8077958101132
 21
1058.175259550478
 31
0.0
  0
LINE
  5
1EF
330
22
100
AcDbEntity
  8
_2-2_IN_LINE
  6
Continuous
 62
     7
100
AcDbLine
 10
999.8077958101132
 20
1058.175259550478
 30
0.0
 11
999.9543472863487
 21
1058.160822941699
 31
0.0
  0
LINE
  5
1F0
330
22
100
AcDbEntity
  8
_2-2_IN_LINE
  6
Continuous
 62
     7
100
AcDbLine
 10
999.9543472863487
 20
1058.160822941699
 30
0.0
 11
1000.061691477915
 21
1058.147133155612
 31
0.0
  0
LINE
  5
1F1
330
22
100
AcDbEntity
  8
_2-2_IN_LINE
  6
Continuous
 62
     7
100
AcDbLine
 10
1000.061691477915
 20
1058.147133155612
 30
0.0
 11
1000.246141538684
 21
1058.118173524371
 31
0.0
  0
LINE
  5
1F2
330
22
100
AcDbEntity
  8
_2-2_IN_LINE
  6
Continuous
 62
     7
100
AcDbLine
 10
1000.246141538684
 20
1058.118173524371
 30
0.0
 11
1000.430112396126
 21
1058.083858042832
 31
0.0
  0
LINE
  5
1F3
330
22
100
AcDbEntity
  8
_2-2_IN_LINE
  6
Continuous
 62
     7
100
AcDbLine
 10
1000.430112396126
 20
1058.083858042832
 30
0.0
 11
1000.613968431984
 21
1058.045843216804
 31
0.0
  0
LINE
  5
1F4
330
22
100
AcDbEntity
  8
_2-2_IN_LINE
  6
Continuous
 62
     7
100
AcDbLine
 10
1000.613968431984
 20
1058.045843216804
 30
0.0
 11
1000.798074028004
 21
1058.005785552099
 31
0.0
  0
LINE
  5
1F5
330
22
100
AcDbEntity
  8
_2-2_IN_LINE
  6
Continuous
 62
     7
100
AcDbLine
 10
1000.798074028004
 20
1058.005785552099
 30
0.0
 11
1000.982793565932
 21
1057.965341554522
 31
0.0
  0
LINE
  5
1F6
330
22
100
AcDbEntity
  8
_2-2_IN_LINE
  6
Continuous
 62
     7
100
AcDbLine
 10
1000.982793565932
 20
1057.965341554522
 30
0.0
 11
1001.090355791468
 21
1057.942359767636
 31
0.0
  0
LINE
  5
1F7
330
22
100
AcDbEntity
  8
_2-2_IN_LINE
  6
Continuous
 62
     7
100
AcDbLine
 10
1001.090355791468
 20
1057.942359767636
 30
0.0
 11
1001.212467022797
 21
1057.917086046138
 31
0.0
  0
LINE
  5
1F8
330
22
100
AcDbEntity
  8
_2-2_IN_LINE
  6
Continuous
 62
     7
100
AcDbLine
 10
1001.212467022797
 20
1057.917086046138
 30
0.0
 11
1001.42326504636
 21
1057.873736529904
 31
0.0
  0
LINE
  5
1F9
330
22
100
AcDbEntity
  8
_2-2_IN_LINE
  6
Continuous
 62
     7
100
AcDbLine
 10
1001.42326504636
 20
1057.873736529904
 30
0.0
 11
1001.632970270197
 21
1057.827603371756
 31
0.0
  0
LINE
  5
1FA
330
22
100
AcDbEntity
  8
_2-2_IN_LINE
  6
Continuous
 62
     7
100
AcDbLine
 10
1001.632970270197
 20
1057.827603371756
 30
0.0
 11
1001.839927219465
 21
1057.775117330051
 31
0.0
  0
LINE
  5
1FB
330
22
100
AcDbEntity
  8
_2-2_IN_LINE
  6
Continuous
 62
     7
100
AcDbLine
 10
1001.839927219465
 20
1057.775117330051
 30
0.0
 11
1002.04248041932
 21
1057.712709163151
 31
0.0
  0
LINE
  5
1FC
330
22
100
AcDbEntity
  8
_2-2_IN_LINE
  6
Continuous
 62
     7
100
AcDbLine
 10
1002.04248041932
 20
1057.712709163151
 30
0.0
 11
1002.23897439492
 21
1057.636809629418
 31
0.0
  0
LINE
  5
1FD
330
22
100
AcDbEntity
  8
_2-2_IN_LINE
  6
Continuous
 62
     7
100
AcDbLine
 10
1002.23897439492
 20
1057.636809629418
 30
0.0
 11
1002.349512221039
 21
1057.585199688762
 31
0.0
  0
LINE
  5
1FE
330
22
100
AcDbEntity
  8
_2-2_IN_LINE
  6
Continuous
 62
     7
100
AcDbLine
 10
1002.349512221039
 20
1057.585199688762
 30
0.0
 11
1002.448834452219
 21
1057.532114216837
 31
0.0
  0
LINE
  5
1FF
330
22
100
AcDbEntity
  8
_2-2_IN_LINE
  6
Continuous
 62
     7
100
AcDbLine
 10
1002.448834452219
 20
1057.532114216837
 30
0.0
 11
1002.614258367409
 21
1057.428827935738
 31
0.0
  0
LINE
  5
200
330
22
100
AcDbEntity
  8
_2-2_IN_LINE
  6
Continuous
 62
     7
100
AcDbLine
 10
1002.614258367409
 20
1057.428827935738
 30
0.0
 11
1002.772309938768
 21
1057.312278304007
 31
0.0
  0
LINE
  5
201
330
22
100
AcDbEntity
  8
_2-2_IN_LINE
  6
Continuous
 62
     7
100
AcDbLine
 10
1002.772309938768
 20
1057.312278304007
 30
0.0
 11
1002.922984985186
 21
1057.184351630694
 31
0.0
  0
LINE
  5
202
330
22
100
AcDbEntity
  8
_2-2_IN_LINE
  6
Continuous
 62
     7
100
AcDbLine
 10
1002.922984985186
 20
1057.184351630694
 30
0.0
 11
1003.066279325552
 21
1057.046934224844
 31
0.0
  0
LINE
  5
203
330
22
100
AcDbEntity
  8
_2-2_IN_LINE
  6
Continuous
 62
     7
100
AcDbLine
 10
1003.066279325552
 20
1057.046934224844
 30
0.0
 11
1003.202188778757
 21
1056.901912395517
 31
0.0
  0
LINE
  5
204
330
22
100
AcDbEntity
  8
_2-2_IN_LINE
  6
Continuous
 62
     7
100
AcDbLine
 10
1003.202188778757
 20
1056.901912395517
 30
0.0
 11
1003.277630858742
 21
1056.815058691517
 31
0.0
  0
LINE
  5
205
330
22
100
AcDbEntity
  8
_2-2_IN_LINE
  6
Continuous
 62
     7
100
AcDbLine
 10
1003.277630858742
 20
1056.815058691517
 30
0.0
 11
1003.361925883114
 21
1056.712491303528
 31
0.0
  0
LINE
  5
206
330
22
100
AcDbEntity
  8
_2-2_IN_LINE
  6
Continuous
 62
     7
100
AcDbLine
 10
1003.361925883114
 20
1056.712491303528
 30
0.0
 11
1003.500097742382
 21
1056.531206293793
 31
0.0
  0
LINE
  5
207
330
22
100
AcDbEntity
  8
_2-2_IN_LINE
  6
Continuous
 62
     7
100
AcDbLine
 10
1003.500097742382
 20
1056.531206293793
 30
0.0
 11
1003.630208009401
 21
1056.344981619172
 31
0.0
  0
LINE
  5
208
330
22
100
AcDbEntity
  8
_2-2_IN_LINE
  6
Continuous
 62
     7
100
AcDbLine
 10
1003.630208009401
 20
1056.344981619172
 30
0.0
 11
1003.753427911387
 21
1056.154615558082
 31
0.0
  0
LINE
  5
209
330
22
100
AcDbEntity
  8
_2-2_IN_LINE
  6
Continuous
 62
     7
100
AcDbLine
 10
1003.753427911387
 20
1056.154615558082
 30
0.0
 11
1003.870928675557
 21
1055.960906388938
 31
0.0
  0
LINE
  5
20A
330
22
100
AcDbEntity
  8
_2-2_IN_LINE
  6
Continuous
 62
     7
100
AcDbLine
 10
1003.870928675557
 20
1055.960906388938
 30
0.0
 11
1003.983881529126
 21
1055.764652390157
 31
0.0
  0
LINE
  5
20B
330
22
100
AcDbEntity
  8
_2-2_IN_LINE
  6
Continuous
 62
     7
100
AcDbLine
 10
1003.983881529126
 20
1055.764652390157
 30
0.0
 11
1004.047771855985
 21
1055.649973593126
 31
0.0
  0
LINE
  5
20C
330
22
100
AcDbEntity
  8
_2-2_IN_LINE
  6
Continuous
 62
     7
100
AcDbLine
 10
1004.047771855985
 20
1055.649973593126
 30
0.0
 11
1004.11503922349
 21
1055.52690700099
 31
0.0
  0
LINE
  5
20D
330
22
100
AcDbEntity
  8
_2-2_IN_LINE
  6
Continuous
 62
     7
100
AcDbLine
 10
1004.11503922349
 20
1055.52690700099
 30
0.0
 11
1004.229020464699
 21
1055.313700244623
 31
0.0
  0
LINE
  5
20E
330
22
100
AcDbEntity
  8
_2-2_IN_LINE
  6
Continuous
 62
     7
100
AcDbLine
 10
1004.229020464699
 20
1055.313700244623
 30
0.0
 11
1004.341135013064
 21
1055.099403245084
 31
0.0
  0
LINE
  5
20F
330
22
100
AcDbEntity
  8
_2-2_IN_LINE
  6
Continuous
 62
     7
100
AcDbLine
 10
1004.341135013064
 20
1055.099403245084
 30
0.0
 11
1004.452151622311
 21
1054.884253984011
 31
0.0
  0
LINE
  5
210
330
22
100
AcDbEntity
  8
_2-2_IN_LINE
  6
Continuous
 62
     7
100
AcDbLine
 10
1004.452151622311
 20
1054.884253984011
 30
0.0
 11
1004.562839046169
 21
1054.668490443032
 31
0.0
  0
LINE
  5
211
330
22
100
AcDbEntity
  8
_2-2_IN_LINE
  6
Continuous
 62
     7
100
AcDbLine
 10
1004.562839046169
 20
1054.668490443032
 30
0.0
 11
1004.673966038367
 21
1054.452350603773
 31
0.0
  0
LINE
  5
212
330
22
100
AcDbEntity
  8
_2-2_IN_LINE
  6
Continuous
 62
     7
100
AcDbLine
 10
1004.673966038367
 20
1054.452350603773
 30
0.0
 11
1004.738924032998
 21
1054.326910854274
 31
0.0
  0
LINE
  5
213
330
22
100
AcDbEntity
  8
_2-2_IN_LINE
  6
Continuous
 62
     7
100
AcDbLine
 10
1004.738924032998
 20
1054.326910854274
 30
0.0
 11
1004.827337487173
 21
1054.158082671269
 31
0.0
  0
LINE
  5
214
330
22
100
AcDbEntity
  8
_2-2_IN_LINE
  6
Continuous
 62
     7
100
AcDbLine
 10
1004.827337487173
 20
1054.158082671269
 30
0.0
 11
1004.983842303104
 21
1053.86868690538
 31
0.0
  0
LINE
  5
215
330
22
100
AcDbEntity
  8
_2-2_IN_LINE
  6
Continuous
 62
     7
100
AcDbLine
 10
1004.983842303104
 20
1053.86868690538
 30
0.0
 11
1005.148063896331
 21
1053.583978729129
 31
0.0
  0
LINE
  5
216
330
22
100
AcDbEntity
  8
_2-2_IN_LINE
  6
Continuous
 62
     7
100
AcDbLine
 10
1005.148063896331
 20
1053.583978729129
 30
0.0
 11
1005.322987883717
 21
1053.306925301112
 31
0.0
  0
LINE
  5
217
330
22
100
AcDbEntity
  8
_2-2_IN_LINE
  6
Continuous
 62
     7
100
AcDbLine
 10
1005.322987883717
 20
1053.306925301112
 30
0.0
 11
1005.511599882116
 21
1053.040493779926
 31
0.0
  0
LINE
  5
218
330
22
100
AcDbEntity
  8
_2-2_IN_LINE
  6
Continuous
 62
     7
100
AcDbLine
 10
1005.511599882116
 20
1053.040493779926
 30
0.0
 11
1005.716885508392
 21
1052.787651324167
 31
0.0
  0
LINE
  5
219
330
22
100
AcDbEntity
  8
_2-2_IN_LINE
  6
Continuous
 62
     7
100
AcDbLine
 10
1005.716885508392
 20
1052.787651324167
 30
0.0
 11
1005.844767516218
 21
1052.648398424386
 31
0.0
  0
LINE
  5
21A
330
22
100
AcDbEntity
  8
_2-2_IN_LINE
  6
Continuous
 62
     7
100
AcDbLine
 10
1005.844767516218
 20
1052.648398424386
 30
0.0
 11
1005.890982688522
 21
1052.601293418476
 31
0.0
  0
LINE
  5
21B
330
22
100
AcDbEntity
  8
_2-2_IN_LINE
  6
Continuous
 62
     7
100
AcDbLine
 10
1005.890982688522
 20
1052.601293418476
 30
0.0
 11
1005.972681950063
 21
1052.521948323442
 31
0.0
  0
LINE
  5
21C
330
22
100
AcDbEntity
  8
_2-2_IN_LINE
  6
Continuous
 62
     7
100
AcDbLine
 10
1005.972681950063
 20
1052.521948323442
 30
0.0
 11
1006.056884342394
 21
1052.445148214
 31
0.0
  0
LINE
  5
21D
330
22
100
AcDbEntity
  8
_2-2_IN_LINE
  6
Continuous
 62
     7
100
AcDbLine
 10
1006.056884342394
 20
1052.445148214
 30
0.0
 11
1006.143530317888
 21
1052.371099310673
 31
0.0
  0
LINE
  5
21E
330
22
100
AcDbEntity
  8
_2-2_IN_LINE
  6
Continuous
 62
     7
100
AcDbLine
 10
1006.143530317888
 20
1052.371099310673
 30
0.0
 11
1006.232560328924
 21
1052.300007833982
 31
0.0
  0
LINE
  5
21F
330
22
100
AcDbEntity
  8
_2-2_IN_LINE
  6
Continuous
 62
     7
100
AcDbLine
 10
1006.232560328924
 20
1052.300007833982
 30
0.0
 11
1006.323914827876
 21
1052.232080004454
 31
0.0
  0
LINE
  5
220
330
22
100
AcDbEntity
  8
_2-2_IN_LINE
  6
Continuous
 62
     7
100
AcDbLine
 10
1006.323914827876
 20
1052.232080004454
 30
0.0
 11
1006.37794205277
 21
1052.194212708063
 31
0.0
  0
LINE
  5
221
330
22
100
AcDbEntity
  8
_2-2_IN_LINE
  6
Continuous
 62
     7
100
AcDbLine
 10
1006.37794205277
 20
1052.194212708063
 30
0.0
 11
1006.467543463859
 21
1052.134920017685
 31
0.0
  0
LINE
  5
222
330
22
100
AcDbEntity
  8
_2-2_IN_LINE
  6
Continuous
 62
     7
100
AcDbLine
 10
1006.467543463859
 20
1052.134920017685
 30
0.0
 11
1006.625734908029
 21
1052.038506753492
 31
0.0
  0
LINE
  5
223
330
22
100
AcDbEntity
  8
_2-2_IN_LINE
  6
Continuous
 62
     7
100
AcDbLine
 10
1006.625734908029
 20
1052.038506753492
 30
0.0
 11
1006.787146195062
 21
1051.947178344421
 31
0.0
  0
LINE
  5
224
330
22
100
AcDbEntity
  8
_2-2_IN_LINE
  6
Continuous
 62
     7
100
AcDbLine
 10
1006.787146195062
 20
1051.947178344421
 30
0.0
 11
1006.950066143355
 21
1051.858287635968
 31
0.0
  0
LINE
  5
225
330
22
100
AcDbEntity
  8
_2-2_IN_LINE
  6
Continuous
 62
     7
100
AcDbLine
 10
1006.950066143355
 20
1051.858287635968
 30
0.0
 11
1007.112783571308
 21
1051.769187473632
 31
0.0
  0
LINE
  5
226
330
22
100
AcDbEntity
  8
_2-2_IN_LINE
  6
Continuous
 62
     7
100
AcDbLine
 10
1007.112783571308
 20
1051.769187473632
 30
0.0
 11
1007.27358729732
 21
1051.677230702907
 31
0.0
  0
LINE
  5
227
330
22
100
AcDbEntity
  8
_2-2_IN_LINE
  6
Continuous
 62
     7
100
AcDbLine
 10
1007.27358729732
 20
1051.677230702907
 30
0.0
 11
1007.365302305645
 21
1051.621543761398
 31
0.0
  0
LINE
  5
228
330
22
100
AcDbEntity
  8
_2-2_IN_LINE
  6
Continuous
 62
     7
100
AcDbLine
 10
1007.365302305645
 20
1051.621543761398
 30
0.0
 11
1007.457713298045
 21
1051.562178991525
 31
0.0
  0
LINE
  5
229
330
22
100
AcDbEntity
  8
_2-2_IN_LINE
  6
Continuous
 62
     7
100
AcDbLine
 10
1007.457713298045
 20
1051.562178991525
 30
0.0
 11
1007.613656300199
 21
1051.454677229757
 31
0.0
  0
LINE
  5
22A
330
22
100
AcDbEntity
  8
_2-2_IN_LINE
  6
Continuous
 62
     7
100
AcDbLine
 10
1007.613656300199
 20
1051.454677229757
 30
0.0
 11
1007.76597884242
 21
1051.341694039788
 31
0.0
  0
LINE
  5
22B
330
22
100
AcDbEntity
  8
_2-2_IN_LINE
  6
Continuous
 62
     7
100
AcDbLine
 10
1007.76597884242
 20
1051.341694039788
 30
0.0
 11
1007.915455331156
 21
1051.224433987392
 31
0.0
  0
LINE
  5
22C
330
22
100
AcDbEntity
  8
_2-2_IN_LINE
  6
Continuous
 62
     7
100
AcDbLine
 10
1007.915455331156
 20
1051.224433987392
 30
0.0
 11
1008.062860172849
 21
1051.104101638343
 31
0.0
  0
LINE
  5
22D
330
22
100
AcDbEntity
  8
_2-2_IN_LINE
  6
Continuous
 62
     7
100
AcDbLine
 10
1008.062860172849
 20
1051.104101638343
 30
0.0
 11
1008.208967773945
 21
1050.98190155842
 31
0.0
  0
LINE
  5
22E
330
22
100
AcDbEntity
  8
_2-2_IN_LINE
  6
Continuous
 62
     7
100
AcDbLine
 10
1008.208967773945
 20
1050.98190155842
 30
0.0
 11
1008.293420943348
 21
1050.910644379328
 31
0.0
  0
LINE
  5
22F
330
22
100
AcDbEntity
  8
_2-2_IN_LINE
  6
Continuous
 62
     7
100
AcDbLine
 10
1008.293420943348
 20
1050.910644379328
 30
0.0
 11
1008.399262806966
 21
1050.821163795426
 31
0.0
  0
LINE
  5
230
330
22
100
AcDbEntity
  8
_2-2_IN_LINE
  6
Continuous
 62
     7
100
AcDbLine
 10
1008.399262806966
 20
1050.821163795426
 30
0.0
 11
1008.580835585275
 21
1050.666080741629
 31
0.0
  0
LINE
  5
231
330
22
100
AcDbEntity
  8
_2-2_IN_LINE
  6
Continuous
 62
     7
100
AcDbLine
 10
1008.580835585275
 20
1050.666080741629
 30
0.0
 11
1008.760010237901
 21
1050.50869157339
 31
0.0
  0
LINE
  5
232
330
22
100
AcDbEntity
  8
_2-2_IN_LINE
  6
Continuous
 62
     7
100
AcDbLine
 10
1008.760010237901
 20
1050.50869157339
 30
0.0
 11
1008.935342364126
 21
1050.347501375463
 31
0.0
  0
LINE
  5
233
330
22
100
AcDbEntity
  8
_2-2_IN_LINE
  6
Continuous
 62
     7
100
AcDbLine
 10
1008.935342364126
 20
1050.347501375463
 30
0.0
 11
1009.105387563236
 21
1050.181015232614
 31
0.0
  0
LINE
  5
234
330
22
100
AcDbEntity
  8
_2-2_IN_LINE
  6
Continuous
 62
     7
100
AcDbLine
 10
1009.105387563236
 20
1050.181015232614
 30
0.0
 11
1009.268701434514
 21
1050.007738229605
 31
0.0
  0
LINE
  5
235
330
22
100
AcDbEntity
  8
_2-2_IN_LINE
  6
Continuous
 62
     7
100
AcDbLine
 10
1009.268701434514
 20
1050.007738229605
 30
0.0
 11
1009.359770016453
 21
1049.903536921392
 31
0.0
  0
LINE
  5
236
330
22
100
AcDbEntity
  8
_2-2_IN_LINE
  6
Continuous
 62
     7
100
AcDbLine
 10
1009.359770016453
 20
1049.903536921392
 30
0.0
 11
1009.41142928909
 21
1049.841449645871
 31
0.0
  0
LINE
  5
237
330
22
100
AcDbEntity
  8
_2-2_IN_LINE
  6
Continuous
 62
     7
100
AcDbLine
 10
1009.41142928909
 20
1049.841449645871
 30
0.0
 11
1009.497754399395
 21
1049.731976906032
 31
0.0
  0
LINE
  5
238
330
22
100
AcDbEntity
  8
_2-2_IN_LINE
  6
Continuous
 62
     7
100
AcDbLine
 10
1009.497754399395
 20
1049.731976906032
 30
0.0
 11
1009.580114271527
 21
1049.619475648273
 31
0.0
  0
LINE
  5
239
330
22
100
AcDbEntity
  8
_2-2_IN_LINE
  6
Continuous
 62
     7
100
AcDbLine
 10
1009.580114271527
 20
1049.619475648273
 30
0.0
 11
1009.657934962273
 21
1049.503994715562
 31
0.0
  0
LINE
  5
23A
330
22
100
AcDbEntity
  8
_2-2_IN_LINE
  6
Continuous
 62
     7
100
AcDbLine
 10
1009.657934962273
 20
1049.503994715562
 30
0.0
 11
1009.730642528418
 21
1049.385582950869
 31
0.0
  0
LINE
  5
23B
330
22
100
AcDbEntity
  8
_2-2_IN_LINE
  6
Continuous
 62
     7
100
AcDbLine
 10
1009.730642528418
 20
1049.385582950869
 30
0.0
 11
1009.797663026746
 21
1049.264289197167
 31
0.0
  0
LINE
  5
23C
330
22
100
AcDbEntity
  8
_2-2_IN_LINE
  6
Continuous
 62
     7
100
AcDbLine
 10
1009.797663026746
 20
1049.264289197167
 30
0.0
 11
1009.833702937833
 21
1049.192637539324
 31
0.0
  0
LINE
  5
23D
330
22
100
AcDbEntity
  8
_2-2_IN_LINE
  6
Continuous
 62
     7
100
AcDbLine
 10
1009.833702937833
 20
1049.192637539324
 30
0.0
 11
1009.880354791191
 21
1049.091161648274
 31
0.0
  0
LINE
  5
23E
330
22
100
AcDbEntity
  8
_2-2_IN_LINE
  6
Continuous
 62
     7
100
AcDbLine
 10
1009.880354791191
 20
1049.091161648274
 30
0.0
 11
1009.951841549541
 21
1048.912397269223
 31
0.0
  0
LINE
  5
23F
330
22
100
AcDbEntity
  8
_2-2_IN_LINE
  6
Continuous
 62
     7
100
AcDbLine
 10
1009.951841549541
 20
1048.912397269223
 30
0.0
 11
1010.013792888165
 21
1048.729576851074
 31
0.0
  0
LINE
  5
240
330
22
100
AcDbEntity
  8
_2-2_IN_LINE
  6
Continuous
 62
     7
100
AcDbLine
 10
1010.013792888165
 20
1048.729576851074
 30
0.0
 11
1010.068290776435
 21
1048.543585991883
 31
0.0
  0
LINE
  5
241
330
22
100
AcDbEntity
  8
_2-2_IN_LINE
  6
Continuous
 62
     7
100
AcDbLine
 10
1010.068290776435
 20
1048.543585991883
 30
0.0
 11
1010.117417183721
 21
1048.35531028971
 31
0.0
  0
LINE
  5
242
330
22
100
AcDbEntity
  8
_2-2_IN_LINE
  6
Continuous
 62
     7
100
AcDbLine
 10
1010.117417183721
 20
1048.35531028971
 30
0.0
 11
1010.163254079399
 21
1048.165635342606
 31
0.0
  0
LINE
  5
243
330
22
100
AcDbEntity
  8
_2-2_IN_LINE
  6
Continuous
 62
     7
100
AcDbLine
 10
1010.163254079399
 20
1048.165635342606
 30
0.0
 11
1010.189152628868
 21
1048.055331710942
 31
0.0
  0
LINE
  5
244
330
22
100
AcDbEntity
  8
_2-2_IN_LINE
  6
Continuous
 62
     7
100
AcDbLine
 10
949.4412767662536
 20
1048.055331710942
 30
0.0
 11
999.4412767662536
 21
1048.055331710942
 31
0.0
  0
LINE
  5
245
330
22
100
AcDbEntity
  8
_2-2_IN_LINE
  6
Continuous
 62
     7
100
AcDbLine
 10
1245.441276766254
 20
1043.055331710943
 30
0.0
 11
1245.441276766254
 21
1013.055331710942
 31
0.0
  0
LINE
  5
246
330
22
100
AcDbEntity
  8
_2-2_IN_LINE
  6
Continuous
 62
     7
100
AcDbLine
 10
1248.441276766254
 20
1043.055331710943
 30
0.0
 11
1248.441276766254
 21
1013.055331710942
 31
0.0
  0
LINE
  5
247
330
22
100
AcDbEntity
  8
_2-2_IN_LINE
  6
Continuous
 62
     7
100
AcDbLine
 10
1248.441276766254
 20
1043.055331710943
 30
0.0
 11
1425.064421713416
 21
1043.055331710943
 31
0.0
  0
LINE
  5
248
330
22
100
AcDbEntity
  8
_2-2_IN_LINE
  6
Continuous
 62
     7
100
AcDbLine
 10
775.064421713416
 20
1043.055331710943
 30
0.0
 11
1245.441276766254
 21
1043.055331710943
 31
0.0
  0
TEXT
  5
249
330
22
100
AcDbEntity
  8
_2-A_MOJI
 62
     7
100
AcDbText
 10
1002.72074666978
 20
344.1047168415406
 30
0.0
 40
15.0
  1
ＥＬ-2001注入
100
AcDbText
  0
TEXT
  5
24A
330
22
100
AcDbEntity
  8
_2-B_DIM
 62
     7
100
AcDbText
 10
951.4697806242804
 20
983.3730532194108
 30
0.0
 40
15.0
  1
40以上
100
AcDbText
  0
TEXT
  5
24B
330
22
100
AcDbEntity
  8
_2-B_DIM
 62
     7
100
AcDbText
 10
979.1551033979304
 20
398.3730532194085
 30
0.0
 40
15.0
  1
40以上
100
AcDbText
  0
LINE
  5
24C
330
22
100
AcDbEntity
  8
_2-7_ビス
  6
Continuous
 62
     7
100
AcDbLine
 10
951.1894225382159
 20
458.0553317109428
 30
0.0
 11
946.939420888617
 21
458.0553317109428
 31
0.0
  0
LINE
  5
24D
330
22
100
AcDbEntity
  8
_2-7_ビス
  6
Continuous
 62
     7
100
AcDbLine
 10
944.0644175894201
 20
460.9303350101408
 30
0.0
 11
946.939420888617
 21
458.0553317109428
 31
0.0
  0
LINE
  5
24E
330
22
100
AcDbEntity
  8
_2-7_ビス
  6
Continuous
 62
     7
100
AcDbLine
 10
954.0644258374141
 20
460.9303350101408
 30
0.0
 11
944.0644175894201
 21
460.9303350101408
 31
0.0
  0
LINE
  5
24F
330
22
100
AcDbEntity
  8
_2-7_ビス
  6
Continuous
 62
     7
100
AcDbLine
 10
944.0644175894201
 20
461.430361403722
 30
0.0
 11
944.0644175894201
 21
460.9303350101408
 31
0.0
  0
LINE
  5
250
330
22
100
AcDbEntity
  8
_2-7_ビス
  6
Continuous
 62
     7
100
AcDbLine
 10
954.0644258374141
 20
460.9303350101408
 30
0.0
 11
954.0644258374141
 21
461.430361403722
 31
0.0
  0
LINE
  5
251
330
22
100
AcDbEntity
  8
_2-7_ビス
  6
Continuous
 62
     7
100
AcDbLine
 10
954.0644258374141
 20
461.430361403722
 30
0.0
 11
944.0644175894201
 21
461.430361403722
 31
0.0
  0
LINE
  5
252
330
22
100
AcDbEntity
  8
_2-7_ビス
  6
Continuous
 62
     7
100
AcDbLine
 10
954.0644258374141
 20
460.9303350101408
 30
0.0
 11
951.1894225382159
 21
458.0553317109428
 31
0.0
  0
ARC
  5
253
330
22
100
AcDbEntity
  8
_2-7_ビス
  6
DASHED3
 62
     7
100
AcDbCircle
 10
949.0644217134173
 20
460.1658944220908
 30
0.0
 40
1.840317539266638
100
AcDbArc
 50
217.1175079345703
 51
322.8824768066406
  0
LINE
  5
254
330
22
100
AcDbEntity
  8
_2-7_ビス
  6
DASHED3
 62
     7
100
AcDbLine
 10
951.6144375495661
 20
460.9303350101408
 30
0.0
 11
950.5319130695193
 21
459.0553102661574
 31
0.0
  0
LINE
  5
255
330
22
100
AcDbEntity
  8
_2-7_ビス
  6
DASHED3
 62
     7
100
AcDbLine
 10
946.5144429932419
 20
460.9303350101408
 30
0.0
 11
947.5969674732878
 21
459.0553102661574
 31
0.0
  0
LINE
  5
256
330
22
100
AcDbEntity
  8
_2-7_ビス
  6
DASHED3
 62
     7
100
AcDbLine
 10
946.5144429932419
 20
460.9303350101408
 30
0.0
 11
946.5144429932419
 21
461.430361403722
 31
0.0
  0
LINE
  5
257
330
22
100
AcDbEntity
  8
_2-7_ビス
  6
DASHED3
 62
     7
100
AcDbLine
 10
951.6144375495661
 20
460.9303350101408
 30
0.0
 11
951.6144375495661
 21
461.430361403722
 31
0.0
  0
LINE
  5
258
330
22
100
AcDbEntity
  8
_2-7_ビス
  6
Continuous
 62
     7
100
AcDbLine
 10
951.0644217134164
 20
458.0553317109428
 30
0.0
 11
951.0644217134164
 21
423.0553317109428
 31
0.0
  0
LINE
  5
259
330
22
100
AcDbEntity
  8
_2-7_ビス
  6
Continuous
 62
     7
100
AcDbLine
 10
947.0644217134164
 20
458.0553317109428
 30
0.0
 11
947.0644217134164
 21
423.0553317109428
 31
0.0
  0
LINE
  5
25A
330
22
100
AcDbEntity
  8
_2-7_ビス
  6
Continuous
 62
     7
100
AcDbLine
 10
952.0644217134178
 20
418.9598465380306
 30
0.0
 11
952.0644217134178
 21
423.0553317109428
 31
0.0
  0
LINE
  5
25B
330
22
100
AcDbEntity
  8
_2-7_ビス
  6
Continuous
 62
     7
100
AcDbLine
 10
952.0644217134178
 20
423.0553317109428
 30
0.0
 11
949.0644217134173
 21
423.0553317109428
 31
0.0
  0
LINE
  5
25C
330
22
100
AcDbEntity
  8
_2-7_ビス
  6
Continuous
 62
     7
100
AcDbLine
 10
952.0644217134178
 20
418.9598465380306
 30
0.0
 11
952.8144217134173
 21
418.1352856178269
 31
0.0
  0
LINE
  5
25D
330
22
100
AcDbEntity
  8
_2-7_ビス
  6
Continuous
 62
     7
100
AcDbLine
 10
952.8144217134173
 20
418.1352856178269
 30
0.0
 11
952.8144217134173
 21
416.0366798907119
 31
0.0
  0
LINE
  5
25E
330
22
100
AcDbEntity
  8
_2-7_ビス
  6
Continuous
 62
     7
100
AcDbLine
 10
952.8144217134173
 20
416.0366798907119
 30
0.0
 11
952.2662024634165
 21
411.9190865774631
 31
0.0
  0
LINE
  5
25F
330
22
100
AcDbEntity
  8
_2-7_ビス
  6
Continuous
 62
     7
100
AcDbLine
 10
952.2662024634165
 20
411.9190865774631
 30
0.0
 11
952.0242787134167
 21
411.5114720689423
 31
0.0
  0
LINE
  5
260
330
22
100
AcDbEntity
  8
_2-7_ビス
  6
Continuous
 62
     7
100
AcDbLine
 10
952.0242787134167
 20
411.5114720689423
 30
0.0
 11
952.0644217134178
 21
411.5114720689423
 31
0.0
  0
LINE
  5
261
330
22
100
AcDbEntity
  8
_2-7_ビス
  6
Continuous
 62
     7
100
AcDbLine
 10
952.0644217134178
 20
411.5114720689423
 30
0.0
 11
952.0644217134178
 21
409.6974369823425
 31
0.0
  0
LINE
  5
262
330
22
100
AcDbEntity
  8
_2-7_ビス
  6
Continuous
 62
     7
100
AcDbLine
 10
952.0644217134178
 20
409.6974369823425
 30
0.0
 11
951.6314091528498
 21
408.8728755793425
 31
0.0
  0
LINE
  5
263
330
22
100
AcDbEntity
  8
_2-7_ビス
  6
Continuous
 62
     7
100
AcDbLine
 10
951.7613129634172
 20
408.6255071584418
 30
0.0
 11
952.7394217134165
 21
408.6255071584418
 31
0.0
  0
LINE
  5
264
330
22
100
AcDbEntity
  8
_2-7_ビス
  6
Continuous
 62
     7
100
AcDbLine
 10
952.7394217134165
 20
408.6255071584418
 30
0.0
 11
952.7394217134165
 21
404.3921165645628
 31
0.0
  0
LINE
  5
265
330
22
100
AcDbEntity
  8
_2-7_ビス
  6
Continuous
 62
     7
100
AcDbLine
 10
952.7394217134165
 20
404.3921165645628
 30
0.0
 11
952.2379522134166
 21
403.4307703195423
 31
0.0
  0
LINE
  5
266
330
22
100
AcDbEntity
  8
_2-7_ビス
  6
Continuous
 62
     7
100
AcDbLine
 10
952.2379522134166
 20
403.4307703195423
 30
0.0
 11
952.2331717134166
 21
403.4307703195423
 31
0.0
  0
LINE
  5
267
330
22
100
AcDbEntity
  8
_2-7_ビス
  6
Continuous
 62
     7
100
AcDbLine
 10
952.2331675401323
 20
403.4307706733245
 30
0.0
 11
952.2331717134166
 21
403.4307703195423
 31
0.0
  0
LINE
  5
268
330
22
100
AcDbEntity
  8
_2-7_ビス
  6
Continuous
 62
     7
100
AcDbLine
 10
952.2331675401323
 20
403.4307706733245
 30
0.0
 11
952.2331717134166
 21
403.4307703195423
 31
0.0
  0
LINE
  5
269
330
22
100
AcDbEntity
  8
_2-7_ビス
  6
Continuous
 62
     7
100
AcDbLine
 10
952.2005804634167
 20
402.3588404956427
 30
0.0
 11
952.7394217134165
 21
402.3588404956427
 31
0.0
  0
LINE
  5
26A
330
22
100
AcDbEntity
  8
_2-7_ビス
  6
Continuous
 62
     7
100
AcDbLine
 10
952.7394217134165
 20
402.3588404956427
 30
0.0
 11
952.7394217134165
 21
396.5616073588689
 31
0.0
  0
LINE
  5
26B
330
22
100
AcDbEntity
  8
_2-7_ビス
  6
Continuous
 62
     7
100
AcDbLine
 10
952.7394217134165
 20
396.5616073588689
 30
0.0
 11
952.2331745263569
 21
395.5974559891042
 31
0.0
  0
LINE
  5
26C
330
22
100
AcDbEntity
  8
_2-7_ビス
  6
Continuous
 62
     7
100
AcDbLine
 10
952.2331717134166
 20
395.5974369910422
 30
0.0
 11
952.229580083061
 21
396.0748883882826
 31
0.0
  0
LINE
  5
26D
330
22
100
AcDbEntity
  8
_2-7_ビス
  6
Continuous
 62
     7
100
AcDbLine
 10
952.229580083061
 20
396.0748883882826
 30
0.0
 11
951.9089000754375
 21
396.0921738328427
 31
0.0
  0
LINE
  5
26E
330
22
100
AcDbEntity
  8
_2-7_ビス
  6
Continuous
 62
     7
100
AcDbLine
 10
951.7502380352695
 20
396.3395422537423
 30
0.0
 11
952.2005804634167
 21
397.1641036567423
 31
0.0
  0
LINE
  5
26F
330
22
100
AcDbEntity
  8
_2-7_ビス
  6
Continuous
 62
     7
100
AcDbLine
 10
952.2005804634167
 20
397.1641036567423
 30
0.0
 11
952.20058061554
 21
397.6415551257372
 31
0.0
  0
LINE
  5
270
330
22
100
AcDbEntity
  8
_2-7_ビス
  6
Continuous
 62
     7
100
AcDbLine
 10
952.20058061554
 20
397.6415551257372
 30
0.0
 11
951.8525482134178
 21
397.6588404985427
 31
0.0
  0
LINE
  5
271
330
22
100
AcDbEntity
  8
_2-7_ビス
  6
Continuous
 62
     7
100
AcDbLine
 10
951.6929584636963
 20
397.9062089194424
 30
0.0
 11
952.2005804634167
 21
398.7307703224423
 31
0.0
  0
LINE
  5
272
330
22
100
AcDbEntity
  8
_2-7_ビス
  6
Continuous
 62
     7
100
AcDbLine
 10
952.2005804634167
 20
398.7307703224423
 30
0.0
 11
952.2005804634167
 21
399.2082218835509
 31
0.0
  0
LINE
  5
273
330
22
100
AcDbEntity
  8
_2-7_ビス
  6
Continuous
 62
     7
100
AcDbLine
 10
952.2005804634167
 20
399.2082218835509
 30
0.0
 11
951.8525482134178
 21
399.2255071642428
 31
0.0
  0
LINE
  5
274
330
22
100
AcDbEntity
  8
_2-7_ビス
  6
Continuous
 62
     7
100
AcDbLine
 10
951.6929584636963
 20
399.4728755851424
 30
0.0
 11
952.2005804634167
 21
400.2974369881424
 31
0.0
  0
LINE
  5
275
330
22
100
AcDbEntity
  8
_2-7_ビス
  6
Continuous
 62
     7
100
AcDbLine
 10
952.2005804634167
 20
400.2974369881424
 30
0.0
 11
952.2005804634167
 21
400.7748885492508
 31
0.0
  0
LINE
  5
276
330
22
100
AcDbEntity
  8
_2-7_ビス
  6
Continuous
 62
     7
100
AcDbLine
 10
952.2005804634167
 20
400.7748885492508
 30
0.0
 11
951.8525482134178
 21
400.7921738299428
 31
0.0
  0
LINE
  5
277
330
22
100
AcDbEntity
  8
_2-7_ビス
  6
Continuous
 62
     7
100
AcDbLine
 10
951.6929584636963
 20
401.0395422508423
 30
0.0
 11
952.20058061554
 21
401.8641036538424
 31
0.0
  0
LINE
  5
278
330
22
100
AcDbEntity
  8
_2-7_ビス
  6
Continuous
 62
     7
100
AcDbLine
 10
952.20058061554
 20
401.8641036538424
 30
0.0
 11
952.2005804634167
 21
402.3588404956427
 31
0.0
  0
LINE
  5
279
330
22
100
AcDbEntity
  8
_2-7_ビス
  6
Continuous
 62
     7
100
AcDbLine
 10
952.2331675401323
 20
403.4307706733245
 30
0.0
 11
952.2294823388866
 21
403.9082221423183
 31
0.0
  0
LINE
  5
27A
330
22
100
AcDbEntity
  8
_2-7_ビス
  6
Continuous
 62
     7
100
AcDbLine
 10
952.2294823388866
 20
403.9082221423183
 30
0.0
 11
951.9120374634177
 21
403.9255071613428
 31
0.0
  0
LINE
  5
27B
330
22
100
AcDbEntity
  8
_2-7_ビス
  6
Continuous
 62
     7
100
AcDbLine
 10
951.7499453230968
 20
404.1728755822425
 30
0.0
 11
952.20058061554
 21
404.9974369852424
 31
0.0
  0
LINE
  5
27C
330
22
100
AcDbEntity
  8
_2-7_ビス
  6
Continuous
 62
     7
100
AcDbLine
 10
952.20058061554
 20
404.9974369852424
 30
0.0
 11
952.20058061554
 21
405.4748884542363
 31
0.0
  0
LINE
  5
27D
330
22
100
AcDbEntity
  8
_2-7_ビス
  6
Continuous
 62
     7
100
AcDbLine
 10
952.20058061554
 20
405.4748884542363
 30
0.0
 11
951.8525482134178
 21
405.4921738270428
 31
0.0
  0
LINE
  5
27E
330
22
100
AcDbEntity
  8
_2-7_ビス
  6
Continuous
 62
     7
100
AcDbLine
 10
951.6929584636963
 20
405.7395422479426
 30
0.0
 11
952.2005804634167
 21
406.5641036509425
 31
0.0
  0
LINE
  5
27F
330
22
100
AcDbEntity
  8
_2-7_ビス
  6
Continuous
 62
     7
100
AcDbLine
 10
952.2005804634167
 20
406.5641036509425
 30
0.0
 11
952.20058061554
 21
407.0415551199364
 31
0.0
  0
LINE
  5
280
330
22
100
AcDbEntity
  8
_2-7_ビス
  6
Continuous
 62
     7
100
AcDbLine
 10
952.20058061554
 20
407.0415551199364
 30
0.0
 11
951.8516621209288
 21
407.0590720739022
 31
0.0
  0
LINE
  5
281
330
22
100
AcDbEntity
  8
_2-7_ビス
  6
Continuous
 62
     7
100
AcDbLine
 10
951.6929584636963
 20
407.3062089136426
 30
0.0
 11
952.20058061554
 21
408.1307703166425
 31
0.0
  0
LINE
  5
282
330
22
100
AcDbEntity
  8
_2-7_ビス
  6
Continuous
 62
     7
100
AcDbLine
 10
952.20058061554
 20
408.1307703166425
 30
0.0
 11
952.2005804579102
 21
408.6255071584418
 31
0.0
  0
LINE
  5
283
330
22
100
AcDbEntity
  8
_2-7_ビス
  6
Continuous
 62
     7
100
AcDbLine
 10
952.2005804634167
 20
394.5255071671425
 30
0.0
 11
952.7394217134165
 21
394.5255071671425
 31
0.0
  0
LINE
  5
284
330
22
100
AcDbEntity
  8
_2-7_ビス
  6
Continuous
 62
     7
100
AcDbLine
 10
952.7394217134165
 20
394.5255071671425
 30
0.0
 11
952.7394217134165
 21
391.277265432305
 31
0.0
  0
LINE
  5
285
330
22
100
AcDbEntity
  8
_2-7_ビス
  6
Continuous
 62
     7
100
AcDbLine
 10
952.7394217134165
 20
391.277265432305
 30
0.0
 11
952.2336359634175
 21
387.764103662542
 31
0.0
  0
LINE
  5
286
330
22
100
AcDbEntity
  8
_2-7_ビス
  6
Continuous
 62
     7
100
AcDbLine
 10
952.2336359634175
 20
387.764103662542
 30
0.0
 11
952.2329014457532
 21
388.2415547466832
 31
0.0
  0
LINE
  5
287
330
22
100
AcDbEntity
  8
_2-7_ビス
  6
Continuous
 62
     7
100
AcDbLine
 10
952.2329014457532
 20
388.2415547466832
 30
0.0
 11
951.9242129634164
 21
388.2588405043425
 31
0.0
  0
LINE
  5
288
330
22
100
AcDbEntity
  8
_2-7_ビス
  6
Continuous
 62
     7
100
AcDbLine
 10
952.2336359634175
 20
387.764103662542
 30
0.0
 11
951.8001591528499
 21
386.9395422595421
 31
0.0
  0
LINE
  5
289
330
22
100
AcDbEntity
  8
_2-7_ビス
  6
Continuous
 62
     7
100
AcDbLine
 10
951.7796563986289
 20
388.5062089252421
 30
0.0
 11
952.2302587320892
 21
389.330770328242
 31
0.0
  0
LINE
  5
28A
330
22
100
AcDbEntity
  8
_2-7_ビス
  6
Continuous
 62
     7
100
AcDbLine
 10
952.2302587320892
 20
389.330770328242
 30
0.0
 11
952.2281738278273
 21
389.8082214123821
 31
0.0
  0
LINE
  5
28B
330
22
100
AcDbEntity
  8
_2-7_ビス
  6
Continuous
 62
     7
100
AcDbLine
 10
952.2281738278273
 20
389.8082214123821
 30
0.0
 11
951.905846963417
 21
389.8255071700425
 31
0.0
  0
LINE
  5
28C
330
22
100
AcDbEntity
  8
_2-7_ビス
  6
Continuous
 62
     7
100
AcDbLine
 10
951.7573414675997
 20
390.0728755909422
 30
0.0
 11
952.2212093269228
 21
390.8974366090883
 31
0.0
  0
LINE
  5
28D
330
22
100
AcDbEntity
  8
_2-7_ビス
  6
Continuous
 62
     7
100
AcDbLine
 10
952.2212093269228
 20
390.8974366090883
 30
0.0
 11
952.2171464862264
 21
391.3748880780834
 31
0.0
  0
LINE
  5
28E
330
22
100
AcDbEntity
  8
_2-7_ビス
  6
Continuous
 62
     7
100
AcDbLine
 10
952.2171464862264
 20
391.3748880780834
 30
0.0
 11
951.8824931309584
 21
391.3921738357426
 31
0.0
  0
LINE
  5
28F
330
22
100
AcDbEntity
  8
_2-7_ビス
  6
Continuous
 62
     7
100
AcDbLine
 10
951.7252385147902
 20
391.6395422566422
 30
0.0
 11
952.2054411389955
 21
392.4641032747883
 31
0.0
  0
LINE
  5
290
330
22
100
AcDbEntity
  8
_2-7_ビス
  6
Continuous
 62
     7
100
AcDbLine
 10
952.2054411389955
 20
392.4641032747883
 30
0.0
 11
952.2005804634167
 21
392.9415552207508
 31
0.0
  0
LINE
  5
291
330
22
100
AcDbEntity
  8
_2-7_ビス
  6
Continuous
 62
     7
100
AcDbLine
 10
952.2005804634167
 20
392.9415552207508
 30
0.0
 11
951.8525482134178
 21
392.9588405014426
 31
0.0
  0
LINE
  5
292
330
22
100
AcDbEntity
  8
_2-7_ビス
  6
Continuous
 62
     7
100
AcDbLine
 10
951.6929584636963
 20
393.2062089223422
 30
0.0
 11
952.20058061554
 21
394.0307703253422
 31
0.0
  0
LINE
  5
293
330
22
100
AcDbEntity
  8
_2-7_ビス
  6
Continuous
 62
     7
100
AcDbLine
 10
952.20058061554
 20
394.0307703253422
 30
0.0
 11
952.2005804634167
 21
394.5255071671425
 31
0.0
  0
LINE
  5
294
330
22
100
AcDbEntity
  8
_2-7_ビス
  6
Continuous
 62
     7
100
AcDbLine
 10
951.9300629634164
 20
386.6921738386423
 30
0.0
 11
952.0644217134178
 21
386.6921738386423
 31
0.0
  0
LINE
  5
295
330
22
100
AcDbEntity
  8
_2-7_ビス
  6
Continuous
 62
     7
100
AcDbLine
 10
952.0644217134178
 20
386.6921738386423
 30
0.0
 11
952.0644217134178
 21
385.9088405057918
 31
0.0
  0
LINE
  5
296
330
22
100
AcDbEntity
  8
_2-7_ビス
  6
Continuous
 62
     7
100
AcDbLine
 10
952.0644217134178
 20
385.9088405057918
 30
0.0
 11
951.9144217134167
 21
385.9088405057918
 31
0.0
  0
LINE
  5
297
330
22
100
AcDbEntity
  8
_2-7_ビス
  6
Continuous
 62
     7
100
AcDbLine
 10
951.9144217134167
 20
385.9088405057918
 30
0.0
 11
951.9144217134167
 21
384.3009457699424
 31
0.0
  0
LINE
  5
298
330
22
100
AcDbEntity
  8
_2-7_ビス
  6
Continuous
 62
     7
100
AcDbLine
 10
951.9144217134167
 20
384.3009457699424
 30
0.0
 11
951.9079549026159
 21
384.3009457699424
 31
0.0
  0
LINE
  5
299
330
22
100
AcDbEntity
  8
_2-7_ビス
  6
Continuous
 62
     7
100
AcDbLine
 10
951.8576797134176
 20
383.9711212087429
 30
0.0
 11
951.8576795668783
 21
378.0206796159228
 31
0.0
  0
LINE
  5
29A
330
22
100
AcDbEntity
  8
_2-7_ビス
  6
Continuous
 62
     7
100
AcDbLine
 10
951.8576795668783
 20
378.0206796159228
 30
0.0
 11
951.4172422134173
 21
377.3692587917635
 31
0.0
  0
LINE
  5
29B
330
22
100
AcDbEntity
  8
_2-7_ビス
  6
Continuous
 62
     7
100
AcDbLine
 10
951.4172422134173
 20
377.3692587917635
 30
0.0
 11
950.414421713417
 21
376.0553317399428
 31
0.0
  0
LINE
  5
29C
330
22
100
AcDbEntity
  8
_2-7_ビス
  6
Continuous
 62
     7
100
AcDbLine
 10
950.414421713417
 20
376.0553317399428
 30
0.0
 11
950.2650432339223
 21
376.0553317399428
 31
0.0
  0
LINE
  5
29D
330
22
100
AcDbEntity
  8
_2-7_ビス
  6
Continuous
 62
     7
100
AcDbLine
 10
950.2650432339223
 20
376.0553317399428
 30
0.0
 11
951.3501373432367
 21
378.0206796159228
 31
0.0
  0
LINE
  5
29E
330
22
100
AcDbEntity
  8
_2-7_ビス
  6
Continuous
 62
     7
100
AcDbLine
 10
951.3501373432367
 20
378.0206796159228
 30
0.0
 11
951.3501374634177
 21
381.9921738415423
 31
0.0
  0
LINE
  5
29F
330
22
100
AcDbEntity
  8
_2-7_ビス
  6
Continuous
 62
     7
100
AcDbLine
 10
950.7667739634177
 20
381.9921738415423
 30
0.0
 11
950.7667742368491
 21
378.0206797686214
 31
0.0
  0
LINE
  5
2A0
330
22
100
AcDbEntity
  8
_2-7_ビス
  6
Continuous
 62
     7
100
AcDbLine
 10
950.7667742368491
 20
378.0206797686214
 30
0.0
 11
949.6816798716166
 21
376.0553317399428
 31
0.0
  0
LINE
  5
2A1
330
22
100
AcDbEntity
  8
_2-7_ビス
  6
Continuous
 62
     7
100
AcDbLine
 10
949.6816798716166
 20
376.0553317399428
 30
0.0
 11
949.0644217134173
 21
376.0553317399428
 31
0.0
  0
LINE
  5
2A2
330
22
100
AcDbEntity
  8
_2-7_ビス
  6
Continuous
 62
     7
100
AcDbLine
 10
951.6421218185003
 20
408.893274992008
 30
0.0
 11
951.6421218185003
 21
408.893274992008
 31
0.0
  0
LINE
  5
2A3
330
22
100
AcDbEntity
  8
_2-7_ビス
  6
Continuous
 62
     7
100
AcDbLine
 10
951.6421218185003
 20
408.893274992008
 30
0.0
 11
951.6289236931454
 21
408.8670156366314
 31
0.0
  0
LINE
  5
2A4
330
22
100
AcDbEntity
  8
_2-7_ビス
  6
Continuous
 62
     7
100
AcDbLine
 10
951.6289236931454
 20
408.8670156366314
 30
0.0
 11
951.6200736357742
 21
408.8386355466625
 31
0.0
  0
LINE
  5
2A5
330
22
100
AcDbEntity
  8
_2-7_ビス
  6
Continuous
 62
     7
100
AcDbLine
 10
951.6200736357742
 20
408.8386355466625
 30
0.0
 11
951.6158405509008
 21
408.808997036774
 31
0.0
  0
LINE
  5
2A6
330
22
100
AcDbEntity
  8
_2-7_ビス
  6
Continuous
 62
     7
100
AcDbLine
 10
951.6158405509008
 20
408.808997036774
 30
0.0
 11
951.616353058668
 21
408.7790006580911
 31
0.0
  0
LINE
  5
2A7
330
22
100
AcDbEntity
  8
_2-7_ビス
  6
Continuous
 62
     7
100
AcDbLine
 10
951.616353058668
 20
408.7790006580911
 30
0.0
 11
951.6215955867862
 21
408.7495578354011
 31
0.0
  0
LINE
  5
2A8
330
22
100
AcDbEntity
  8
_2-7_ビス
  6
Continuous
 62
     7
100
AcDbLine
 10
951.6215955867862
 20
408.7495578354011
 30
0.0
 11
951.6314088436914
 21
408.7215631739728
 31
0.0
  0
LINE
  5
2A9
330
22
100
AcDbEntity
  8
_2-7_ビス
  6
Continuous
 62
     7
100
AcDbLine
 10
951.6314088436914
 20
408.7215631739728
 30
0.0
 11
951.6454946585385
 21
408.6958672774276
 31
0.0
  0
LINE
  5
2AA
330
22
100
AcDbEntity
  8
_2-7_ビス
  6
Continuous
 62
     7
100
AcDbLine
 10
951.6454946585385
 20
408.6958672774276
 30
0.0
 11
951.6634250409705
 21
408.6732509025791
 31
0.0
  0
LINE
  5
2AB
330
22
100
AcDbEntity
  8
_2-7_ビス
  6
Continuous
 62
     7
100
AcDbLine
 10
951.6634250409705
 20
408.6732509025791
 30
0.0
 11
951.6846551853914
 21
408.6544012365331
 31
0.0
  0
LINE
  5
2AC
330
22
100
AcDbEntity
  8
_2-7_ビス
  6
Continuous
 62
     7
100
AcDbLine
 10
951.6846551853914
 20
408.6544012365331
 30
0.0
 11
951.7085400246047
 21
408.6398910168536
 31
0.0
  0
LINE
  5
2AD
330
22
100
AcDbEntity
  8
_2-7_ビス
  6
Continuous
 62
     7
100
AcDbLine
 10
951.7085400246047
 20
408.6398910168536
 30
0.0
 11
951.7343538298586
 21
408.6301611292232
 31
0.0
  0
LINE
  5
2AE
330
22
100
AcDbEntity
  8
_2-7_ビス
  6
Continuous
 62
     7
100
AcDbLine
 10
951.7343538298586
 20
408.6301611292232
 30
0.0
 11
951.7613122617417
 21
408.6255072113539
 31
0.0
  0
LINE
  5
2AF
330
22
100
AcDbEntity
  8
_2-7_ビス
  6
Continuous
 62
     7
100
AcDbLine
 10
951.7613122617417
 20
408.6255072113539
 30
0.0
 11
951.7613129634172
 21
408.6255071584418
 31
0.0
  0
LINE
  5
2B0
330
22
100
AcDbEntity
  8
_2-7_ビス
  6
Continuous
 62
     7
100
AcDbLine
 10
951.6929584636958
 20
407.3062089136423
 30
0.0
 11
951.6929584636958
 21
407.3062089136423
 31
0.0
  0
LINE
  5
2B1
330
22
100
AcDbEntity
  8
_2-7_ビス
  6
Continuous
 62
     7
100
AcDbLine
 10
951.6929584636958
 20
407.3062089136423
 30
0.0
 11
951.6922873581089
 21
407.266250759654
 31
0.0
  0
LINE
  5
2B2
330
22
100
AcDbEntity
  8
_2-7_ビス
  6
Continuous
 62
     7
100
AcDbLine
 10
951.6922873581089
 20
407.266250759654
 30
0.0
 11
951.6979376766729
 21
407.2267715380716
 31
0.0
  0
LINE
  5
2B3
330
22
100
AcDbEntity
  8
_2-7_ビス
  6
Continuous
 62
     7
100
AcDbLine
 10
951.6979376766729
 20
407.2267715380716
 30
0.0
 11
951.7097377373177
 21
407.1889708050657
 31
0.0
  0
LINE
  5
2B4
330
22
100
AcDbEntity
  8
_2-7_ビス
  6
Continuous
 62
     7
100
AcDbLine
 10
951.7097377373177
 20
407.1889708050657
 30
0.0
 11
951.7273290011715
 21
407.1539971167806
 31
0.0
  0
LINE
  5
2B5
330
22
100
AcDbEntity
  8
_2-7_ビス
  6
Continuous
 62
     7
100
AcDbLine
 10
951.7273290011715
 20
407.1539971167806
 30
0.0
 11
951.7501769665839
 21
407.1229131310371
 31
0.0
  0
LINE
  5
2B6
330
22
100
AcDbEntity
  8
_2-7_ビス
  6
Continuous
 62
     7
100
AcDbLine
 10
951.7501769665839
 20
407.1229131310371
 30
0.0
 11
951.7775874096878
 21
407.0966633190129
 31
0.0
  0
LINE
  5
2B7
330
22
100
AcDbEntity
  8
_2-7_ビス
  6
Continuous
 62
     7
100
AcDbLine
 10
951.7775874096878
 20
407.0966633190129
 30
0.0
 11
951.8087274780393
 21
407.0760452679632
 31
0.0
  0
LINE
  5
2B8
330
22
100
AcDbEntity
  8
_2-7_ビス
  6
Continuous
 62
     7
100
AcDbLine
 10
951.8087274780393
 20
407.0760452679632
 30
0.0
 11
951.8426509964193
 21
407.0616854469359
 31
0.0
  0
LINE
  5
2B9
330
22
100
AcDbEntity
  8
_2-7_ビス
  6
Continuous
 62
     7
100
AcDbLine
 10
951.8426509964193
 20
407.0616854469359
 30
0.0
 11
951.8525482134164
 21
407.0588404927423
 31
0.0
  0
LINE
  5
2BA
330
22
100
AcDbEntity
  8
_2-7_ビス
  6
Continuous
 62
     7
100
AcDbLine
 10
951.6929584636958
 20
405.7395422479422
 30
0.0
 11
951.6929584636958
 21
405.7395422479422
 31
0.0
  0
LINE
  5
2BB
330
22
100
AcDbEntity
  8
_2-7_ビス
  6
Continuous
 62
     7
100
AcDbLine
 10
951.6929584636958
 20
405.7395422479422
 30
0.0
 11
951.6922873581089
 21
405.6995840939539
 31
0.0
  0
LINE
  5
2BC
330
22
100
AcDbEntity
  8
_2-7_ビス
  6
Continuous
 62
     7
100
AcDbLine
 10
951.6922873581089
 20
405.6995840939539
 30
0.0
 11
951.6979376766729
 21
405.6601048723717
 31
0.0
  0
LINE
  5
2BD
330
22
100
AcDbEntity
  8
_2-7_ビス
  6
Continuous
 62
     7
100
AcDbLine
 10
951.6979376766729
 20
405.6601048723717
 30
0.0
 11
951.7097377373177
 21
405.6223041393657
 31
0.0
  0
LINE
  5
2BE
330
22
100
AcDbEntity
  8
_2-7_ビス
  6
Continuous
 62
     7
100
AcDbLine
 10
951.7097377373177
 20
405.6223041393657
 30
0.0
 11
951.7273290011715
 21
405.5873304510805
 31
0.0
  0
LINE
  5
2BF
330
22
100
AcDbEntity
  8
_2-7_ビス
  6
Continuous
 62
     7
100
AcDbLine
 10
951.7273290011715
 20
405.5873304510805
 30
0.0
 11
951.7501769665839
 21
405.5562464653371
 31
0.0
  0
LINE
  5
2C0
330
22
100
AcDbEntity
  8
_2-7_ビス
  6
Continuous
 62
     7
100
AcDbLine
 10
951.7501769665839
 20
405.5562464653371
 30
0.0
 11
951.7775874096878
 21
405.5299966533127
 31
0.0
  0
LINE
  5
2C1
330
22
100
AcDbEntity
  8
_2-7_ビス
  6
Continuous
 62
     7
100
AcDbLine
 10
951.7775874096878
 20
405.5299966533127
 30
0.0
 11
951.8087274780393
 21
405.5093786022631
 31
0.0
  0
LINE
  5
2C2
330
22
100
AcDbEntity
  8
_2-7_ビス
  6
Continuous
 62
     7
100
AcDbLine
 10
951.8087274780393
 20
405.5093786022631
 30
0.0
 11
951.8426509964193
 21
405.4950187812357
 31
0.0
  0
LINE
  5
2C3
330
22
100
AcDbEntity
  8
_2-7_ビス
  6
Continuous
 62
     7
100
AcDbLine
 10
951.8426509964193
 20
405.4950187812357
 30
0.0
 11
951.8525482134164
 21
405.4921738270423
 31
0.0
  0
LINE
  5
2C4
330
22
100
AcDbEntity
  8
_2-7_ビス
  6
Continuous
 62
     7
100
AcDbLine
 10
951.7499453230975
 20
404.1728755822423
 30
0.0
 11
951.7499453230975
 21
404.1728755822423
 31
0.0
  0
LINE
  5
2C5
330
22
100
AcDbEntity
  8
_2-7_ビス
  6
Continuous
 62
     7
100
AcDbLine
 10
951.7499453230975
 20
404.1728755822423
 30
0.0
 11
951.7492742175104
 21
404.1329174282538
 31
0.0
  0
LINE
  5
2C6
330
22
100
AcDbEntity
  8
_2-7_ビス
  6
Continuous
 62
     7
100
AcDbLine
 10
951.7492742175104
 20
404.1329174282538
 30
0.0
 11
951.7549245360743
 21
404.0934382066716
 31
0.0
  0
LINE
  5
2C7
330
22
100
AcDbEntity
  8
_2-7_ビス
  6
Continuous
 62
     7
100
AcDbLine
 10
951.7549245360743
 20
404.0934382066716
 30
0.0
 11
951.7667245967192
 21
404.0556374736658
 31
0.0
  0
LINE
  5
2C8
330
22
100
AcDbEntity
  8
_2-7_ビス
  6
Continuous
 62
     7
100
AcDbLine
 10
951.7667245967192
 20
404.0556374736658
 30
0.0
 11
951.784315860573
 21
404.0206637853804
 31
0.0
  0
LINE
  5
2C9
330
22
100
AcDbEntity
  8
_2-7_ビス
  6
Continuous
 62
     7
100
AcDbLine
 10
951.784315860573
 20
404.0206637853804
 30
0.0
 11
951.8071638259854
 21
403.989579799637
 31
0.0
  0
LINE
  5
2CA
330
22
100
AcDbEntity
  8
_2-7_ビス
  6
Continuous
 62
     7
100
AcDbLine
 10
951.8071638259854
 20
403.989579799637
 30
0.0
 11
951.8345742690895
 21
403.9633299876128
 31
0.0
  0
LINE
  5
2CB
330
22
100
AcDbEntity
  8
_2-7_ビス
  6
Continuous
 62
     7
100
AcDbLine
 10
951.8345742690895
 20
403.9633299876128
 30
0.0
 11
951.8657143374408
 21
403.9427119365631
 31
0.0
  0
LINE
  5
2CC
330
22
100
AcDbEntity
  8
_2-7_ビス
  6
Continuous
 62
     7
100
AcDbLine
 10
951.8657143374408
 20
403.9427119365631
 30
0.0
 11
951.8996378558208
 21
403.9283521155358
 31
0.0
  0
LINE
  5
2CD
330
22
100
AcDbEntity
  8
_2-7_ビス
  6
Continuous
 62
     7
100
AcDbLine
 10
951.8996378558208
 20
403.9283521155358
 30
0.0
 11
951.9095350728177
 21
403.9255071613422
 31
0.0
  0
LINE
  5
2CE
330
22
100
AcDbEntity
  8
_2-7_ビス
  6
Continuous
 62
     7
100
AcDbLine
 10
951.6929584636958
 20
401.0395422508421
 30
0.0
 11
951.6929584636958
 21
401.0395422508421
 31
0.0
  0
LINE
  5
2CF
330
22
100
AcDbEntity
  8
_2-7_ビス
  6
Continuous
 62
     7
100
AcDbLine
 10
951.6929584636958
 20
401.0395422508421
 30
0.0
 11
951.6922873581089
 21
400.9995840968537
 31
0.0
  0
LINE
  5
2D0
330
22
100
AcDbEntity
  8
_2-7_ビス
  6
Continuous
 62
     7
100
AcDbLine
 10
951.6922873581089
 20
400.9995840968537
 30
0.0
 11
951.6979376766729
 21
400.9601048752716
 31
0.0
  0
LINE
  5
2D1
330
22
100
AcDbEntity
  8
_2-7_ビス
  6
Continuous
 62
     7
100
AcDbLine
 10
951.6979376766729
 20
400.9601048752716
 30
0.0
 11
951.7097377373177
 21
400.9223041422656
 31
0.0
  0
LINE
  5
2D2
330
22
100
AcDbEntity
  8
_2-7_ビス
  6
Continuous
 62
     7
100
AcDbLine
 10
951.7097377373177
 20
400.9223041422656
 30
0.0
 11
951.7273290011715
 21
400.8873304539805
 31
0.0
  0
LINE
  5
2D3
330
22
100
AcDbEntity
  8
_2-7_ビス
  6
Continuous
 62
     7
100
AcDbLine
 10
951.7273290011715
 20
400.8873304539805
 30
0.0
 11
951.7501769665839
 21
400.8562464682369
 31
0.0
  0
LINE
  5
2D4
330
22
100
AcDbEntity
  8
_2-7_ビス
  6
Continuous
 62
     7
100
AcDbLine
 10
951.7501769665839
 20
400.8562464682369
 30
0.0
 11
951.7775874096878
 21
400.8299966562127
 31
0.0
  0
LINE
  5
2D5
330
22
100
AcDbEntity
  8
_2-7_ビス
  6
Continuous
 62
     7
100
AcDbLine
 10
951.7775874096878
 20
400.8299966562127
 30
0.0
 11
951.8087274780393
 21
400.8093786051629
 31
0.0
  0
LINE
  5
2D6
330
22
100
AcDbEntity
  8
_2-7_ビス
  6
Continuous
 62
     7
100
AcDbLine
 10
951.8087274780393
 20
400.8093786051629
 30
0.0
 11
951.8426509964193
 21
400.7950187841356
 31
0.0
  0
LINE
  5
2D7
330
22
100
AcDbEntity
  8
_2-7_ビス
  6
Continuous
 62
     7
100
AcDbLine
 10
951.8426509964193
 20
400.7950187841356
 30
0.0
 11
951.8525482134164
 21
400.7921738299421
 31
0.0
  0
LINE
  5
2D8
330
22
100
AcDbEntity
  8
_2-7_ビス
  6
Continuous
 62
     7
100
AcDbLine
 10
951.6929584636958
 20
399.472875585142
 30
0.0
 11
951.6929584636958
 21
399.472875585142
 31
0.0
  0
LINE
  5
2D9
330
22
100
AcDbEntity
  8
_2-7_ビス
  6
Continuous
 62
     7
100
AcDbLine
 10
951.6929584636958
 20
399.472875585142
 30
0.0
 11
951.6922873581089
 21
399.4329174311537
 31
0.0
  0
LINE
  5
2DA
330
22
100
AcDbEntity
  8
_2-7_ビス
  6
Continuous
 62
     7
100
AcDbLine
 10
951.6922873581089
 20
399.4329174311537
 30
0.0
 11
951.6979376766729
 21
399.3934382095715
 31
0.0
  0
LINE
  5
2DB
330
22
100
AcDbEntity
  8
_2-7_ビス
  6
Continuous
 62
     7
100
AcDbLine
 10
951.6979376766729
 20
399.3934382095715
 30
0.0
 11
951.7097377373177
 21
399.3556374765656
 31
0.0
  0
LINE
  5
2DC
330
22
100
AcDbEntity
  8
_2-7_ビス
  6
Continuous
 62
     7
100
AcDbLine
 10
951.7097377373177
 20
399.3556374765656
 30
0.0
 11
951.7273290011715
 21
399.3206637882804
 31
0.0
  0
LINE
  5
2DD
330
22
100
AcDbEntity
  8
_2-7_ビス
  6
Continuous
 62
     7
100
AcDbLine
 10
951.7273290011715
 20
399.3206637882804
 30
0.0
 11
951.7501769665839
 21
399.2895798025369
 31
0.0
  0
LINE
  5
2DE
330
22
100
AcDbEntity
  8
_2-7_ビス
  6
Continuous
 62
     7
100
AcDbLine
 10
951.7501769665839
 20
399.2895798025369
 30
0.0
 11
951.7775874096878
 21
399.2633299905128
 31
0.0
  0
LINE
  5
2DF
330
22
100
AcDbEntity
  8
_2-7_ビス
  6
Continuous
 62
     7
100
AcDbLine
 10
951.7775874096878
 20
399.2633299905128
 30
0.0
 11
951.8087274780393
 21
399.2427119394629
 31
0.0
  0
LINE
  5
2E0
330
22
100
AcDbEntity
  8
_2-7_ビス
  6
Continuous
 62
     7
100
AcDbLine
 10
951.8087274780393
 20
399.2427119394629
 30
0.0
 11
951.8426509964193
 21
399.2283521184357
 31
0.0
  0
LINE
  5
2E1
330
22
100
AcDbEntity
  8
_2-7_ビス
  6
Continuous
 62
     7
100
AcDbLine
 10
951.8426509964193
 20
399.2283521184357
 30
0.0
 11
951.8525482134164
 21
399.2255071642421
 31
0.0
  0
LINE
  5
2E2
330
22
100
AcDbEntity
  8
_2-7_ビス
  6
Continuous
 62
     7
100
AcDbLine
 10
951.6929584636958
 20
397.9062089194421
 30
0.0
 11
951.6929584636958
 21
397.9062089194421
 31
0.0
  0
LINE
  5
2E3
330
22
100
AcDbEntity
  8
_2-7_ビス
  6
Continuous
 62
     7
100
AcDbLine
 10
951.6929584636958
 20
397.9062089194421
 30
0.0
 11
951.6922873581089
 21
397.8662507654537
 31
0.0
  0
LINE
  5
2E4
330
22
100
AcDbEntity
  8
_2-7_ビス
  6
Continuous
 62
     7
100
AcDbLine
 10
951.6922873581089
 20
397.8662507654537
 30
0.0
 11
951.6979376766729
 21
397.8267715438715
 31
0.0
  0
LINE
  5
2E5
330
22
100
AcDbEntity
  8
_2-7_ビス
  6
Continuous
 62
     7
100
AcDbLine
 10
951.6979376766729
 20
397.8267715438715
 30
0.0
 11
951.7097377373177
 21
397.7889708108656
 31
0.0
  0
LINE
  5
2E6
330
22
100
AcDbEntity
  8
_2-7_ビス
  6
Continuous
 62
     7
100
AcDbLine
 10
951.7097377373177
 20
397.7889708108656
 30
0.0
 11
951.7273290011715
 21
397.7539971225803
 31
0.0
  0
LINE
  5
2E7
330
22
100
AcDbEntity
  8
_2-7_ビス
  6
Continuous
 62
     7
100
AcDbLine
 10
951.7273290011715
 20
397.7539971225803
 30
0.0
 11
951.7501769665839
 21
397.7229131368368
 31
0.0
  0
LINE
  5
2E8
330
22
100
AcDbEntity
  8
_2-7_ビス
  6
Continuous
 62
     7
100
AcDbLine
 10
951.7501769665839
 20
397.7229131368368
 30
0.0
 11
951.7775874096878
 21
397.6966633248126
 31
0.0
  0
LINE
  5
2E9
330
22
100
AcDbEntity
  8
_2-7_ビス
  6
Continuous
 62
     7
100
AcDbLine
 10
951.7775874096878
 20
397.6966633248126
 30
0.0
 11
951.8087274780393
 21
397.6760452737629
 31
0.0
  0
LINE
  5
2EA
330
22
100
AcDbEntity
  8
_2-7_ビス
  6
Continuous
 62
     7
100
AcDbLine
 10
951.8087274780393
 20
397.6760452737629
 30
0.0
 11
951.8426509964193
 21
397.6616854527357
 31
0.0
  0
LINE
  5
2EB
330
22
100
AcDbEntity
  8
_2-7_ビス
  6
Continuous
 62
     7
100
AcDbLine
 10
951.8426509964193
 20
397.6616854527357
 30
0.0
 11
951.8525482134164
 21
397.6588404985421
 31
0.0
  0
LINE
  5
2EC
330
22
100
AcDbEntity
  8
_2-7_ビス
  6
Continuous
 62
     7
100
AcDbLine
 10
951.75023803527
 20
396.339542253742
 30
0.0
 11
951.75023803527
 21
396.339542253742
 31
0.0
  0
LINE
  5
2ED
330
22
100
AcDbEntity
  8
_2-7_ビス
  6
Continuous
 62
     7
100
AcDbLine
 10
951.75023803527
 20
396.339542253742
 30
0.0
 11
951.7495669296831
 21
396.2995840997537
 31
0.0
  0
LINE
  5
2EE
330
22
100
AcDbEntity
  8
_2-7_ビス
  6
Continuous
 62
     7
100
AcDbLine
 10
951.7495669296831
 20
396.2995840997537
 30
0.0
 11
951.7552172482472
 21
396.2601048781714
 31
0.0
  0
LINE
  5
2EF
330
22
100
AcDbEntity
  8
_2-7_ビス
  6
Continuous
 62
     7
100
AcDbLine
 10
951.7552172482472
 20
396.2601048781714
 30
0.0
 11
951.7670173088919
 21
396.2223041451657
 31
0.0
  0
LINE
  5
2F0
330
22
100
AcDbEntity
  8
_2-7_ビス
  6
Continuous
 62
     7
100
AcDbLine
 10
951.7670173088919
 20
396.2223041451657
 30
0.0
 11
951.7846085727457
 21
396.1873304568803
 31
0.0
  0
LINE
  5
2F1
330
22
100
AcDbEntity
  8
_2-7_ビス
  6
Continuous
 62
     7
100
AcDbLine
 10
951.7846085727457
 20
396.1873304568803
 30
0.0
 11
951.8074565381583
 21
396.1562464711369
 31
0.0
  0
LINE
  5
2F2
330
22
100
AcDbEntity
  8
_2-7_ビス
  6
Continuous
 62
     7
100
AcDbLine
 10
951.8074565381583
 20
396.1562464711369
 30
0.0
 11
951.834866981262
 21
396.1299966591125
 31
0.0
  0
LINE
  5
2F3
330
22
100
AcDbEntity
  8
_2-7_ビス
  6
Continuous
 62
     7
100
AcDbLine
 10
951.834866981262
 20
396.1299966591125
 30
0.0
 11
951.8660070496137
 21
396.1093786080629
 31
0.0
  0
LINE
  5
2F4
330
22
100
AcDbEntity
  8
_2-7_ビス
  6
Continuous
 62
     7
100
AcDbLine
 10
951.8660070496137
 20
396.1093786080629
 30
0.0
 11
951.8999305679939
 21
396.0950187870356
 31
0.0
  0
LINE
  5
2F5
330
22
100
AcDbEntity
  8
_2-7_ビス
  6
Continuous
 62
     7
100
AcDbLine
 10
951.8999305679939
 20
396.0950187870356
 30
0.0
 11
951.9098277849908
 21
396.0921738328421
 31
0.0
  0
LINE
  5
2F6
330
22
100
AcDbEntity
  8
_2-7_ビス
  6
Continuous
 62
     7
100
AcDbLine
 10
951.6929584636958
 20
393.2062089223419
 30
0.0
 11
951.6929584636958
 21
393.2062089223419
 31
0.0
  0
LINE
  5
2F7
330
22
100
AcDbEntity
  8
_2-7_ビス
  6
Continuous
 62
     7
100
AcDbLine
 10
951.6929584636958
 20
393.2062089223419
 30
0.0
 11
951.6922873581089
 21
393.1662507683537
 31
0.0
  0
LINE
  5
2F8
330
22
100
AcDbEntity
  8
_2-7_ビス
  6
Continuous
 62
     7
100
AcDbLine
 10
951.6922873581089
 20
393.1662507683537
 30
0.0
 11
951.6979376766729
 21
393.1267715467714
 31
0.0
  0
LINE
  5
2F9
330
22
100
AcDbEntity
  8
_2-7_ビス
  6
Continuous
 62
     7
100
AcDbLine
 10
951.6979376766729
 20
393.1267715467714
 30
0.0
 11
951.7097377373177
 21
393.0889708137655
 31
0.0
  0
LINE
  5
2FA
330
22
100
AcDbEntity
  8
_2-7_ビス
  6
Continuous
 62
     7
100
AcDbLine
 10
951.7097377373177
 20
393.0889708137655
 30
0.0
 11
951.7273290011715
 21
393.0539971254802
 31
0.0
  0
LINE
  5
2FB
330
22
100
AcDbEntity
  8
_2-7_ビス
  6
Continuous
 62
     7
100
AcDbLine
 10
951.7273290011715
 20
393.0539971254802
 30
0.0
 11
951.7501769665839
 21
393.0229131397368
 31
0.0
  0
LINE
  5
2FC
330
22
100
AcDbEntity
  8
_2-7_ビス
  6
Continuous
 62
     7
100
AcDbLine
 10
951.7501769665839
 20
393.0229131397368
 30
0.0
 11
951.7775874096878
 21
392.9966633277125
 31
0.0
  0
LINE
  5
2FD
330
22
100
AcDbEntity
  8
_2-7_ビス
  6
Continuous
 62
     7
100
AcDbLine
 10
951.7775874096878
 20
392.9966633277125
 30
0.0
 11
951.8087274780393
 21
392.9760452766629
 31
0.0
  0
LINE
  5
2FE
330
22
100
AcDbEntity
  8
_2-7_ビス
  6
Continuous
 62
     7
100
AcDbLine
 10
951.8087274780393
 20
392.9760452766629
 30
0.0
 11
951.8426509964193
 21
392.9616854556355
 31
0.0
  0
LINE
  5
2FF
330
22
100
AcDbEntity
  8
_2-7_ビス
  6
Continuous
 62
     7
100
AcDbLine
 10
951.8426509964193
 20
392.9616854556355
 30
0.0
 11
951.8525482134164
 21
392.958840501442
 31
0.0
  0
LINE
  5
300
330
22
100
AcDbEntity
  8
_2-7_ビス
  6
Continuous
 62
     7
100
AcDbLine
 10
951.7252385147903
 20
391.6395422566418
 30
0.0
 11
951.7252385147903
 21
391.6395422566418
 31
0.0
  0
LINE
  5
301
330
22
100
AcDbEntity
  8
_2-7_ビス
  6
Continuous
 62
     7
100
AcDbLine
 10
951.7252385147903
 20
391.6395422566418
 30
0.0
 11
951.7245674092031
 21
391.5995841026536
 31
0.0
  0
LINE
  5
302
330
22
100
AcDbEntity
  8
_2-7_ビス
  6
Continuous
 62
     7
100
AcDbLine
 10
951.7245674092031
 20
391.5995841026536
 30
0.0
 11
951.7302177277674
 21
391.5601048810712
 31
0.0
  0
LINE
  5
303
330
22
100
AcDbEntity
  8
_2-7_ビス
  6
Continuous
 62
     7
100
AcDbLine
 10
951.7302177277674
 20
391.5601048810712
 30
0.0
 11
951.7420177884122
 21
391.5223041480654
 31
0.0
  0
LINE
  5
304
330
22
100
AcDbEntity
  8
_2-7_ビス
  6
Continuous
 62
     7
100
AcDbLine
 10
951.7420177884122
 20
391.5223041480654
 30
0.0
 11
951.7596090522658
 21
391.4873304597802
 31
0.0
  0
LINE
  5
305
330
22
100
AcDbEntity
  8
_2-7_ビス
  6
Continuous
 62
     7
100
AcDbLine
 10
951.7596090522658
 20
391.4873304597802
 30
0.0
 11
951.7824570176784
 21
391.4562464740368
 31
0.0
  0
LINE
  5
306
330
22
100
AcDbEntity
  8
_2-7_ビス
  6
Continuous
 62
     7
100
AcDbLine
 10
951.7824570176784
 20
391.4562464740368
 30
0.0
 11
951.8098674607823
 21
391.4299966620125
 31
0.0
  0
LINE
  5
307
330
22
100
AcDbEntity
  8
_2-7_ビス
  6
Continuous
 62
     7
100
AcDbLine
 10
951.8098674607823
 20
391.4299966620125
 30
0.0
 11
951.8410075291338
 21
391.4093786109627
 31
0.0
  0
LINE
  5
308
330
22
100
AcDbEntity
  8
_2-7_ビス
  6
Continuous
 62
     7
100
AcDbLine
 10
951.8410075291338
 20
391.4093786109627
 30
0.0
 11
951.874931047514
 21
391.3950187899355
 31
0.0
  0
LINE
  5
309
330
22
100
AcDbEntity
  8
_2-7_ビス
  6
Continuous
 62
     7
100
AcDbLine
 10
951.874931047514
 20
391.3950187899355
 30
0.0
 11
951.8848282645112
 21
391.392173835742
 31
0.0
  0
LINE
  5
30A
330
22
100
AcDbEntity
  8
_2-7_ビス
  6
Continuous
 62
     7
100
AcDbLine
 10
951.7573414675988
 20
390.0728755909419
 30
0.0
 11
951.7573414675988
 21
390.0728755909419
 31
0.0
  0
LINE
  5
30B
330
22
100
AcDbEntity
  8
_2-7_ビス
  6
Continuous
 62
     7
100
AcDbLine
 10
951.7573414675988
 20
390.0728755909419
 30
0.0
 11
951.7566703620117
 21
390.0329174369537
 31
0.0
  0
LINE
  5
30C
330
22
100
AcDbEntity
  8
_2-7_ビス
  6
Continuous
 62
     7
100
AcDbLine
 10
951.7566703620117
 20
390.0329174369537
 30
0.0
 11
951.7623206805758
 21
389.9934382153713
 31
0.0
  0
LINE
  5
30D
330
22
100
AcDbEntity
  8
_2-7_ビス
  6
Continuous
 62
     7
100
AcDbLine
 10
951.7623206805758
 20
389.9934382153713
 30
0.0
 11
951.7741207412205
 21
389.9556374823653
 31
0.0
  0
LINE
  5
30E
330
22
100
AcDbEntity
  8
_2-7_ビス
  6
Continuous
 62
     7
100
AcDbLine
 10
951.7741207412205
 20
389.9556374823653
 30
0.0
 11
951.7917120050745
 21
389.9206637940802
 31
0.0
  0
LINE
  5
30F
330
22
100
AcDbEntity
  8
_2-7_ビス
  6
Continuous
 62
     7
100
AcDbLine
 10
951.7917120050745
 20
389.9206637940802
 30
0.0
 11
951.8145599704871
 21
389.8895798083367
 31
0.0
  0
LINE
  5
310
330
22
100
AcDbEntity
  8
_2-7_ビス
  6
Continuous
 62
     7
100
AcDbLine
 10
951.8145599704871
 20
389.8895798083367
 30
0.0
 11
951.8419704135906
 21
389.8633299963124
 31
0.0
  0
LINE
  5
311
330
22
100
AcDbEntity
  8
_2-7_ビス
  6
Continuous
 62
     7
100
AcDbLine
 10
951.8419704135906
 20
389.8633299963124
 30
0.0
 11
951.8731104819423
 21
389.8427119452626
 31
0.0
  0
LINE
  5
312
330
22
100
AcDbEntity
  8
_2-7_ビス
  6
Continuous
 62
     7
100
AcDbLine
 10
951.8731104819423
 20
389.8427119452626
 30
0.0
 11
951.9070340003223
 21
389.8283521242354
 31
0.0
  0
LINE
  5
313
330
22
100
AcDbEntity
  8
_2-7_ビス
  6
Continuous
 62
     7
100
AcDbLine
 10
951.9070340003223
 20
389.8283521242354
 30
0.0
 11
951.9169312173197
 21
389.8255071700418
 31
0.0
  0
LINE
  5
314
330
22
100
AcDbEntity
  8
_2-7_ビス
  6
Continuous
 62
     7
100
AcDbLine
 10
951.7796563986287
 20
388.5062089252429
 30
0.0
 11
951.7796563986287
 21
388.5062089252429
 31
0.0
  0
LINE
  5
315
330
22
100
AcDbEntity
  8
_2-7_ビス
  6
Continuous
 62
     7
100
AcDbLine
 10
951.7796563986287
 20
388.5062089252429
 30
0.0
 11
951.7789852930413
 21
388.4662507712546
 31
0.0
  0
LINE
  5
316
330
22
100
AcDbEntity
  8
_2-7_ビス
  6
Continuous
 62
     7
100
AcDbLine
 10
951.7789852930413
 20
388.4662507712546
 30
0.0
 11
951.784635611605
 21
388.4267715496724
 31
0.0
  0
LINE
  5
317
330
22
100
AcDbEntity
  8
_2-7_ビス
  6
Continuous
 62
     7
100
AcDbLine
 10
951.784635611605
 20
388.4267715496724
 30
0.0
 11
951.7964356722499
 21
388.3889708166665
 31
0.0
  0
LINE
  5
318
330
22
100
AcDbEntity
  8
_2-7_ビス
  6
Continuous
 62
     7
100
AcDbLine
 10
951.7964356722499
 20
388.3889708166665
 30
0.0
 11
951.814026936104
 21
388.3539971283813
 31
0.0
  0
LINE
  5
319
330
22
100
AcDbEntity
  8
_2-7_ビス
  6
Continuous
 62
     7
100
AcDbLine
 10
951.814026936104
 20
388.3539971283813
 30
0.0
 11
951.8368749015165
 21
388.3229131426378
 31
0.0
  0
LINE
  5
31A
330
22
100
AcDbEntity
  8
_2-7_ビス
  6
Continuous
 62
     7
100
AcDbLine
 10
951.8368749015165
 20
388.3229131426378
 30
0.0
 11
951.8642853446205
 21
388.2966633306135
 31
0.0
  0
LINE
  5
31B
330
22
100
AcDbEntity
  8
_2-7_ビス
  6
Continuous
 62
     7
100
AcDbLine
 10
951.8642853446205
 20
388.2966633306135
 30
0.0
 11
951.8954254129718
 21
388.2760452795637
 31
0.0
  0
LINE
  5
31C
330
22
100
AcDbEntity
  8
_2-7_ビス
  6
Continuous
 62
     7
100
AcDbLine
 10
951.8954254129718
 20
388.2760452795637
 30
0.0
 11
951.9293489313518
 21
388.2616854585365
 31
0.0
  0
LINE
  5
31D
330
22
100
AcDbEntity
  8
_2-7_ビス
  6
Continuous
 62
     7
100
AcDbLine
 10
951.9293489313518
 20
388.2616854585365
 30
0.0
 11
951.9392461483489
 21
388.258840504343
 31
0.0
  0
LINE
  5
31E
330
22
100
AcDbEntity
  8
_2-7_ビス
  6
Continuous
 62
     7
100
AcDbLine
 10
951.8131589775629
 20
386.9642705805122
 30
0.0
 11
951.8131589775629
 21
386.9642705805122
 31
0.0
  0
LINE
  5
31F
330
22
100
AcDbEntity
  8
_2-7_ビス
  6
Continuous
 62
     7
100
AcDbLine
 10
951.8131589775629
 20
386.9642705805122
 30
0.0
 11
951.7994968258125
 21
386.9379825785351
 31
0.0
  0
LINE
  5
320
330
22
100
AcDbEntity
  8
_2-7_ビス
  6
Continuous
 62
     7
100
AcDbLine
 10
951.7994968258125
 20
386.9379825785351
 30
0.0
 11
951.7901943162643
 21
386.9094856892215
 31
0.0
  0
LINE
  5
321
330
22
100
AcDbEntity
  8
_2-7_ビス
  6
Continuous
 62
     7
100
AcDbLine
 10
951.7901943162643
 20
386.9094856892215
 30
0.0
 11
951.785534100963
 21
386.8796457761332
 31
0.0
  0
LINE
  5
322
330
22
100
AcDbEntity
  8
_2-7_ビス
  6
Continuous
 62
     7
100
AcDbLine
 10
951.785534100963
 20
386.8796457761332
 30
0.0
 11
951.7856577781921
 21
386.8493695099295
 31
0.0
  0
LINE
  5
323
330
22
100
AcDbEntity
  8
_2-7_ビス
  6
Continuous
 62
     7
100
AcDbLine
 10
951.7856577781921
 20
386.8493695099295
 30
0.0
 11
951.7905615900819
 21
386.8195768196386
 31
0.0
  0
LINE
  5
324
330
22
100
AcDbEntity
  8
_2-7_ビス
  6
Continuous
 62
     7
100
AcDbLine
 10
951.7905615900819
 20
386.8195768196386
 30
0.0
 11
951.8000965367894
 21
386.7911729410792
 31
0.0
  0
LINE
  5
325
330
22
100
AcDbEntity
  8
_2-7_ビス
  6
Continuous
 62
     7
100
AcDbLine
 10
951.8000965367894
 20
386.7911729410792
 30
0.0
 11
951.8139729037843
 21
386.7650209117282
 31
0.0
  0
LINE
  5
326
330
22
100
AcDbEntity
  8
_2-7_ビス
  6
Continuous
 62
     7
100
AcDbLine
 10
951.8139729037843
 20
386.7650209117282
 30
0.0
 11
951.8317690646769
 21
386.7419153477639
 31
0.0
  0
LINE
  5
327
330
22
100
AcDbEntity
  8
_2-7_ビス
  6
Continuous
 62
     7
100
AcDbLine
 10
951.8317690646769
 20
386.7419153477639
 30
0.0
 11
951.8529442921234
 21
386.7225583000554
 31
0.0
  0
LINE
  5
328
330
22
100
AcDbEntity
  8
_2-7_ビス
  6
Continuous
 62
     7
100
AcDbLine
 10
951.8529442921234
 20
386.7225583000554
 30
0.0
 11
951.8768551875536
 21
386.7075379227021
 31
0.0
  0
LINE
  5
329
330
22
100
AcDbEntity
  8
_2-7_ビス
  6
Continuous
 62
     7
100
AcDbLine
 10
951.8768551875536
 20
386.7075379227021
 30
0.0
 11
951.9027752305092
 21
386.6973106022691
 31
0.0
  0
LINE
  5
32A
330
22
100
AcDbEntity
  8
_2-7_ビス
  6
Continuous
 62
     7
100
AcDbLine
 10
951.9027752305092
 20
386.6973106022691
 30
0.0
 11
951.9299168536006
 21
386.6921870907128
 31
0.0
  0
LINE
  5
32B
330
22
100
AcDbEntity
  8
_2-7_ビス
  6
Continuous
 62
     7
100
AcDbLine
 10
951.9299168536006
 20
386.6921870907128
 30
0.0
 11
951.9300629634171
 21
386.6921738386428
 31
0.0
  0
LINE
  5
32C
330
22
100
AcDbEntity
  8
_2-7_ビス
  6
Continuous
 62
     7
100
AcDbLine
 10
952.2331717134179
 20
395.5974369910424
 30
0.0
 11
952.2331717134179
 21
395.5974369910424
 31
0.0
  0
LINE
  5
32D
330
22
100
AcDbEntity
  8
_2-7_ビス
  6
Continuous
 62
     7
100
AcDbLine
 10
952.2331717134179
 20
395.5974369910424
 30
0.0
 11
952.148845882624
 21
395.5851770343946
 31
0.0
  0
LINE
  5
32E
330
22
100
AcDbEntity
  8
_2-7_ビス
  6
Continuous
 62
     7
100
AcDbLine
 10
952.148845882624
 20
395.5851770343946
 30
0.0
 11
952.0677375611658
 21
395.5570045676876
 31
0.0
  0
LINE
  5
32F
330
22
100
AcDbEntity
  8
_2-7_ビス
  6
Continuous
 62
     7
100
AcDbLine
 10
952.0677375611658
 20
395.5570045676876
 30
0.0
 11
951.9923111843475
 21
395.5137755970661
 31
0.0
  0
LINE
  5
330
330
22
100
AcDbEntity
  8
_2-7_ビス
  6
Continuous
 62
     7
100
AcDbLine
 10
951.9923111843475
 20
395.5137755970661
 30
0.0
 11
951.9248585444618
 21
395.4568036129276
 31
0.0
  0
LINE
  5
331
330
22
100
AcDbEntity
  8
_2-7_ビス
  6
Continuous
 62
     7
100
AcDbLine
 10
951.9248585444618
 20
395.4568036129276
 30
0.0
 11
951.8674291558383
 21
395.3878196801809
 31
0.0
  0
LINE
  5
332
330
22
100
AcDbEntity
  8
_2-7_ビス
  6
Continuous
 62
     7
100
AcDbLine
 10
951.8674291558383
 20
395.3878196801809
 30
0.0
 11
951.8217679813901
 21
395.308919840715
 31
0.0
  0
LINE
  5
333
330
22
100
AcDbEntity
  8
_2-7_ビス
  6
Continuous
 62
     7
100
AcDbLine
 10
951.8217679813901
 20
395.308919840715
 30
0.0
 11
951.7892624127968
 21
395.2225014262268
 31
0.0
  0
LINE
  5
334
330
22
100
AcDbEntity
  8
_2-7_ビス
  6
Continuous
 62
     7
100
AcDbLine
 10
951.7892624127968
 20
395.2225014262268
 30
0.0
 11
951.7709001153118
 21
395.1311902165106
 31
0.0
  0
LINE
  5
335
330
22
100
AcDbEntity
  8
_2-7_ビス
  6
Continuous
 62
     7
100
AcDbLine
 10
951.7709001153118
 20
395.1311902165106
 30
0.0
 11
951.767239018052
 21
395.0377606564682
 31
0.0
  0
LINE
  5
336
330
22
100
AcDbEntity
  8
_2-7_ビス
  6
Continuous
 62
     7
100
AcDbLine
 10
951.767239018052
 20
395.0377606564682
 30
0.0
 11
951.7783903616058
 21
394.9450515560037
 31
0.0
  0
LINE
  5
337
330
22
100
AcDbEntity
  8
_2-7_ビス
  6
Continuous
 62
     7
100
AcDbLine
 10
951.7783903616058
 20
394.9450515560037
 30
0.0
 11
951.8040153180413
 21
394.8558798342214
 31
0.0
  0
LINE
  5
338
330
22
100
AcDbEntity
  8
_2-7_ビス
  6
Continuous
 62
     7
100
AcDbLine
 10
951.8040153180413
 20
394.8558798342214
 30
0.0
 11
951.8433352860242
 21
394.7729549287649
 31
0.0
  0
LINE
  5
339
330
22
100
AcDbEntity
  8
_2-7_ビス
  6
Continuous
 62
     7
100
AcDbLine
 10
951.8433352860242
 20
394.7729549287649
 30
0.0
 11
951.8951555482248
 21
394.6987964709245
 31
0.0
  0
LINE
  5
33A
330
22
100
AcDbEntity
  8
_2-7_ビス
  6
Continuous
 62
     7
100
AcDbLine
 10
951.8951555482248
 20
394.6987964709245
 30
0.0
 11
951.9579015721982
 21
394.6356577279154
 31
0.0
  0
LINE
  5
33B
330
22
100
AcDbEntity
  8
_2-7_ビス
  6
Continuous
 62
     7
100
AcDbLine
 10
951.9579015721982
 20
394.6356577279154
 30
0.0
 11
952.0296668517566
 21
394.5854571384945
 31
0.0
  0
LINE
  5
33C
330
22
100
AcDbEntity
  8
_2-7_ビス
  6
Continuous
 62
     7
100
AcDbLine
 10
952.0296668517566
 20
394.5854571384945
 30
0.0
 11
952.1082708351961
 21
394.5497200221685
 31
0.0
  0
LINE
  5
33D
330
22
100
AcDbEntity
  8
_2-7_ビス
  6
Continuous
 62
     7
100
AcDbLine
 10
952.1082708351961
 20
394.5497200221685
 30
0.0
 11
952.1913251802549
 21
394.529532233133
 31
0.0
  0
LINE
  5
33E
330
22
100
AcDbEntity
  8
_2-7_ビス
  6
Continuous
 62
     7
100
AcDbLine
 10
952.1913251802549
 20
394.529532233133
 30
0.0
 11
952.2331717134179
 21
394.5255071671425
 31
0.0
  0
LINE
  5
33F
330
22
100
AcDbEntity
  8
_2-7_ビス
  6
Continuous
 62
     7
100
AcDbLine
 10
952.2331717134179
 20
403.4307703195426
 30
0.0
 11
952.2331717134179
 21
403.4307703195426
 31
0.0
  0
LINE
  5
340
330
22
100
AcDbEntity
  8
_2-7_ビス
  6
Continuous
 62
     7
100
AcDbLine
 10
952.2331717134179
 20
403.4307703195426
 30
0.0
 11
952.148845882624
 21
403.4185103628948
 31
0.0
  0
LINE
  5
341
330
22
100
AcDbEntity
  8
_2-7_ビス
  6
Continuous
 62
     7
100
AcDbLine
 10
952.148845882624
 20
403.4185103628948
 30
0.0
 11
952.0677375611658
 21
403.3903378961878
 31
0.0
  0
LINE
  5
342
330
22
100
AcDbEntity
  8
_2-7_ビス
  6
Continuous
 62
     7
100
AcDbLine
 10
952.0677375611658
 20
403.3903378961878
 30
0.0
 11
951.9923111843475
 21
403.3471089255662
 31
0.0
  0
LINE
  5
343
330
22
100
AcDbEntity
  8
_2-7_ビス
  6
Continuous
 62
     7
100
AcDbLine
 10
951.9923111843475
 20
403.3471089255662
 30
0.0
 11
951.9248585444618
 21
403.2901369414277
 31
0.0
  0
LINE
  5
344
330
22
100
AcDbEntity
  8
_2-7_ビス
  6
Continuous
 62
     7
100
AcDbLine
 10
951.9248585444618
 20
403.2901369414277
 30
0.0
 11
951.8674291558383
 21
403.221153008681
 31
0.0
  0
LINE
  5
345
330
22
100
AcDbEntity
  8
_2-7_ビス
  6
Continuous
 62
     7
100
AcDbLine
 10
951.8674291558383
 20
403.221153008681
 30
0.0
 11
951.8217679813901
 21
403.1422531692151
 31
0.0
  0
LINE
  5
346
330
22
100
AcDbEntity
  8
_2-7_ビス
  6
Continuous
 62
     7
100
AcDbLine
 10
951.8217679813901
 20
403.1422531692151
 30
0.0
 11
951.7892624127968
 21
403.0558347547269
 31
0.0
  0
LINE
  5
347
330
22
100
AcDbEntity
  8
_2-7_ビス
  6
Continuous
 62
     7
100
AcDbLine
 10
951.7892624127968
 20
403.0558347547269
 30
0.0
 11
951.7709001153118
 21
402.9645235450109
 31
0.0
  0
LINE
  5
348
330
22
100
AcDbEntity
  8
_2-7_ビス
  6
Continuous
 62
     7
100
AcDbLine
 10
951.7709001153118
 20
402.9645235450109
 30
0.0
 11
951.767239018052
 21
402.8710939849683
 31
0.0
  0
LINE
  5
349
330
22
100
AcDbEntity
  8
_2-7_ビス
  6
Continuous
 62
     7
100
AcDbLine
 10
951.767239018052
 20
402.8710939849683
 30
0.0
 11
951.7783903616058
 21
402.7783848845038
 31
0.0
  0
LINE
  5
34A
330
22
100
AcDbEntity
  8
_2-7_ビス
  6
Continuous
 62
     7
100
AcDbLine
 10
951.7783903616058
 20
402.7783848845038
 30
0.0
 11
951.8040153180413
 21
402.6892131627215
 31
0.0
  0
LINE
  5
34B
330
22
100
AcDbEntity
  8
_2-7_ビス
  6
Continuous
 62
     7
100
AcDbLine
 10
951.8040153180413
 20
402.6892131627215
 30
0.0
 11
951.8433352860242
 21
402.606288257265
 31
0.0
  0
LINE
  5
34C
330
22
100
AcDbEntity
  8
_2-7_ビス
  6
Continuous
 62
     7
100
AcDbLine
 10
951.8433352860242
 20
402.606288257265
 30
0.0
 11
951.8951555482248
 21
402.5321297994247
 31
0.0
  0
LINE
  5
34D
330
22
100
AcDbEntity
  8
_2-7_ビス
  6
Continuous
 62
     7
100
AcDbLine
 10
951.8951555482248
 20
402.5321297994247
 30
0.0
 11
951.9579015721982
 21
402.4689910564156
 31
0.0
  0
LINE
  5
34E
330
22
100
AcDbEntity
  8
_2-7_ビス
  6
Continuous
 62
     7
100
AcDbLine
 10
951.9579015721982
 20
402.4689910564156
 30
0.0
 11
952.0296668517566
 21
402.4187904669948
 31
0.0
  0
LINE
  5
34F
330
22
100
AcDbEntity
  8
_2-7_ビス
  6
Continuous
 62
     7
100
AcDbLine
 10
952.0296668517566
 20
402.4187904669948
 30
0.0
 11
952.1082708351961
 21
402.3830533506687
 31
0.0
  0
LINE
  5
350
330
22
100
AcDbEntity
  8
_2-7_ビス
  6
Continuous
 62
     7
100
AcDbLine
 10
952.1082708351961
 20
402.3830533506687
 30
0.0
 11
952.1913251802549
 21
402.3628655616332
 31
0.0
  0
LINE
  5
351
330
22
100
AcDbEntity
  8
_2-7_ビス
  6
Continuous
 62
     7
100
AcDbLine
 10
952.1913251802549
 20
402.3628655616332
 30
0.0
 11
952.2331717134179
 21
402.3588404956425
 31
0.0
  0
LINE
  5
352
330
22
100
AcDbEntity
  8
_2-7_ビス
  6
Continuous
 62
     7
100
AcDbLine
 10
951.9079549026153
 20
384.3009457699421
 30
0.0
 11
951.9079549026153
 21
384.3009457699421
 31
0.0
  0
LINE
  5
353
330
22
100
AcDbEntity
  8
_2-7_ビス
  6
Continuous
 62
     7
100
AcDbLine
 10
951.9079549026153
 20
384.3009457699421
 30
0.0
 11
951.8717696887136
 21
384.1673614431749
 31
0.0
  0
LINE
  5
354
330
22
100
AcDbEntity
  8
_2-7_ビス
  6
Continuous
 62
     7
100
AcDbLine
 10
951.8717696887136
 20
384.1673614431749
 30
0.0
 11
951.8572333127725
 21
384.0288983909595
 31
0.0
  0
LINE
  5
355
330
22
100
AcDbEntity
  8
_2-7_ビス
  6
Continuous
 62
     7
100
AcDbLine
 10
951.8572333127725
 20
384.0288983909595
 30
0.0
 11
951.8576795695272
 21
383.9711212087421
 31
0.0
  0
LINE
  5
356
330
22
100
AcDbEntity
  8
_2-7_ビス
  6
Continuous
 62
     7
100
AcDbLine
 10
951.3501374634177
 20
381.9921738415425
 30
0.0
 11
951.3501374634177
 21
381.9921738415425
 31
0.0
  0
LINE
  5
357
330
22
100
AcDbEntity
  8
_2-7_ビス
  6
Continuous
 62
     7
100
AcDbLine
 10
951.3501374634177
 20
381.9921738415425
 30
0.0
 11
951.3440966858748
 21
382.0477044167202
 31
0.0
  0
LINE
  5
358
330
22
100
AcDbEntity
  8
_2-7_ビス
  6
Continuous
 62
     7
100
AcDbLine
 10
951.3440966858748
 20
382.0477044167202
 30
0.0
 11
951.329376851925
 21
382.1012381041048
 31
0.0
  0
LINE
  5
359
330
22
100
AcDbEntity
  8
_2-7_ビス
  6
Continuous
 62
     7
100
AcDbLine
 10
951.329376851925
 20
382.1012381041048
 30
0.0
 11
951.3064252162743
 21
382.1511483096942
 31
0.0
  0
LINE
  5
35A
330
22
100
AcDbEntity
  8
_2-7_ビス
  6
Continuous
 62
     7
100
AcDbLine
 10
951.3064252162743
 20
382.1511483096942
 30
0.0
 11
951.2759391527584
 21
382.1959185371476
 31
0.0
  0
LINE
  5
35B
330
22
100
AcDbEntity
  8
_2-7_ビス
  6
Continuous
 62
     7
100
AcDbLine
 10
951.2759391527584
 20
382.1959185371476
 30
0.0
 11
951.2388449649897
 21
382.2341884657585
 31
0.0
  0
LINE
  5
35C
330
22
100
AcDbEntity
  8
_2-7_ビス
  6
Continuous
 62
     7
100
AcDbLine
 10
951.2388449649897
 20
382.2341884657585
 30
0.0
 11
951.1962697410936
 21
382.2647952831117
 31
0.0
  0
LINE
  5
35D
330
22
100
AcDbEntity
  8
_2-7_ビス
  6
Continuous
 62
     7
100
AcDbLine
 10
951.1962697410936
 20
382.2647952831117
 30
0.0
 11
951.1495071077034
 21
382.2868090165496
 31
0.0
  0
LINE
  5
35E
330
22
100
AcDbEntity
  8
_2-7_ビス
  6
Continuous
 62
     7
100
AcDbLine
 10
951.1495071077034
 20
382.2868090165496
 30
0.0
 11
951.0999779237724
 21
382.2995607899212
 31
0.0
  0
LINE
  5
35F
330
22
100
AcDbEntity
  8
_2-7_ビス
  6
Continuous
 62
     7
100
AcDbLine
 10
951.0999779237724
 20
382.2995607899212
 30
0.0
 11
951.0491871084909
 21
382.3026631470455
 31
0.0
  0
LINE
  5
360
330
22
100
AcDbEntity
  8
_2-7_ビス
  6
Continuous
 62
     7
100
AcDbLine
 10
951.0491871084909
 20
382.3026631470455
 30
0.0
 11
950.99867791508
 21
382.2960218243708
 31
0.0
  0
LINE
  5
361
330
22
100
AcDbEntity
  8
_2-7_ビス
  6
Continuous
 62
     7
100
AcDbLine
 10
950.99867791508
 20
382.2960218243708
 30
0.0
 11
950.9499850398224
 21
382.2798386151263
 31
0.0
  0
LINE
  5
362
330
22
100
AcDbEntity
  8
_2-7_ビス
  6
Continuous
 62
     7
100
AcDbLine
 10
950.9499850398224
 20
382.2798386151263
 30
0.0
 11
950.9045879910933
 21
382.2546052379355
 31
0.0
  0
LINE
  5
363
330
22
100
AcDbEntity
  8
_2-7_ビス
  6
Continuous
 62
     7
100
AcDbLine
 10
950.9045879910933
 20
382.2546052379355
 30
0.0
 11
950.8638661352463
 21
382.2210883961956
 31
0.0
  0
LINE
  5
364
330
22
100
AcDbEntity
  8
_2-7_ビス
  6
Continuous
 62
     7
100
AcDbLine
 10
950.8638661352463
 20
382.2210883961956
 30
0.0
 11
950.8290567852647
 21
382.1803064821826
 31
0.0
  0
LINE
  5
365
330
22
100
AcDbEntity
  8
_2-7_ビス
  6
Continuous
 62
     7
100
AcDbLine
 10
950.8290567852647
 20
382.1803064821826
 30
0.0
 11
950.8012176056338
 21
382.1334986337174
 31
0.0
  0
LINE
  5
366
330
22
100
AcDbEntity
  8
_2-7_ビス
  6
Continuous
 62
     7
100
AcDbLine
 10
950.8012176056338
 20
382.1334986337174
 30
0.0
 11
950.7811944757392
 21
382.0820870835894
 31
0.0
  0
LINE
  5
367
330
22
100
AcDbEntity
  8
_2-7_ビス
  6
Continuous
 62
     7
100
AcDbLine
 10
950.7811944757392
 20
382.0820870835894
 30
0.0
 11
950.7695957882503
 21
382.0276339457337
 31
0.0
  0
LINE
  5
368
330
22
100
AcDbEntity
  8
_2-7_ビス
  6
Continuous
 62
     7
100
AcDbLine
 10
950.7695957882503
 20
382.0276339457337
 30
0.0
 11
950.7667739634177
 21
381.9717937511898
 31
0.0
  0
LINE
  5
369
330
22
100
AcDbEntity
  8
_2-7_ビス
  6
Continuous
 62
     7
100
AcDbLine
 10
950.7667739634177
 20
381.9717937511898
 30
0.0
 11
950.7667739634177
 21
381.9717937511898
 31
0.0
  0
LINE
  5
36A
330
22
100
AcDbEntity
  8
_2-7_ビス
  6
Continuous
 62
     7
100
AcDbLine
 10
946.0644217134165
 20
418.9598465380306
 30
0.0
 11
946.0644217134165
 21
423.0553317109428
 31
0.0
  0
LINE
  5
36B
330
22
100
AcDbEntity
  8
_2-7_ビス
  6
Continuous
 62
     7
100
AcDbLine
 10
946.0644217134165
 20
423.0553317109428
 30
0.0
 11
949.0644217134173
 21
423.0553317109428
 31
0.0
  0
LINE
  5
36C
330
22
100
AcDbEntity
  8
_2-7_ビス
  6
Continuous
 62
     7
100
AcDbLine
 10
946.0644217134165
 20
418.9598465380306
 30
0.0
 11
945.3144217134171
 21
418.1352856178269
 31
0.0
  0
LINE
  5
36D
330
22
100
AcDbEntity
  8
_2-7_ビス
  6
Continuous
 62
     7
100
AcDbLine
 10
945.3144217134171
 20
418.1352856178269
 30
0.0
 11
945.3144217134171
 21
416.0366798907119
 31
0.0
  0
LINE
  5
36E
330
22
100
AcDbEntity
  8
_2-7_ビス
  6
Continuous
 62
     7
100
AcDbLine
 10
945.3144217134171
 20
416.0366798907119
 30
0.0
 11
945.8626409634176
 21
411.9190865774631
 31
0.0
  0
LINE
  5
36F
330
22
100
AcDbEntity
  8
_2-7_ビス
  6
Continuous
 62
     7
100
AcDbLine
 10
945.8626409634176
 20
411.9190865774631
 30
0.0
 11
946.1045647134175
 21
411.5114720689423
 31
0.0
  0
LINE
  5
370
330
22
100
AcDbEntity
  8
_2-7_ビス
  6
Continuous
 62
     7
100
AcDbLine
 10
946.1045647134175
 20
411.5114720689423
 30
0.0
 11
946.0644217134165
 21
411.5114720689423
 31
0.0
  0
LINE
  5
371
330
22
100
AcDbEntity
  8
_2-7_ビス
  6
Continuous
 62
     7
100
AcDbLine
 10
946.0644217134165
 20
411.5114720689423
 30
0.0
 11
946.0644217134165
 21
409.6974369823425
 31
0.0
  0
LINE
  5
372
330
22
100
AcDbEntity
  8
_2-7_ビス
  6
Continuous
 62
     7
100
AcDbLine
 10
946.0644217134165
 20
409.6974369823425
 30
0.0
 11
946.4974342739843
 21
408.8728755793425
 31
0.0
  0
LINE
  5
373
330
22
100
AcDbEntity
  8
_2-7_ビス
  6
Continuous
 62
     7
100
AcDbLine
 10
946.367530463417
 20
408.6255071584418
 30
0.0
 11
945.3894217134175
 21
408.6255071584418
 31
0.0
  0
LINE
  5
374
330
22
100
AcDbEntity
  8
_2-7_ビス
  6
Continuous
 62
     7
100
AcDbLine
 10
945.3894217134175
 20
408.6255071584418
 30
0.0
 11
945.3894217134175
 21
404.3921165645628
 31
0.0
  0
LINE
  5
375
330
22
100
AcDbEntity
  8
_2-7_ビス
  6
Continuous
 62
     7
100
AcDbLine
 10
945.3894217134175
 20
404.3921165645628
 30
0.0
 11
945.8908912134177
 21
403.4307703195423
 31
0.0
  0
LINE
  5
376
330
22
100
AcDbEntity
  8
_2-7_ビス
  6
Continuous
 62
     7
100
AcDbLine
 10
945.8908912134177
 20
403.4307703195423
 30
0.0
 11
945.8956717134171
 21
403.4307703195423
 31
0.0
  0
LINE
  5
377
330
22
100
AcDbEntity
  8
_2-7_ビス
  6
Continuous
 62
     7
100
AcDbLine
 10
945.8956758867021
 20
403.4307706733245
 30
0.0
 11
945.8956717134171
 21
403.4307703195423
 31
0.0
  0
LINE
  5
378
330
22
100
AcDbEntity
  8
_2-7_ビス
  6
Continuous
 62
     7
100
AcDbLine
 10
945.8956758867021
 20
403.4307706733245
 30
0.0
 11
945.8956717134171
 21
403.4307703195423
 31
0.0
  0
LINE
  5
379
330
22
100
AcDbEntity
  8
_2-7_ビス
  6
Continuous
 62
     7
100
AcDbLine
 10
945.9282629634172
 20
402.3588404956427
 30
0.0
 11
945.3894217134175
 21
402.3588404956427
 31
0.0
  0
LINE
  5
37A
330
22
100
AcDbEntity
  8
_2-7_ビス
  6
Continuous
 62
     7
100
AcDbLine
 10
945.3894217134175
 20
402.3588404956427
 30
0.0
 11
945.3894217134175
 21
396.5616073588689
 31
0.0
  0
LINE
  5
37B
330
22
100
AcDbEntity
  8
_2-7_ビス
  6
Continuous
 62
     7
100
AcDbLine
 10
945.3894217134175
 20
396.5616073588689
 30
0.0
 11
945.8956689004786
 21
395.5974559891042
 31
0.0
  0
LINE
  5
37C
330
22
100
AcDbEntity
  8
_2-7_ビス
  6
Continuous
 62
     7
100
AcDbLine
 10
945.8956717134171
 20
395.5974369910422
 30
0.0
 11
945.8992633437729
 21
396.0748883882826
 31
0.0
  0
LINE
  5
37D
330
22
100
AcDbEntity
  8
_2-7_ビス
  6
Continuous
 62
     7
100
AcDbLine
 10
945.8992633437729
 20
396.0748883882826
 30
0.0
 11
946.2199433513966
 21
396.0921738328427
 31
0.0
  0
LINE
  5
37E
330
22
100
AcDbEntity
  8
_2-7_ビス
  6
Continuous
 62
     7
100
AcDbLine
 10
946.3786053915645
 20
396.3395422537423
 30
0.0
 11
945.9282629634172
 21
397.1641036567423
 31
0.0
  0
LINE
  5
37F
330
22
100
AcDbEntity
  8
_2-7_ビス
  6
Continuous
 62
     7
100
AcDbLine
 10
945.9282629634172
 20
397.1641036567423
 30
0.0
 11
945.9282628112941
 21
397.6415551257372
 31
0.0
  0
LINE
  5
380
330
22
100
AcDbEntity
  8
_2-7_ビス
  6
Continuous
 62
     7
100
AcDbLine
 10
945.9282628112941
 20
397.6415551257372
 30
0.0
 11
946.2762952134177
 21
397.6588404985427
 31
0.0
  0
LINE
  5
381
330
22
100
AcDbEntity
  8
_2-7_ビス
  6
Continuous
 62
     7
100
AcDbLine
 10
946.4358849631377
 20
397.9062089194424
 30
0.0
 11
945.9282629634172
 21
398.7307703224423
 31
0.0
  0
LINE
  5
382
330
22
100
AcDbEntity
  8
_2-7_ビス
  6
Continuous
 62
     7
100
AcDbLine
 10
945.9282629634172
 20
398.7307703224423
 30
0.0
 11
945.9282629634172
 21
399.2082218835509
 31
0.0
  0
LINE
  5
383
330
22
100
AcDbEntity
  8
_2-7_ビス
  6
Continuous
 62
     7
100
AcDbLine
 10
945.9282629634172
 20
399.2082218835509
 30
0.0
 11
946.2762952134177
 21
399.2255071642428
 31
0.0
  0
LINE
  5
384
330
22
100
AcDbEntity
  8
_2-7_ビス
  6
Continuous
 62
     7
100
AcDbLine
 10
946.4358849631377
 20
399.4728755851424
 30
0.0
 11
945.9282629634172
 21
400.2974369881424
 31
0.0
  0
LINE
  5
385
330
22
100
AcDbEntity
  8
_2-7_ビス
  6
Continuous
 62
     7
100
AcDbLine
 10
945.9282629634172
 20
400.2974369881424
 30
0.0
 11
945.9282629634172
 21
400.7748885492508
 31
0.0
  0
LINE
  5
386
330
22
100
AcDbEntity
  8
_2-7_ビス
  6
Continuous
 62
     7
100
AcDbLine
 10
945.9282629634172
 20
400.7748885492508
 30
0.0
 11
946.2762952134177
 21
400.7921738299428
 31
0.0
  0
LINE
  5
387
330
22
100
AcDbEntity
  8
_2-7_ビス
  6
Continuous
 62
     7
100
AcDbLine
 10
946.4358849631377
 20
401.0395422508423
 30
0.0
 11
945.9282628112941
 21
401.8641036538424
 31
0.0
  0
LINE
  5
388
330
22
100
AcDbEntity
  8
_2-7_ビス
  6
Continuous
 62
     7
100
AcDbLine
 10
945.9282628112941
 20
401.8641036538424
 30
0.0
 11
945.9282629634172
 21
402.3588404956427
 31
0.0
  0
LINE
  5
389
330
22
100
AcDbEntity
  8
_2-7_ビス
  6
Continuous
 62
     7
100
AcDbLine
 10
945.8956758867021
 20
403.4307706733245
 30
0.0
 11
945.8993610879472
 21
403.9082221423183
 31
0.0
  0
LINE
  5
38A
330
22
100
AcDbEntity
  8
_2-7_ビス
  6
Continuous
 62
     7
100
AcDbLine
 10
945.8993610879472
 20
403.9082221423183
 30
0.0
 11
946.2168059634164
 21
403.9255071613428
 31
0.0
  0
LINE
  5
38B
330
22
100
AcDbEntity
  8
_2-7_ビス
  6
Continuous
 62
     7
100
AcDbLine
 10
946.3788981037385
 20
404.1728755822425
 30
0.0
 11
945.9282628112941
 21
404.9974369852424
 31
0.0
  0
LINE
  5
38C
330
22
100
AcDbEntity
  8
_2-7_ビス
  6
Continuous
 62
     7
100
AcDbLine
 10
945.9282628112941
 20
404.9974369852424
 30
0.0
 11
945.9282628112941
 21
405.4748884542363
 31
0.0
  0
LINE
  5
38D
330
22
100
AcDbEntity
  8
_2-7_ビス
  6
Continuous
 62
     7
100
AcDbLine
 10
945.9282628112941
 20
405.4748884542363
 30
0.0
 11
946.2762952134177
 21
405.4921738270428
 31
0.0
  0
LINE
  5
38E
330
22
100
AcDbEntity
  8
_2-7_ビス
  6
Continuous
 62
     7
100
AcDbLine
 10
946.4358849631377
 20
405.7395422479426
 30
0.0
 11
945.9282629634172
 21
406.5641036509425
 31
0.0
  0
LINE
  5
38F
330
22
100
AcDbEntity
  8
_2-7_ビス
  6
Continuous
 62
     7
100
AcDbLine
 10
945.9282629634172
 20
406.5641036509425
 30
0.0
 11
945.9282628112941
 21
407.0415551199364
 31
0.0
  0
LINE
  5
390
330
22
100
AcDbEntity
  8
_2-7_ビス
  6
Continuous
 62
     7
100
AcDbLine
 10
945.9282628112941
 20
407.0415551199364
 30
0.0
 11
946.2771813059053
 21
407.0590720739022
 31
0.0
  0
LINE
  5
391
330
22
100
AcDbEntity
  8
_2-7_ビス
  6
Continuous
 62
     7
100
AcDbLine
 10
946.4358849631377
 20
407.3062089136426
 30
0.0
 11
945.9282628112941
 21
408.1307703166425
 31
0.0
  0
LINE
  5
392
330
22
100
AcDbEntity
  8
_2-7_ビス
  6
Continuous
 62
     7
100
AcDbLine
 10
945.9282628112941
 20
408.1307703166425
 30
0.0
 11
945.9282629689244
 21
408.6255071584418
 31
0.0
  0
LINE
  5
393
330
22
100
AcDbEntity
  8
_2-7_ビス
  6
Continuous
 62
     7
100
AcDbLine
 10
945.9282629634172
 20
394.5255071671425
 30
0.0
 11
945.3894217134175
 21
394.5255071671425
 31
0.0
  0
LINE
  5
394
330
22
100
AcDbEntity
  8
_2-7_ビス
  6
Continuous
 62
     7
100
AcDbLine
 10
945.3894217134175
 20
394.5255071671425
 30
0.0
 11
945.3894217134175
 21
391.277265432305
 31
0.0
  0
LINE
  5
395
330
22
100
AcDbEntity
  8
_2-7_ビス
  6
Continuous
 62
     7
100
AcDbLine
 10
945.3894217134175
 20
391.277265432305
 30
0.0
 11
945.8952074634167
 21
387.764103662542
 31
0.0
  0
LINE
  5
396
330
22
100
AcDbEntity
  8
_2-7_ビス
  6
Continuous
 62
     7
100
AcDbLine
 10
945.8952074634167
 20
387.764103662542
 30
0.0
 11
945.8959419810808
 21
388.2415547466832
 31
0.0
  0
LINE
  5
397
330
22
100
AcDbEntity
  8
_2-7_ビス
  6
Continuous
 62
     7
100
AcDbLine
 10
945.8959419810808
 20
388.2415547466832
 30
0.0
 11
946.2046304634178
 21
388.2588405043425
 31
0.0
  0
LINE
  5
398
330
22
100
AcDbEntity
  8
_2-7_ビス
  6
Continuous
 62
     7
100
AcDbLine
 10
945.8952074634167
 20
387.764103662542
 30
0.0
 11
946.328684273984
 21
386.9395422595421
 31
0.0
  0
LINE
  5
399
330
22
100
AcDbEntity
  8
_2-7_ビス
  6
Continuous
 62
     7
100
AcDbLine
 10
946.3491870282052
 20
388.5062089252421
 30
0.0
 11
945.8985846947447
 21
389.330770328242
 31
0.0
  0
LINE
  5
39A
330
22
100
AcDbEntity
  8
_2-7_ビス
  6
Continuous
 62
     7
100
AcDbLine
 10
945.8985846947447
 20
389.330770328242
 30
0.0
 11
945.9006695990067
 21
389.8082214123821
 31
0.0
  0
LINE
  5
39B
330
22
100
AcDbEntity
  8
_2-7_ビス
  6
Continuous
 62
     7
100
AcDbLine
 10
945.9006695990067
 20
389.8082214123821
 30
0.0
 11
946.2229964634175
 21
389.8255071700425
 31
0.0
  0
LINE
  5
39C
330
22
100
AcDbEntity
  8
_2-7_ビス
  6
Continuous
 62
     7
100
AcDbLine
 10
946.3715019592358
 20
390.0728755909422
 30
0.0
 11
945.9076340999112
 21
390.8974366090883
 31
0.0
  0
LINE
  5
39D
330
22
100
AcDbEntity
  8
_2-7_ビス
  6
Continuous
 62
     7
100
AcDbLine
 10
945.9076340999112
 20
390.8974366090883
 30
0.0
 11
945.911696940608
 21
391.3748880780834
 31
0.0
  0
LINE
  5
39E
330
22
100
AcDbEntity
  8
_2-7_ビス
  6
Continuous
 62
     7
100
AcDbLine
 10
945.911696940608
 20
391.3748880780834
 30
0.0
 11
946.2463502958767
 21
391.3921738357426
 31
0.0
  0
LINE
  5
39F
330
22
100
AcDbEntity
  8
_2-7_ビス
  6
Continuous
 62
     7
100
AcDbLine
 10
946.4036049120441
 20
391.6395422566422
 30
0.0
 11
945.9234022878387
 21
392.4641032747883
 31
0.0
  0
LINE
  5
3A0
330
22
100
AcDbEntity
  8
_2-7_ビス
  6
Continuous
 62
     7
100
AcDbLine
 10
945.9234022878387
 20
392.4641032747883
 30
0.0
 11
945.9282629634172
 21
392.9415552207508
 31
0.0
  0
LINE
  5
3A1
330
22
100
AcDbEntity
  8
_2-7_ビス
  6
Continuous
 62
     7
100
AcDbLine
 10
945.9282629634172
 20
392.9415552207508
 30
0.0
 11
946.2762952134177
 21
392.9588405014426
 31
0.0
  0
LINE
  5
3A2
330
22
100
AcDbEntity
  8
_2-7_ビス
  6
Continuous
 62
     7
100
AcDbLine
 10
946.4358849631377
 20
393.2062089223422
 30
0.0
 11
945.9282628112941
 21
394.0307703253422
 31
0.0
  0
LINE
  5
3A3
330
22
100
AcDbEntity
  8
_2-7_ビス
  6
Continuous
 62
     7
100
AcDbLine
 10
945.9282628112941
 20
394.0307703253422
 30
0.0
 11
945.9282629634172
 21
394.5255071671425
 31
0.0
  0
LINE
  5
3A4
330
22
100
AcDbEntity
  8
_2-7_ビス
  6
Continuous
 62
     7
100
AcDbLine
 10
946.1987804634178
 20
386.6921738386423
 30
0.0
 11
946.0644217134165
 21
386.6921738386423
 31
0.0
  0
LINE
  5
3A5
330
22
100
AcDbEntity
  8
_2-7_ビス
  6
Continuous
 62
     7
100
AcDbLine
 10
946.0644217134165
 20
386.6921738386423
 30
0.0
 11
946.0644217134165
 21
385.9088405057918
 31
0.0
  0
LINE
  5
3A6
330
22
100
AcDbEntity
  8
_2-7_ビス
  6
Continuous
 62
     7
100
AcDbLine
 10
946.0644217134165
 20
385.9088405057918
 30
0.0
 11
946.2144217134175
 21
385.9088405057918
 31
0.0
  0
LINE
  5
3A7
330
22
100
AcDbEntity
  8
_2-7_ビス
  6
Continuous
 62
     7
100
AcDbLine
 10
946.2144217134175
 20
385.9088405057918
 30
0.0
 11
946.2144217134175
 21
384.3009457699424
 31
0.0
  0
LINE
  5
3A8
330
22
100
AcDbEntity
  8
_2-7_ビス
  6
Continuous
 62
     7
100
AcDbLine
 10
946.2144217134175
 20
384.3009457699424
 30
0.0
 11
946.2208885242178
 21
384.3009457699424
 31
0.0
  0
LINE
  5
3A9
330
22
100
AcDbEntity
  8
_2-7_ビス
  6
Continuous
 62
     7
100
AcDbLine
 10
946.2711637134168
 20
383.9711212087429
 30
0.0
 11
946.2711638599554
 21
378.0206796159228
 31
0.0
  0
LINE
  5
3AA
330
22
100
AcDbEntity
  8
_2-7_ビス
  6
Continuous
 62
     7
100
AcDbLine
 10
946.2711638599554
 20
378.0206796159228
 30
0.0
 11
946.7116012134169
 21
377.3692587917635
 31
0.0
  0
LINE
  5
3AB
330
22
100
AcDbEntity
  8
_2-7_ビス
  6
Continuous
 62
     7
100
AcDbLine
 10
946.7116012134169
 20
377.3692587917635
 30
0.0
 11
947.7144217134172
 21
376.0553317399428
 31
0.0
  0
LINE
  5
3AC
330
22
100
AcDbEntity
  8
_2-7_ビス
  6
Continuous
 62
     7
100
AcDbLine
 10
947.7144217134172
 20
376.0553317399428
 30
0.0
 11
947.8638001929116
 21
376.0553317399428
 31
0.0
  0
LINE
  5
3AD
330
22
100
AcDbEntity
  8
_2-7_ビス
  6
Continuous
 62
     7
100
AcDbLine
 10
947.8638001929116
 20
376.0553317399428
 30
0.0
 11
946.7787060835972
 21
378.0206796159228
 31
0.0
  0
LINE
  5
3AE
330
22
100
AcDbEntity
  8
_2-7_ビス
  6
Continuous
 62
     7
100
AcDbLine
 10
946.7787060835972
 20
378.0206796159228
 30
0.0
 11
946.7787059634165
 21
381.9921738415423
 31
0.0
  0
LINE
  5
3AF
330
22
100
AcDbEntity
  8
_2-7_ビス
  6
Continuous
 62
     7
100
AcDbLine
 10
947.3620694634163
 20
381.9921738415423
 30
0.0
 11
947.3620691899848
 21
378.0206797686214
 31
0.0
  0
LINE
  5
3B0
330
22
100
AcDbEntity
  8
_2-7_ビス
  6
Continuous
 62
     7
100
AcDbLine
 10
947.3620691899848
 20
378.0206797686214
 30
0.0
 11
948.4471635552187
 21
376.0553317399428
 31
0.0
  0
LINE
  5
3B1
330
22
100
AcDbEntity
  8
_2-7_ビス
  6
Continuous
 62
     7
100
AcDbLine
 10
948.4471635552187
 20
376.0553317399428
 30
0.0
 11
949.0644217134173
 21
376.0553317399428
 31
0.0
  0
LINE
  5
3B2
330
22
100
AcDbEntity
  8
_2-7_ビス
  6
Continuous
 62
     7
100
AcDbLine
 10
946.367530463417
 20
408.6255071584418
 30
0.0
 11
946.367530463417
 21
408.6255071584418
 31
0.0
  0
LINE
  5
3B3
330
22
100
AcDbEntity
  8
_2-7_ビス
  6
Continuous
 62
     7
100
AcDbLine
 10
946.367530463417
 20
408.6255071584418
 30
0.0
 11
946.3944889143176
 21
408.630160943157
 31
0.0
  0
LINE
  5
3B4
330
22
100
AcDbEntity
  8
_2-7_ビス
  6
Continuous
 62
     7
100
AcDbLine
 10
946.3944889143176
 20
408.630160943157
 30
0.0
 11
946.4203027593304
 21
408.639890703287
 31
0.0
  0
LINE
  5
3B5
330
22
100
AcDbEntity
  8
_2-7_ビス
  6
Continuous
 62
     7
100
AcDbLine
 10
946.4203027593304
 20
408.639890703287
 30
0.0
 11
946.4441876578382
 21
408.6544008049935
 31
0.0
  0
LINE
  5
3B6
330
22
100
AcDbEntity
  8
_2-7_ビス
  6
Continuous
 62
     7
100
AcDbLine
 10
946.4441876578382
 20
408.6544008049935
 30
0.0
 11
946.4654178792848
 21
408.6732503661789
 31
0.0
  0
LINE
  5
3B7
330
22
100
AcDbEntity
  8
_2-7_ビス
  6
Continuous
 62
     7
100
AcDbLine
 10
946.4654178792848
 20
408.6732503661789
 30
0.0
 11
946.4833483541353
 21
408.6958666524646
 31
0.0
  0
LINE
  5
3B8
330
22
100
AcDbEntity
  8
_2-7_ビス
  6
Continuous
 62
     7
100
AcDbLine
 10
946.4833483541353
 20
408.6958666524646
 30
0.0
 11
946.4974342739846
 21
408.7215624794365
 31
0.0
  0
LINE
  5
3B9
330
22
100
AcDbEntity
  8
_2-7_ビス
  6
Continuous
 62
     7
100
AcDbLine
 10
946.4974342739846
 20
408.7215624794365
 30
0.0
 11
946.5072476452862
 21
408.7495570923945
 31
0.0
  0
LINE
  5
3BA
330
22
100
AcDbEntity
  8
_2-7_ビス
  6
Continuous
 62
     7
100
AcDbLine
 10
946.5072476452862
 20
408.7495570923945
 30
0.0
 11
946.5124902937178
 21
408.7789998891902
 31
0.0
  0
LINE
  5
3BB
330
22
100
AcDbEntity
  8
_2-7_ビス
  6
Continuous
 62
     7
100
AcDbLine
 10
946.5124902937178
 20
408.7789998891902
 30
0.0
 11
946.5130029240608
 21
408.8089962653413
 31
0.0
  0
LINE
  5
3BC
330
22
100
AcDbEntity
  8
_2-7_ビス
  6
Continuous
 62
     7
100
AcDbLine
 10
946.5130029240608
 20
408.8089962653413
 30
0.0
 11
946.508769960301
 21
408.8386347961377
 31
0.0
  0
LINE
  5
3BD
330
22
100
AcDbEntity
  8
_2-7_ビス
  6
Continuous
 62
     7
100
AcDbLine
 10
946.508769960301
 20
408.8386347961377
 30
0.0
 11
946.499920018901
 21
408.8670149298188
 31
0.0
  0
LINE
  5
3BE
330
22
100
AcDbEntity
  8
_2-7_ビス
  6
Continuous
 62
     7
100
AcDbLine
 10
946.499920018901
 20
408.8670149298188
 30
0.0
 11
946.4867220008512
 21
408.8932743503837
 31
0.0
  0
LINE
  5
3BF
330
22
100
AcDbEntity
  8
_2-7_ビス
  6
Continuous
 62
     7
100
AcDbLine
 10
946.4867220008512
 20
408.8932743503837
 30
0.0
 11
946.4867216083341
 21
408.893274992008
 31
0.0
  0
LINE
  5
3C0
330
22
100
AcDbEntity
  8
_2-7_ビス
  6
Continuous
 62
     7
100
AcDbLine
 10
946.2762952134177
 20
407.0588404927423
 30
0.0
 11
946.2762952134177
 21
407.0588404927423
 31
0.0
  0
LINE
  5
3C1
330
22
100
AcDbEntity
  8
_2-7_ビス
  6
Continuous
 62
     7
100
AcDbLine
 10
946.2762952134177
 20
407.0588404927423
 30
0.0
 11
946.3108184417528
 21
407.0713540430014
 31
0.0
  0
LINE
  5
3C2
330
22
100
AcDbEntity
  8
_2-7_ビス
  6
Continuous
 62
     7
100
AcDbLine
 10
946.3108184417528
 20
407.0713540430014
 30
0.0
 11
946.3428407201057
 21
407.0902683637795
 31
0.0
  0
LINE
  5
3C3
330
22
100
AcDbEntity
  8
_2-7_ビス
  6
Continuous
 62
     7
100
AcDbLine
 10
946.3428407201057
 20
407.0902683637795
 30
0.0
 11
946.3713890677533
 21
407.1150087530108
 31
0.0
  0
LINE
  5
3C4
330
22
100
AcDbEntity
  8
_2-7_ビス
  6
Continuous
 62
     7
100
AcDbLine
 10
946.3713890677533
 20
407.1150087530108
 30
0.0
 11
946.3955960575983
 21
407.144823486488
 31
0.0
  0
LINE
  5
3C5
330
22
100
AcDbEntity
  8
_2-7_ビス
  6
Continuous
 62
     7
100
AcDbLine
 10
946.3955960575983
 20
407.144823486488
 30
0.0
 11
946.4147261725031
 21
407.1788066586212
 31
0.0
  0
LINE
  5
3C6
330
22
100
AcDbEntity
  8
_2-7_ビス
  6
Continuous
 62
     7
100
AcDbLine
 10
946.4147261725031
 20
407.1788066586212
 30
0.0
 11
946.4281981536073
 21
407.2159257079216
 31
0.0
  0
LINE
  5
3C7
330
22
100
AcDbEntity
  8
_2-7_ビス
  6
Continuous
 62
     7
100
AcDbLine
 10
946.4281981536073
 20
407.2159257079216
 30
0.0
 11
946.4356026615821
 21
407.2550527908592
 31
0.0
  0
LINE
  5
3C8
330
22
100
AcDbEntity
  8
_2-7_ビス
  6
Continuous
 62
     7
100
AcDbLine
 10
946.4356026615821
 20
407.2550527908592
 30
0.0
 11
946.4367147141993
 21
407.2949990508183
 31
0.0
  0
LINE
  5
3C9
330
22
100
AcDbEntity
  8
_2-7_ビス
  6
Continuous
 62
     7
100
AcDbLine
 10
946.4367147141993
 20
407.2949990508183
 30
0.0
 11
946.4358849631384
 21
407.3062089136423
 31
0.0
  0
LINE
  5
3CA
330
22
100
AcDbEntity
  8
_2-7_ビス
  6
Continuous
 62
     7
100
AcDbLine
 10
946.2762952134177
 20
405.4921738270423
 30
0.0
 11
946.2762952134177
 21
405.4921738270423
 31
0.0
  0
LINE
  5
3CB
330
22
100
AcDbEntity
  8
_2-7_ビス
  6
Continuous
 62
     7
100
AcDbLine
 10
946.2762952134177
 20
405.4921738270423
 30
0.0
 11
946.3108184417528
 21
405.5046873773012
 31
0.0
  0
LINE
  5
3CC
330
22
100
AcDbEntity
  8
_2-7_ビス
  6
Continuous
 62
     7
100
AcDbLine
 10
946.3108184417528
 20
405.5046873773012
 30
0.0
 11
946.3428407201057
 21
405.5236016980794
 31
0.0
  0
LINE
  5
3CD
330
22
100
AcDbEntity
  8
_2-7_ビス
  6
Continuous
 62
     7
100
AcDbLine
 10
946.3428407201057
 20
405.5236016980794
 30
0.0
 11
946.3713890677533
 21
405.5483420873108
 31
0.0
  0
LINE
  5
3CE
330
22
100
AcDbEntity
  8
_2-7_ビス
  6
Continuous
 62
     7
100
AcDbLine
 10
946.3713890677533
 20
405.5483420873108
 30
0.0
 11
946.3955960575983
 21
405.578156820788
 31
0.0
  0
LINE
  5
3CF
330
22
100
AcDbEntity
  8
_2-7_ビス
  6
Continuous
 62
     7
100
AcDbLine
 10
946.3955960575983
 20
405.578156820788
 30
0.0
 11
946.4147261725031
 21
405.6121399929213
 31
0.0
  0
LINE
  5
3D0
330
22
100
AcDbEntity
  8
_2-7_ビス
  6
Continuous
 62
     7
100
AcDbLine
 10
946.4147261725031
 20
405.6121399929213
 30
0.0
 11
946.4281981536073
 21
405.6492590422216
 31
0.0
  0
LINE
  5
3D1
330
22
100
AcDbEntity
  8
_2-7_ビス
  6
Continuous
 62
     7
100
AcDbLine
 10
946.4281981536073
 20
405.6492590422216
 30
0.0
 11
946.4356026615821
 21
405.6883861251592
 31
0.0
  0
LINE
  5
3D2
330
22
100
AcDbEntity
  8
_2-7_ビス
  6
Continuous
 62
     7
100
AcDbLine
 10
946.4356026615821
 20
405.6883861251592
 30
0.0
 11
946.4367147141993
 21
405.7283323851183
 31
0.0
  0
LINE
  5
3D3
330
22
100
AcDbEntity
  8
_2-7_ビス
  6
Continuous
 62
     7
100
AcDbLine
 10
946.4367147141993
 20
405.7283323851183
 30
0.0
 11
946.4358849631384
 21
405.7395422479422
 31
0.0
  0
LINE
  5
3D4
330
22
100
AcDbEntity
  8
_2-7_ビス
  6
Continuous
 62
     7
100
AcDbLine
 10
946.219308354016
 20
403.9255071613422
 30
0.0
 11
946.219308354016
 21
403.9255071613422
 31
0.0
  0
LINE
  5
3D5
330
22
100
AcDbEntity
  8
_2-7_ビス
  6
Continuous
 62
     7
100
AcDbLine
 10
946.219308354016
 20
403.9255071613422
 30
0.0
 11
946.2538315823513
 21
403.9380207116012
 31
0.0
  0
LINE
  5
3D6
330
22
100
AcDbEntity
  8
_2-7_ビス
  6
Continuous
 62
     7
100
AcDbLine
 10
946.2538315823513
 20
403.9380207116012
 30
0.0
 11
946.2858538607042
 21
403.9569350323793
 31
0.0
  0
LINE
  5
3D7
330
22
100
AcDbEntity
  8
_2-7_ビス
  6
Continuous
 62
     7
100
AcDbLine
 10
946.2858538607042
 20
403.9569350323793
 30
0.0
 11
946.3144022083518
 21
403.9816754216108
 31
0.0
  0
LINE
  5
3D8
330
22
100
AcDbEntity
  8
_2-7_ビス
  6
Continuous
 62
     7
100
AcDbLine
 10
946.3144022083518
 20
403.9816754216108
 30
0.0
 11
946.3386091981965
 21
404.011490155088
 31
0.0
  0
LINE
  5
3D9
330
22
100
AcDbEntity
  8
_2-7_ビス
  6
Continuous
 62
     7
100
AcDbLine
 10
946.3386091981965
 20
404.011490155088
 30
0.0
 11
946.3577393131016
 21
404.0454733272212
 31
0.0
  0
LINE
  5
3DA
330
22
100
AcDbEntity
  8
_2-7_ビス
  6
Continuous
 62
     7
100
AcDbLine
 10
946.3577393131016
 20
404.0454733272212
 30
0.0
 11
946.3712112942058
 21
404.0825923765216
 31
0.0
  0
LINE
  5
3DB
330
22
100
AcDbEntity
  8
_2-7_ビス
  6
Continuous
 62
     7
100
AcDbLine
 10
946.3712112942058
 20
404.0825923765216
 30
0.0
 11
946.3786158021804
 21
404.1217194594591
 31
0.0
  0
LINE
  5
3DC
330
22
100
AcDbEntity
  8
_2-7_ビス
  6
Continuous
 62
     7
100
AcDbLine
 10
946.3786158021804
 20
404.1217194594591
 30
0.0
 11
946.3797278547978
 21
404.1616657194182
 31
0.0
  0
LINE
  5
3DD
330
22
100
AcDbEntity
  8
_2-7_ビス
  6
Continuous
 62
     7
100
AcDbLine
 10
946.3797278547978
 20
404.1616657194182
 30
0.0
 11
946.3788981037369
 21
404.1728755822423
 31
0.0
  0
LINE
  5
3DE
330
22
100
AcDbEntity
  8
_2-7_ビス
  6
Continuous
 62
     7
100
AcDbLine
 10
946.2762952134177
 20
400.7921738299421
 30
0.0
 11
946.2762952134177
 21
400.7921738299421
 31
0.0
  0
LINE
  5
3DF
330
22
100
AcDbEntity
  8
_2-7_ビス
  6
Continuous
 62
     7
100
AcDbLine
 10
946.2762952134177
 20
400.7921738299421
 30
0.0
 11
946.3108184417528
 21
400.8046873802012
 31
0.0
  0
LINE
  5
3E0
330
22
100
AcDbEntity
  8
_2-7_ビス
  6
Continuous
 62
     7
100
AcDbLine
 10
946.3108184417528
 20
400.8046873802012
 30
0.0
 11
946.3428407201057
 21
400.8236017009793
 31
0.0
  0
LINE
  5
3E1
330
22
100
AcDbEntity
  8
_2-7_ビス
  6
Continuous
 62
     7
100
AcDbLine
 10
946.3428407201057
 20
400.8236017009793
 30
0.0
 11
946.3713890677533
 21
400.8483420902107
 31
0.0
  0
LINE
  5
3E2
330
22
100
AcDbEntity
  8
_2-7_ビス
  6
Continuous
 62
     7
100
AcDbLine
 10
946.3713890677533
 20
400.8483420902107
 30
0.0
 11
946.3955960575983
 21
400.8781568236879
 31
0.0
  0
LINE
  5
3E3
330
22
100
AcDbEntity
  8
_2-7_ビス
  6
Continuous
 62
     7
100
AcDbLine
 10
946.3955960575983
 20
400.8781568236879
 30
0.0
 11
946.4147261725031
 21
400.9121399958211
 31
0.0
  0
LINE
  5
3E4
330
22
100
AcDbEntity
  8
_2-7_ビス
  6
Continuous
 62
     7
100
AcDbLine
 10
946.4147261725031
 20
400.9121399958211
 30
0.0
 11
946.4281981536073
 21
400.9492590451215
 31
0.0
  0
LINE
  5
3E5
330
22
100
AcDbEntity
  8
_2-7_ビス
  6
Continuous
 62
     7
100
AcDbLine
 10
946.4281981536073
 20
400.9492590451215
 30
0.0
 11
946.4356026615821
 21
400.9883861280592
 31
0.0
  0
LINE
  5
3E6
330
22
100
AcDbEntity
  8
_2-7_ビス
  6
Continuous
 62
     7
100
AcDbLine
 10
946.4356026615821
 20
400.9883861280592
 30
0.0
 11
946.4367147141993
 21
401.028332388018
 31
0.0
  0
LINE
  5
3E7
330
22
100
AcDbEntity
  8
_2-7_ビス
  6
Continuous
 62
     7
100
AcDbLine
 10
946.4367147141993
 20
401.028332388018
 30
0.0
 11
946.4358849631384
 21
401.0395422508421
 31
0.0
  0
LINE
  5
3E8
330
22
100
AcDbEntity
  8
_2-7_ビス
  6
Continuous
 62
     7
100
AcDbLine
 10
946.2762952134177
 20
399.2255071642421
 30
0.0
 11
946.2762952134177
 21
399.2255071642421
 31
0.0
  0
LINE
  5
3E9
330
22
100
AcDbEntity
  8
_2-7_ビス
  6
Continuous
 62
     7
100
AcDbLine
 10
946.2762952134177
 20
399.2255071642421
 30
0.0
 11
946.3108184417528
 21
399.2380207145012
 31
0.0
  0
LINE
  5
3EA
330
22
100
AcDbEntity
  8
_2-7_ビス
  6
Continuous
 62
     7
100
AcDbLine
 10
946.3108184417528
 20
399.2380207145012
 30
0.0
 11
946.3428407201057
 21
399.2569350352793
 31
0.0
  0
LINE
  5
3EB
330
22
100
AcDbEntity
  8
_2-7_ビス
  6
Continuous
 62
     7
100
AcDbLine
 10
946.3428407201057
 20
399.2569350352793
 30
0.0
 11
946.3713890677533
 21
399.2816754245106
 31
0.0
  0
LINE
  5
3EC
330
22
100
AcDbEntity
  8
_2-7_ビス
  6
Continuous
 62
     7
100
AcDbLine
 10
946.3713890677533
 20
399.2816754245106
 30
0.0
 11
946.3955960575983
 21
399.3114901579879
 31
0.0
  0
LINE
  5
3ED
330
22
100
AcDbEntity
  8
_2-7_ビス
  6
Continuous
 62
     7
100
AcDbLine
 10
946.3955960575983
 20
399.3114901579879
 30
0.0
 11
946.4147261725031
 21
399.3454733301211
 31
0.0
  0
LINE
  5
3EE
330
22
100
AcDbEntity
  8
_2-7_ビス
  6
Continuous
 62
     7
100
AcDbLine
 10
946.4147261725031
 20
399.3454733301211
 30
0.0
 11
946.4281981536073
 21
399.3825923794215
 31
0.0
  0
LINE
  5
3EF
330
22
100
AcDbEntity
  8
_2-7_ビス
  6
Continuous
 62
     7
100
AcDbLine
 10
946.4281981536073
 20
399.3825923794215
 30
0.0
 11
946.4356026615821
 21
399.4217194623591
 31
0.0
  0
LINE
  5
3F0
330
22
100
AcDbEntity
  8
_2-7_ビス
  6
Continuous
 62
     7
100
AcDbLine
 10
946.4356026615821
 20
399.4217194623591
 30
0.0
 11
946.4367147141993
 21
399.4616657223181
 31
0.0
  0
LINE
  5
3F1
330
22
100
AcDbEntity
  8
_2-7_ビス
  6
Continuous
 62
     7
100
AcDbLine
 10
946.4367147141993
 20
399.4616657223181
 30
0.0
 11
946.4358849631384
 21
399.472875585142
 31
0.0
  0
LINE
  5
3F2
330
22
100
AcDbEntity
  8
_2-7_ビス
  6
Continuous
 62
     7
100
AcDbLine
 10
946.2762952134177
 20
397.6588404985421
 30
0.0
 11
946.2762952134177
 21
397.6588404985421
 31
0.0
  0
LINE
  5
3F3
330
22
100
AcDbEntity
  8
_2-7_ビス
  6
Continuous
 62
     7
100
AcDbLine
 10
946.2762952134177
 20
397.6588404985421
 30
0.0
 11
946.3108184417528
 21
397.6713540488011
 31
0.0
  0
LINE
  5
3F4
330
22
100
AcDbEntity
  8
_2-7_ビス
  6
Continuous
 62
     7
100
AcDbLine
 10
946.3108184417528
 20
397.6713540488011
 30
0.0
 11
946.3428407201057
 21
397.6902683695793
 31
0.0
  0
LINE
  5
3F5
330
22
100
AcDbEntity
  8
_2-7_ビス
  6
Continuous
 62
     7
100
AcDbLine
 10
946.3428407201057
 20
397.6902683695793
 30
0.0
 11
946.3713890677533
 21
397.7150087588107
 31
0.0
  0
LINE
  5
3F6
330
22
100
AcDbEntity
  8
_2-7_ビス
  6
Continuous
 62
     7
100
AcDbLine
 10
946.3713890677533
 20
397.7150087588107
 30
0.0
 11
946.3955960575983
 21
397.7448234922879
 31
0.0
  0
LINE
  5
3F7
330
22
100
AcDbEntity
  8
_2-7_ビス
  6
Continuous
 62
     7
100
AcDbLine
 10
946.3955960575983
 20
397.7448234922879
 30
0.0
 11
946.4147261725031
 21
397.7788066644212
 31
0.0
  0
LINE
  5
3F8
330
22
100
AcDbEntity
  8
_2-7_ビス
  6
Continuous
 62
     7
100
AcDbLine
 10
946.4147261725031
 20
397.7788066644212
 30
0.0
 11
946.4281981536073
 21
397.8159257137215
 31
0.0
  0
LINE
  5
3F9
330
22
100
AcDbEntity
  8
_2-7_ビス
  6
Continuous
 62
     7
100
AcDbLine
 10
946.4281981536073
 20
397.8159257137215
 30
0.0
 11
946.4356026615821
 21
397.8550527966589
 31
0.0
  0
LINE
  5
3FA
330
22
100
AcDbEntity
  8
_2-7_ビス
  6
Continuous
 62
     7
100
AcDbLine
 10
946.4356026615821
 20
397.8550527966589
 30
0.0
 11
946.4367147141993
 21
397.894999056618
 31
0.0
  0
LINE
  5
3FB
330
22
100
AcDbEntity
  8
_2-7_ビス
  6
Continuous
 62
     7
100
AcDbLine
 10
946.4367147141993
 20
397.894999056618
 30
0.0
 11
946.4358849631384
 21
397.9062089194421
 31
0.0
  0
LINE
  5
3FC
330
22
100
AcDbEntity
  8
_2-7_ビス
  6
Continuous
 62
     7
100
AcDbLine
 10
946.2190156418433
 20
396.0921738328421
 30
0.0
 11
946.2190156418433
 21
396.0921738328421
 31
0.0
  0
LINE
  5
3FD
330
22
100
AcDbEntity
  8
_2-7_ビス
  6
Continuous
 62
     7
100
AcDbLine
 10
946.2190156418433
 20
396.0921738328421
 30
0.0
 11
946.2535388701784
 21
396.1046873831011
 31
0.0
  0
LINE
  5
3FE
330
22
100
AcDbEntity
  8
_2-7_ビス
  6
Continuous
 62
     7
100
AcDbLine
 10
946.2535388701784
 20
396.1046873831011
 30
0.0
 11
946.2855611485315
 21
396.1236017038792
 31
0.0
  0
LINE
  5
3FF
330
22
100
AcDbEntity
  8
_2-7_ビス
  6
Continuous
 62
     7
100
AcDbLine
 10
946.2855611485315
 20
396.1236017038792
 30
0.0
 11
946.3141094961791
 21
396.1483420931106
 31
0.0
  0
LINE
  5
400
330
22
100
AcDbEntity
  8
_2-7_ビス
  6
Continuous
 62
     7
100
AcDbLine
 10
946.3141094961791
 20
396.1483420931106
 30
0.0
 11
946.3383164860241
 21
396.1781568265879
 31
0.0
  0
LINE
  5
401
330
22
100
AcDbEntity
  8
_2-7_ビス
  6
Continuous
 62
     7
100
AcDbLine
 10
946.3383164860241
 20
396.1781568265879
 30
0.0
 11
946.3574466009289
 21
396.2121399987211
 31
0.0
  0
LINE
  5
402
330
22
100
AcDbEntity
  8
_2-7_ビス
  6
Continuous
 62
     7
100
AcDbLine
 10
946.3574466009289
 20
396.2121399987211
 30
0.0
 11
946.3709185820333
 21
396.2492590480214
 31
0.0
  0
LINE
  5
403
330
22
100
AcDbEntity
  8
_2-7_ビス
  6
Continuous
 62
     7
100
AcDbLine
 10
946.3709185820333
 20
396.2492590480214
 30
0.0
 11
946.3783230900078
 21
396.2883861309589
 31
0.0
  0
LINE
  5
404
330
22
100
AcDbEntity
  8
_2-7_ビス
  6
Continuous
 62
     7
100
AcDbLine
 10
946.3783230900078
 20
396.2883861309589
 30
0.0
 11
946.3794351426248
 21
396.328332390918
 31
0.0
  0
LINE
  5
405
330
22
100
AcDbEntity
  8
_2-7_ビス
  6
Continuous
 62
     7
100
AcDbLine
 10
946.3794351426248
 20
396.328332390918
 30
0.0
 11
946.378605391564
 21
396.339542253742
 31
0.0
  0
LINE
  5
406
330
22
100
AcDbEntity
  8
_2-7_ビス
  6
Continuous
 62
     7
100
AcDbLine
 10
946.2762952134177
 20
392.958840501442
 30
0.0
 11
946.2762952134177
 21
392.958840501442
 31
0.0
  0
LINE
  5
407
330
22
100
AcDbEntity
  8
_2-7_ビス
  6
Continuous
 62
     7
100
AcDbLine
 10
946.2762952134177
 20
392.958840501442
 30
0.0
 11
946.3108184417528
 21
392.971354051701
 31
0.0
  0
LINE
  5
408
330
22
100
AcDbEntity
  8
_2-7_ビス
  6
Continuous
 62
     7
100
AcDbLine
 10
946.3108184417528
 20
392.971354051701
 30
0.0
 11
946.3428407201057
 21
392.9902683724792
 31
0.0
  0
LINE
  5
409
330
22
100
AcDbEntity
  8
_2-7_ビス
  6
Continuous
 62
     7
100
AcDbLine
 10
946.3428407201057
 20
392.9902683724792
 30
0.0
 11
946.3713890677533
 21
393.0150087617105
 31
0.0
  0
LINE
  5
40A
330
22
100
AcDbEntity
  8
_2-7_ビス
  6
Continuous
 62
     7
100
AcDbLine
 10
946.3713890677533
 20
393.0150087617105
 30
0.0
 11
946.3955960575983
 21
393.0448234951878
 31
0.0
  0
LINE
  5
40B
330
22
100
AcDbEntity
  8
_2-7_ビス
  6
Continuous
 62
     7
100
AcDbLine
 10
946.3955960575983
 20
393.0448234951878
 30
0.0
 11
946.4147261725031
 21
393.0788066673209
 31
0.0
  0
LINE
  5
40C
330
22
100
AcDbEntity
  8
_2-7_ビス
  6
Continuous
 62
     7
100
AcDbLine
 10
946.4147261725031
 20
393.0788066673209
 30
0.0
 11
946.4281981536073
 21
393.1159257166212
 31
0.0
  0
LINE
  5
40D
330
22
100
AcDbEntity
  8
_2-7_ビス
  6
Continuous
 62
     7
100
AcDbLine
 10
946.4281981536073
 20
393.1159257166212
 30
0.0
 11
946.4356026615821
 21
393.1550527995589
 31
0.0
  0
LINE
  5
40E
330
22
100
AcDbEntity
  8
_2-7_ビス
  6
Continuous
 62
     7
100
AcDbLine
 10
946.4356026615821
 20
393.1550527995589
 30
0.0
 11
946.4367147141993
 21
393.1949990595179
 31
0.0
  0
LINE
  5
40F
330
22
100
AcDbEntity
  8
_2-7_ビス
  6
Continuous
 62
     7
100
AcDbLine
 10
946.4367147141993
 20
393.1949990595179
 30
0.0
 11
946.4358849631384
 21
393.2062089223419
 31
0.0
  0
LINE
  5
410
330
22
100
AcDbEntity
  8
_2-7_ビス
  6
Continuous
 62
     7
100
AcDbLine
 10
946.2440151623233
 20
391.392173835742
 30
0.0
 11
946.2440151623233
 21
391.392173835742
 31
0.0
  0
LINE
  5
411
330
22
100
AcDbEntity
  8
_2-7_ビス
  6
Continuous
 62
     7
100
AcDbLine
 10
946.2440151623233
 20
391.392173835742
 30
0.0
 11
946.2785383906577
 21
391.4046873860009
 31
0.0
  0
LINE
  5
412
330
22
100
AcDbEntity
  8
_2-7_ビス
  6
Continuous
 62
     7
100
AcDbLine
 10
946.2785383906577
 20
391.4046873860009
 30
0.0
 11
946.3105606690112
 21
391.4236017067791
 31
0.0
  0
LINE
  5
413
330
22
100
AcDbEntity
  8
_2-7_ビス
  6
Continuous
 62
     7
100
AcDbLine
 10
946.3105606690112
 20
391.4236017067791
 30
0.0
 11
946.3391090166588
 21
391.4483420960105
 31
0.0
  0
LINE
  5
414
330
22
100
AcDbEntity
  8
_2-7_ビス
  6
Continuous
 62
     7
100
AcDbLine
 10
946.3391090166588
 20
391.4483420960105
 30
0.0
 11
946.3633160065036
 21
391.4781568294877
 31
0.0
  0
LINE
  5
415
330
22
100
AcDbEntity
  8
_2-7_ビス
  6
Continuous
 62
     7
100
AcDbLine
 10
946.3633160065036
 20
391.4781568294877
 30
0.0
 11
946.3824461214088
 21
391.5121400016209
 31
0.0
  0
LINE
  5
416
330
22
100
AcDbEntity
  8
_2-7_ビス
  6
Continuous
 62
     7
100
AcDbLine
 10
946.3824461214088
 20
391.5121400016209
 30
0.0
 11
946.3959181025128
 21
391.5492590509213
 31
0.0
  0
LINE
  5
417
330
22
100
AcDbEntity
  8
_2-7_ビス
  6
Continuous
 62
     7
100
AcDbLine
 10
946.3959181025128
 20
391.5492590509213
 30
0.0
 11
946.4033226104875
 21
391.5883861338588
 31
0.0
  0
LINE
  5
418
330
22
100
AcDbEntity
  8
_2-7_ビス
  6
Continuous
 62
     7
100
AcDbLine
 10
946.4033226104875
 20
391.5883861338588
 30
0.0
 11
946.4044346631045
 21
391.6283323938178
 31
0.0
  0
LINE
  5
419
330
22
100
AcDbEntity
  8
_2-7_ビス
  6
Continuous
 62
     7
100
AcDbLine
 10
946.4044346631045
 20
391.6283323938178
 30
0.0
 11
946.4036049120434
 21
391.6395422566418
 31
0.0
  0
LINE
  5
41A
330
22
100
AcDbEntity
  8
_2-7_ビス
  6
Continuous
 62
     7
100
AcDbLine
 10
946.2119122095149
 20
389.8255071700418
 30
0.0
 11
946.2119122095149
 21
389.8255071700418
 31
0.0
  0
LINE
  5
41B
330
22
100
AcDbEntity
  8
_2-7_ビス
  6
Continuous
 62
     7
100
AcDbLine
 10
946.2119122095149
 20
389.8255071700418
 30
0.0
 11
946.2464354378495
 21
389.8380207203009
 31
0.0
  0
LINE
  5
41C
330
22
100
AcDbEntity
  8
_2-7_ビス
  6
Continuous
 62
     7
100
AcDbLine
 10
946.2464354378495
 20
389.8380207203009
 30
0.0
 11
946.2784577162029
 21
389.8569350410791
 31
0.0
  0
LINE
  5
41D
330
22
100
AcDbEntity
  8
_2-7_ビス
  6
Continuous
 62
     7
100
AcDbLine
 10
946.2784577162029
 20
389.8569350410791
 30
0.0
 11
946.3070060638505
 21
389.8816754303105
 31
0.0
  0
LINE
  5
41E
330
22
100
AcDbEntity
  8
_2-7_ビス
  6
Continuous
 62
     7
100
AcDbLine
 10
946.3070060638505
 20
389.8816754303105
 30
0.0
 11
946.3312130536952
 21
389.9114901637877
 31
0.0
  0
LINE
  5
41F
330
22
100
AcDbEntity
  8
_2-7_ビス
  6
Continuous
 62
     7
100
AcDbLine
 10
946.3312130536952
 20
389.9114901637877
 30
0.0
 11
946.3503431686001
 21
389.9454733359209
 31
0.0
  0
LINE
  5
420
330
22
100
AcDbEntity
  8
_2-7_ビス
  6
Continuous
 62
     7
100
AcDbLine
 10
946.3503431686001
 20
389.9454733359209
 30
0.0
 11
946.3638151497045
 21
389.9825923852212
 31
0.0
  0
LINE
  5
421
330
22
100
AcDbEntity
  8
_2-7_ビス
  6
Continuous
 62
     7
100
AcDbLine
 10
946.3638151497045
 20
389.9825923852212
 30
0.0
 11
946.3712196576793
 21
390.0217194681588
 31
0.0
  0
LINE
  5
422
330
22
100
AcDbEntity
  8
_2-7_ビス
  6
Continuous
 62
     7
100
AcDbLine
 10
946.3712196576793
 20
390.0217194681588
 30
0.0
 11
946.372331710296
 21
390.0616657281178
 31
0.0
  0
LINE
  5
423
330
22
100
AcDbEntity
  8
_2-7_ビス
  6
Continuous
 62
     7
100
AcDbLine
 10
946.372331710296
 20
390.0616657281178
 30
0.0
 11
946.3715019592354
 21
390.0728755909419
 31
0.0
  0
LINE
  5
424
330
22
100
AcDbEntity
  8
_2-7_ビス
  6
Continuous
 62
     7
100
AcDbLine
 10
946.189597278485
 20
388.258840504343
 30
0.0
 11
946.189597278485
 21
388.258840504343
 31
0.0
  0
LINE
  5
425
330
22
100
AcDbEntity
  8
_2-7_ビス
  6
Continuous
 62
     7
100
AcDbLine
 10
946.189597278485
 20
388.258840504343
 30
0.0
 11
946.2241205068201
 21
388.271354054602
 31
0.0
  0
LINE
  5
426
330
22
100
AcDbEntity
  8
_2-7_ビス
  6
Continuous
 62
     7
100
AcDbLine
 10
946.2241205068201
 20
388.271354054602
 30
0.0
 11
946.2561427851731
 21
388.2902683753802
 31
0.0
  0
LINE
  5
427
330
22
100
AcDbEntity
  8
_2-7_ビス
  6
Continuous
 62
     7
100
AcDbLine
 10
946.2561427851731
 20
388.2902683753802
 30
0.0
 11
946.2846911328208
 21
388.3150087646116
 31
0.0
  0
LINE
  5
428
330
22
100
AcDbEntity
  8
_2-7_ビス
  6
Continuous
 62
     7
100
AcDbLine
 10
946.2846911328208
 20
388.3150087646116
 30
0.0
 11
946.3088981226656
 21
388.3448234980889
 31
0.0
  0
LINE
  5
429
330
22
100
AcDbEntity
  8
_2-7_ビス
  6
Continuous
 62
     7
100
AcDbLine
 10
946.3088981226656
 20
388.3448234980889
 30
0.0
 11
946.3280282375707
 21
388.378806670222
 31
0.0
  0
LINE
  5
42A
330
22
100
AcDbEntity
  8
_2-7_ビス
  6
Continuous
 62
     7
100
AcDbLine
 10
946.3280282375707
 20
388.378806670222
 30
0.0
 11
946.3415002186749
 21
388.4159257195223
 31
0.0
  0
LINE
  5
42B
330
22
100
AcDbEntity
  8
_2-7_ビス
  6
Continuous
 62
     7
100
AcDbLine
 10
946.3415002186749
 20
388.4159257195223
 30
0.0
 11
946.3489047266495
 21
388.4550528024599
 31
0.0
  0
LINE
  5
42C
330
22
100
AcDbEntity
  8
_2-7_ビス
  6
Continuous
 62
     7
100
AcDbLine
 10
946.3489047266495
 20
388.4550528024599
 30
0.0
 11
946.3500167792664
 21
388.4949990624189
 31
0.0
  0
LINE
  5
42D
330
22
100
AcDbEntity
  8
_2-7_ビス
  6
Continuous
 62
     7
100
AcDbLine
 10
946.3500167792664
 20
388.4949990624189
 30
0.0
 11
946.3491870282057
 21
388.5062089252429
 31
0.0
  0
LINE
  5
42E
330
22
100
AcDbEntity
  8
_2-7_ビス
  6
Continuous
 62
     7
100
AcDbLine
 10
946.1987804634171
 20
386.6921738386428
 30
0.0
 11
946.1987804634171
 21
386.6921738386428
 31
0.0
  0
LINE
  5
42F
330
22
100
AcDbEntity
  8
_2-7_ビス
  6
Continuous
 62
     7
100
AcDbLine
 10
946.1987804634171
 20
386.6921738386428
 30
0.0
 11
946.2259263993558
 21
386.6972696574915
 31
0.0
  0
LINE
  5
430
330
22
100
AcDbEntity
  8
_2-7_ビス
  6
Continuous
 62
     7
100
AcDbLine
 10
946.2259263993558
 20
386.6972696574915
 30
0.0
 11
946.2518550635877
 21
386.7074705293031
 31
0.0
  0
LINE
  5
431
330
22
100
AcDbEntity
  8
_2-7_ビス
  6
Continuous
 62
     7
100
AcDbLine
 10
946.2518550635877
 20
386.7074705293031
 30
0.0
 11
946.2757786267705
 21
386.7224665057494
 31
0.0
  0
LINE
  5
432
330
22
100
AcDbEntity
  8
_2-7_ビス
  6
Continuous
 62
     7
100
AcDbLine
 10
946.2757786267705
 20
386.7224665057494
 30
0.0
 11
946.2969701835421
 21
386.7418019416745
 31
0.0
  0
LINE
  5
433
330
22
100
AcDbEntity
  8
_2-7_ビス
  6
Continuous
 62
     7
100
AcDbLine
 10
946.2969701835421
 20
386.7418019416745
 30
0.0
 11
946.3147858391742
 21
386.764889339642
 31
0.0
  0
LINE
  5
434
330
22
100
AcDbEntity
  8
_2-7_ビス
  6
Continuous
 62
     7
100
AcDbLine
 10
946.3147858391742
 20
386.764889339642
 30
0.0
 11
946.3286842739853
 21
386.7910272007475
 31
0.0
  0
LINE
  5
435
330
22
100
AcDbEntity
  8
_2-7_ビス
  6
Continuous
 62
     7
100
AcDbLine
 10
946.3286842739853
 20
386.7910272007475
 30
0.0
 11
946.3382431910664
 21
386.8194213393076
 31
0.0
  0
LINE
  5
436
330
22
100
AcDbEntity
  8
_2-7_ビス
  6
Continuous
 62
     7
100
AcDbLine
 10
946.3382431910664
 20
386.8194213393076
 30
0.0
 11
946.3431721475599
 21
386.8492090137903
 31
0.0
  0
LINE
  5
437
330
22
100
AcDbEntity
  8
_2-7_ビス
  6
Continuous
 62
     7
100
AcDbLine
 10
946.3431721475599
 20
386.8492090137903
 30
0.0
 11
946.3433213796156
 21
386.8794851407797
 31
0.0
  0
LINE
  5
438
330
22
100
AcDbEntity
  8
_2-7_ビス
  6
Continuous
 62
     7
100
AcDbLine
 10
946.3433213796156
 20
386.8794851407797
 30
0.0
 11
946.338686352894
 21
386.9093297954777
 31
0.0
  0
LINE
  5
439
330
22
100
AcDbEntity
  8
_2-7_ビス
  6
Continuous
 62
     7
100
AcDbLine
 10
946.338686352894
 20
386.9093297954777
 30
0.0
 11
946.3294079003363
 21
386.9378361631537
 31
0.0
  0
LINE
  5
43A
330
22
100
AcDbEntity
  8
_2-7_ビス
  6
Continuous
 62
     7
100
AcDbLine
 10
946.3294079003363
 20
386.9378361631537
 30
0.0
 11
946.3157679430286
 21
386.9641380922504
 31
0.0
  0
LINE
  5
43B
330
22
100
AcDbEntity
  8
_2-7_ビス
  6
Continuous
 62
     7
100
AcDbLine
 10
946.3157679430286
 20
386.9641380922504
 30
0.0
 11
946.3156844492711
 21
386.9642705805122
 31
0.0
  0
LINE
  5
43C
330
22
100
AcDbEntity
  8
_2-7_ビス
  6
Continuous
 62
     7
100
AcDbLine
 10
945.8956717134176
 20
394.5255071671425
 30
0.0
 11
945.8956717134176
 21
394.5255071671425
 31
0.0
  0
LINE
  5
43D
330
22
100
AcDbEntity
  8
_2-7_ビス
  6
Continuous
 62
     7
100
AcDbLine
 10
945.8956717134176
 20
394.5255071671425
 30
0.0
 11
945.9799975442114
 21
394.5377671237902
 31
0.0
  0
LINE
  5
43E
330
22
100
AcDbEntity
  8
_2-7_ビス
  6
Continuous
 62
     7
100
AcDbLine
 10
945.9799975442114
 20
394.5377671237902
 30
0.0
 11
946.0611058656695
 21
394.5659395904973
 31
0.0
  0
LINE
  5
43F
330
22
100
AcDbEntity
  8
_2-7_ビス
  6
Continuous
 62
     7
100
AcDbLine
 10
946.0611058656695
 20
394.5659395904973
 30
0.0
 11
946.1365322424876
 21
394.6091685611188
 31
0.0
  0
LINE
  5
440
330
22
100
AcDbEntity
  8
_2-7_ビス
  6
Continuous
 62
     7
100
AcDbLine
 10
946.1365322424876
 20
394.6091685611188
 30
0.0
 11
946.2039848823737
 21
394.6661405452573
 31
0.0
  0
LINE
  5
441
330
22
100
AcDbEntity
  8
_2-7_ビス
  6
Continuous
 62
     7
100
AcDbLine
 10
946.2039848823737
 20
394.6661405452573
 30
0.0
 11
946.2614142709966
 21
394.735124478004
 31
0.0
  0
LINE
  5
442
330
22
100
AcDbEntity
  8
_2-7_ビス
  6
Continuous
 62
     7
100
AcDbLine
 10
946.2614142709966
 20
394.735124478004
 30
0.0
 11
946.3070754454451
 21
394.8140243174698
 31
0.0
  0
LINE
  5
443
330
22
100
AcDbEntity
  8
_2-7_ビス
  6
Continuous
 62
     7
100
AcDbLine
 10
946.3070754454451
 20
394.8140243174698
 30
0.0
 11
946.3395810140383
 21
394.9004427319581
 31
0.0
  0
LINE
  5
444
330
22
100
AcDbEntity
  8
_2-7_ビス
  6
Continuous
 62
     7
100
AcDbLine
 10
946.3395810140383
 20
394.9004427319581
 30
0.0
 11
946.3579433115233
 21
394.9917539416742
 31
0.0
  0
LINE
  5
445
330
22
100
AcDbEntity
  8
_2-7_ビス
  6
Continuous
 62
     7
100
AcDbLine
 10
946.3579433115233
 20
394.9917539416742
 30
0.0
 11
946.3616044087832
 21
395.0851835017167
 31
0.0
  0
LINE
  5
446
330
22
100
AcDbEntity
  8
_2-7_ビス
  6
Continuous
 62
     7
100
AcDbLine
 10
946.3616044087832
 20
395.0851835017167
 30
0.0
 11
946.3504530652297
 21
395.1778926021813
 31
0.0
  0
LINE
  5
447
330
22
100
AcDbEntity
  8
_2-7_ビス
  6
Continuous
 62
     7
100
AcDbLine
 10
946.3504530652297
 20
395.1778926021813
 30
0.0
 11
946.3248281087938
 21
395.2670643239634
 31
0.0
  0
LINE
  5
448
330
22
100
AcDbEntity
  8
_2-7_ビス
  6
Continuous
 62
     7
100
AcDbLine
 10
946.3248281087938
 20
395.2670643239634
 30
0.0
 11
946.2855081408108
 21
395.3499892294199
 31
0.0
  0
LINE
  5
449
330
22
100
AcDbEntity
  8
_2-7_ビス
  6
Continuous
 62
     7
100
AcDbLine
 10
946.2855081408108
 20
395.3499892294199
 30
0.0
 11
946.2336878786103
 21
395.4241476872604
 31
0.0
  0
LINE
  5
44A
330
22
100
AcDbEntity
  8
_2-7_ビス
  6
Continuous
 62
     7
100
AcDbLine
 10
946.2336878786103
 20
395.4241476872604
 30
0.0
 11
946.1709418546371
 21
395.4872864302694
 31
0.0
  0
LINE
  5
44B
330
22
100
AcDbEntity
  8
_2-7_ビス
  6
Continuous
 62
     7
100
AcDbLine
 10
946.1709418546371
 20
395.4872864302694
 30
0.0
 11
946.0991765750785
 21
395.5374870196903
 31
0.0
  0
LINE
  5
44C
330
22
100
AcDbEntity
  8
_2-7_ビス
  6
Continuous
 62
     7
100
AcDbLine
 10
946.0991765750785
 20
395.5374870196903
 30
0.0
 11
946.0205725916393
 21
395.5732241360164
 31
0.0
  0
LINE
  5
44D
330
22
100
AcDbEntity
  8
_2-7_ビス
  6
Continuous
 62
     7
100
AcDbLine
 10
946.0205725916393
 20
395.5732241360164
 30
0.0
 11
945.9375182465803
 21
395.5934119250519
 31
0.0
  0
LINE
  5
44E
330
22
100
AcDbEntity
  8
_2-7_ビス
  6
Continuous
 62
     7
100
AcDbLine
 10
945.9375182465803
 20
395.5934119250519
 30
0.0
 11
945.8956717134176
 21
395.5974369910424
 31
0.0
  0
LINE
  5
44F
330
22
100
AcDbEntity
  8
_2-7_ビス
  6
Continuous
 62
     7
100
AcDbLine
 10
945.8956717134176
 20
402.3588404956425
 30
0.0
 11
945.8956717134176
 21
402.3588404956425
 31
0.0
  0
LINE
  5
450
330
22
100
AcDbEntity
  8
_2-7_ビス
  6
Continuous
 62
     7
100
AcDbLine
 10
945.8956717134176
 20
402.3588404956425
 30
0.0
 11
945.9799975442114
 21
402.3711004522903
 31
0.0
  0
LINE
  5
451
330
22
100
AcDbEntity
  8
_2-7_ビス
  6
Continuous
 62
     7
100
AcDbLine
 10
945.9799975442114
 20
402.3711004522903
 30
0.0
 11
946.0611058656695
 21
402.3992729189974
 31
0.0
  0
LINE
  5
452
330
22
100
AcDbEntity
  8
_2-7_ビス
  6
Continuous
 62
     7
100
AcDbLine
 10
946.0611058656695
 20
402.3992729189974
 30
0.0
 11
946.1365322424876
 21
402.442501889619
 31
0.0
  0
LINE
  5
453
330
22
100
AcDbEntity
  8
_2-7_ビス
  6
Continuous
 62
     7
100
AcDbLine
 10
946.1365322424876
 20
402.442501889619
 30
0.0
 11
946.2039848823737
 21
402.4994738737574
 31
0.0
  0
LINE
  5
454
330
22
100
AcDbEntity
  8
_2-7_ビス
  6
Continuous
 62
     7
100
AcDbLine
 10
946.2039848823737
 20
402.4994738737574
 30
0.0
 11
946.2614142709966
 21
402.5684578065042
 31
0.0
  0
LINE
  5
455
330
22
100
AcDbEntity
  8
_2-7_ビス
  6
Continuous
 62
     7
100
AcDbLine
 10
946.2614142709966
 20
402.5684578065042
 30
0.0
 11
946.3070754454451
 21
402.64735764597
 31
0.0
  0
LINE
  5
456
330
22
100
AcDbEntity
  8
_2-7_ビス
  6
Continuous
 62
     7
100
AcDbLine
 10
946.3070754454451
 20
402.64735764597
 30
0.0
 11
946.3395810140383
 21
402.7337760604583
 31
0.0
  0
LINE
  5
457
330
22
100
AcDbEntity
  8
_2-7_ビス
  6
Continuous
 62
     7
100
AcDbLine
 10
946.3395810140383
 20
402.7337760604583
 30
0.0
 11
946.3579433115233
 21
402.8250872701744
 31
0.0
  0
LINE
  5
458
330
22
100
AcDbEntity
  8
_2-7_ビス
  6
Continuous
 62
     7
100
AcDbLine
 10
946.3579433115233
 20
402.8250872701744
 30
0.0
 11
946.3616044087832
 21
402.9185168302168
 31
0.0
  0
LINE
  5
459
330
22
100
AcDbEntity
  8
_2-7_ビス
  6
Continuous
 62
     7
100
AcDbLine
 10
946.3616044087832
 20
402.9185168302168
 30
0.0
 11
946.3504530652297
 21
403.0112259306815
 31
0.0
  0
LINE
  5
45A
330
22
100
AcDbEntity
  8
_2-7_ビス
  6
Continuous
 62
     7
100
AcDbLine
 10
946.3504530652297
 20
403.0112259306815
 30
0.0
 11
946.3248281087938
 21
403.1003976524637
 31
0.0
  0
LINE
  5
45B
330
22
100
AcDbEntity
  8
_2-7_ビス
  6
Continuous
 62
     7
100
AcDbLine
 10
946.3248281087938
 20
403.1003976524637
 30
0.0
 11
946.2855081408108
 21
403.18332255792
 31
0.0
  0
LINE
  5
45C
330
22
100
AcDbEntity
  8
_2-7_ビス
  6
Continuous
 62
     7
100
AcDbLine
 10
946.2855081408108
 20
403.18332255792
 30
0.0
 11
946.2336878786103
 21
403.2574810157605
 31
0.0
  0
LINE
  5
45D
330
22
100
AcDbEntity
  8
_2-7_ビス
  6
Continuous
 62
     7
100
AcDbLine
 10
946.2336878786103
 20
403.2574810157605
 30
0.0
 11
946.1709418546371
 21
403.3206197587696
 31
0.0
  0
LINE
  5
45E
330
22
100
AcDbEntity
  8
_2-7_ビス
  6
Continuous
 62
     7
100
AcDbLine
 10
946.1709418546371
 20
403.3206197587696
 30
0.0
 11
946.0991765750785
 21
403.3708203481905
 31
0.0
  0
LINE
  5
45F
330
22
100
AcDbEntity
  8
_2-7_ビス
  6
Continuous
 62
     7
100
AcDbLine
 10
946.0991765750785
 20
403.3708203481905
 30
0.0
 11
946.0205725916393
 21
403.4065574645166
 31
0.0
  0
LINE
  5
460
330
22
100
AcDbEntity
  8
_2-7_ビス
  6
Continuous
 62
     7
100
AcDbLine
 10
946.0205725916393
 20
403.4065574645166
 30
0.0
 11
945.9375182465803
 21
403.426745253552
 31
0.0
  0
LINE
  5
461
330
22
100
AcDbEntity
  8
_2-7_ビス
  6
Continuous
 62
     7
100
AcDbLine
 10
945.9375182465803
 20
403.426745253552
 30
0.0
 11
945.8956717134176
 21
403.4307703195426
 31
0.0
  0
LINE
  5
462
330
22
100
AcDbEntity
  8
_2-7_ビス
  6
Continuous
 62
     7
100
AcDbLine
 10
946.271163857307
 20
383.9711212087421
 30
0.0
 11
946.271163857307
 21
383.9711212087421
 31
0.0
  0
LINE
  5
463
330
22
100
AcDbEntity
  8
_2-7_ビス
  6
Continuous
 62
     7
100
AcDbLine
 10
946.271163857307
 20
383.9711212087421
 30
0.0
 11
946.2657599328807
 21
384.1103768306573
 31
0.0
  0
LINE
  5
464
330
22
100
AcDbEntity
  8
_2-7_ビス
  6
Continuous
 62
     7
100
AcDbLine
 10
946.2657599328807
 20
384.1103768306573
 30
0.0
 11
946.2384432448613
 21
384.2464851757401
 31
0.0
  0
LINE
  5
465
330
22
100
AcDbEntity
  8
_2-7_ビス
  6
Continuous
 62
     7
100
AcDbLine
 10
946.2384432448613
 20
384.2464851757401
 30
0.0
 11
946.2208885242189
 21
384.3009457699421
 31
0.0
  0
LINE
  5
466
330
22
100
AcDbEntity
  8
_2-7_ビス
  6
Continuous
 62
     7
100
AcDbLine
 10
947.3620694634163
 20
381.9717937511898
 30
0.0
 11
947.3620694634163
 21
381.9717937511898
 31
0.0
  0
LINE
  5
467
330
22
100
AcDbEntity
  8
_2-7_ビス
  6
Continuous
 62
     7
100
AcDbLine
 10
947.3620694634163
 20
381.9717937511898
 30
0.0
 11
947.3592476385839
 21
382.0276339457337
 31
0.0
  0
LINE
  5
468
330
22
100
AcDbEntity
  8
_2-7_ビス
  6
Continuous
 62
     7
100
AcDbLine
 10
947.3592476385839
 20
382.0276339457337
 30
0.0
 11
947.3476489510948
 21
382.0820870835893
 31
0.0
  0
LINE
  5
469
330
22
100
AcDbEntity
  8
_2-7_ビス
  6
Continuous
 62
     7
100
AcDbLine
 10
947.3476489510948
 20
382.0820870835893
 30
0.0
 11
947.3276258212004
 21
382.1334986337173
 31
0.0
  0
LINE
  5
46A
330
22
100
AcDbEntity
  8
_2-7_ビス
  6
Continuous
 62
     7
100
AcDbLine
 10
947.3276258212004
 20
382.1334986337173
 30
0.0
 11
947.2997866415692
 21
382.1803064821825
 31
0.0
  0
LINE
  5
46B
330
22
100
AcDbEntity
  8
_2-7_ビス
  6
Continuous
 62
     7
100
AcDbLine
 10
947.2997866415692
 20
382.1803064821825
 30
0.0
 11
947.2649772915881
 21
382.2210883961955
 31
0.0
  0
LINE
  5
46C
330
22
100
AcDbEntity
  8
_2-7_ビス
  6
Continuous
 62
     7
100
AcDbLine
 10
947.2649772915881
 20
382.2210883961955
 30
0.0
 11
947.2242554357407
 21
382.2546052379353
 31
0.0
  0
LINE
  5
46D
330
22
100
AcDbEntity
  8
_2-7_ビス
  6
Continuous
 62
     7
100
AcDbLine
 10
947.2242554357407
 20
382.2546052379353
 30
0.0
 11
947.1788583870118
 21
382.2798386151263
 31
0.0
  0
LINE
  5
46E
330
22
100
AcDbEntity
  8
_2-7_ビス
  6
Continuous
 62
     7
100
AcDbLine
 10
947.1788583870118
 20
382.2798386151263
 30
0.0
 11
947.1301655117542
 21
382.2960218243708
 31
0.0
  0
LINE
  5
46F
330
22
100
AcDbEntity
  8
_2-7_ビス
  6
Continuous
 62
     7
100
AcDbLine
 10
947.1301655117542
 20
382.2960218243708
 30
0.0
 11
947.0796563183434
 21
382.3026631470455
 31
0.0
  0
LINE
  5
470
330
22
100
AcDbEntity
  8
_2-7_ビス
  6
Continuous
 62
     7
100
AcDbLine
 10
947.0796563183434
 20
382.3026631470455
 30
0.0
 11
947.0288655030621
 21
382.2995607899212
 31
0.0
  0
LINE
  5
471
330
22
100
AcDbEntity
  8
_2-7_ビス
  6
Continuous
 62
     7
100
AcDbLine
 10
947.0288655030621
 20
382.2995607899212
 30
0.0
 11
946.9793363191309
 21
382.2868090165496
 31
0.0
  0
LINE
  5
472
330
22
100
AcDbEntity
  8
_2-7_ビス
  6
Continuous
 62
     7
100
AcDbLine
 10
946.9793363191309
 20
382.2868090165496
 30
0.0
 11
946.9325736857408
 21
382.2647952831117
 31
0.0
  0
LINE
  5
473
330
22
100
AcDbEntity
  8
_2-7_ビス
  6
Continuous
 62
     7
100
AcDbLine
 10
946.9325736857408
 20
382.2647952831117
 30
0.0
 11
946.8899984618444
 21
382.2341884657586
 31
0.0
  0
LINE
  5
474
330
22
100
AcDbEntity
  8
_2-7_ビス
  6
Continuous
 62
     7
100
AcDbLine
 10
946.8899984618444
 20
382.2341884657586
 30
0.0
 11
946.852904274076
 21
382.1959185371476
 31
0.0
  0
LINE
  5
475
330
22
100
AcDbEntity
  8
_2-7_ビス
  6
Continuous
 62
     7
100
AcDbLine
 10
946.852904274076
 20
382.1959185371476
 30
0.0
 11
946.8224182105597
 21
382.1511483096943
 31
0.0
  0
LINE
  5
476
330
22
100
AcDbEntity
  8
_2-7_ビス
  6
Continuous
 62
     7
100
AcDbLine
 10
946.8224182105597
 20
382.1511483096943
 30
0.0
 11
946.799466574909
 21
382.1012381041048
 31
0.0
  0
LINE
  5
477
330
22
100
AcDbEntity
  8
_2-7_ビス
  6
Continuous
 62
     7
100
AcDbLine
 10
946.799466574909
 20
382.1012381041048
 30
0.0
 11
946.7847467409594
 21
382.0477044167203
 31
0.0
  0
LINE
  5
478
330
22
100
AcDbEntity
  8
_2-7_ビス
  6
Continuous
 62
     7
100
AcDbLine
 10
946.7847467409594
 20
382.0477044167203
 30
0.0
 11
946.7787059634165
 21
381.9921738415425
 31
0.0
  0
LINE
  5
479
330
22
100
AcDbEntity
  8
_2-7_ビス
  6
Continuous
 62
     7
100
AcDbLine
 10
946.7787059634165
 20
381.9921738415425
 30
0.0
 11
946.7787059634165
 21
381.9921738415425
 31
0.0
  0
LINE
  5
47A
330
22
100
AcDbEntity
  8
_2-6_鋼板__アングル
  6
Continuous
 62
     2
100
AcDbLine
 10
925.064421713416
 20
461.5064804978687
 30
0.0
 11
926.3935003641288
 21
446.3150420059862
 31
0.0
  0
LINE
  5
47B
330
22
100
AcDbEntity
  8
_2-6_鋼板__アングル
  6
Continuous
 62
     2
100
AcDbLine
 10
926.373991914688
 20
460.3064804978573
 30
0.0
 11
927.5980841691486
 21
446.3150420059862
 31
0.0
  0
LINE
  5
47C
330
22
100
AcDbEntity
  8
_2-6_鋼板__アングル
  6
Continuous
 62
     2
100
AcDbLine
 10
926.3935003641288
 20
446.3150420059862
 30
0.0
 11
927.5980841691486
 21
446.3150420059862
 31
0.0
  0
LINE
  5
47D
330
22
100
AcDbEntity
  8
_2-6_鋼板__アングル
  6
Continuous
 62
     2
100
AcDbLine
 10
926.373991914688
 20
460.3064804978573
 30
0.0
 11
942.0673654385767
 21
460.3064804978573
 31
0.0
  0
LINE
  5
47E
330
22
100
AcDbEntity
  8
_2-6_鋼板__アングル
  6
Continuous
 62
     2
100
AcDbLine
 10
954.9174085594243
 20
461.0087780717192
 30
0.0
 11
952.3144217134177
 21
459.0064804978687
 31
0.0
  0
ARC
  5
47F
330
22
100
AcDbEntity
  8
_2-6_鋼板__アングル
  6
Continuous
 62
     2
100
AcDbCircle
 10
956.3807143854635
 20
459.1064804978686
 30
0.0
 40
2.399999999999999
100
AcDbArc
 50
90.0
 51
127.568592028826
  0
LINE
  5
480
330
22
100
AcDbEntity
  8
_2-6_鋼板__アングル
  6
Continuous
 62
     2
100
AcDbLine
 10
943.2114348674097
 20
461.0087780717192
 30
0.0
 11
945.8144217134165
 21
459.0064804978687
 31
0.0
  0
ARC
  5
481
330
22
100
AcDbEntity
  8
_2-6_鋼板__アングル
  6
Continuous
 62
     2
100
AcDbCircle
 10
941.7481290413705
 20
459.1064804978686
 30
0.0
 40
2.399999999999999
100
AcDbArc
 50
52.43140797117396
 51
90.0
  0
LINE
  5
482
330
22
100
AcDbEntity
  8
_2-6_鋼板__アングル
  6
Continuous
 62
     4
100
AcDbLine
 10
956.3807143854635
 20
461.5064804978687
 30
0.0
 11
941.7481290413705
 21
461.5064804978687
 31
0.0
  0
LINE
  5
483
330
22
100
AcDbEntity
  8
_2-6_鋼板__アングル
  6
Continuous
 62
     4
100
AcDbLine
 10
945.8144217134165
 20
459.0064804978687
 30
0.0
 11
952.3144217134177
 21
459.0064804978687
 31
0.0
  0
LINE
  5
484
330
22
100
AcDbEntity
  8
_2-6_鋼板__アングル
  6
Continuous
 62
     2
100
AcDbLine
 10
952.3144217134177
 20
459.0064804978687
 30
0.0
 11
953.046074626436
 21
458.0553317109428
 31
0.0
  0
LINE
  5
485
330
22
100
AcDbEntity
  8
_2-6_鋼板__アングル
  6
Continuous
 62
     2
100
AcDbLine
 10
945.8144217134165
 20
459.0064804978687
 30
0.0
 11
945.0827688003981
 21
458.0553317109428
 31
0.0
  0
LINE
  5
486
330
22
100
AcDbEntity
  8
_2-6_鋼板__アングル
  6
Continuous
 62
     4
100
AcDbLine
 10
945.0827688003981
 20
458.0553317109428
 30
0.0
 11
953.046074626436
 21
458.0553317109428
 31
0.0
  0
LINE
  5
487
330
22
100
AcDbEntity
  8
_2-6_鋼板__アングル
  6
Continuous
 62
     2
100
AcDbLine
 10
955.6490614724427
 20
460.0576292847945
 30
0.0
 11
953.046074626436
 21
458.0553317109428
 31
0.0
  0
ARC
  5
488
330
22
100
AcDbEntity
  8
_2-6_鋼板__アングル
  6
Continuous
 62
     2
100
AcDbCircle
 10
956.3807143854635
 20
459.1064804978686
 30
0.0
 40
1.199999999999999
100
AcDbArc
 50
90.0
 51
127.568592028825
  0
LINE
  5
489
330
22
100
AcDbEntity
  8
_2-6_鋼板__アングル
  6
Continuous
 62
     2
100
AcDbLine
 10
942.4797819543911
 20
460.0576292847945
 30
0.0
 11
945.0827688003981
 21
458.0553317109428
 31
0.0
  0
ARC
  5
48A
330
22
100
AcDbEntity
  8
_2-6_鋼板__アングル
  6
Continuous
 62
     2
100
AcDbCircle
 10
941.7481290413705
 20
459.1064804978686
 30
0.0
 40
1.199999999999999
100
AcDbArc
 50
52.43140797117198
 51
90.00000000000005
  0
LINE
  5
48B
330
22
100
AcDbEntity
  8
_2-6_鋼板__アングル
  6
Continuous
 62
     2
100
AcDbLine
 10
925.064421713416
 20
461.5064804978687
 30
0.0
 11
941.7481290413705
 21
461.5064804978687
 31
0.0
  0
LINE
  5
48C
330
22
100
AcDbEntity
  8
_2-6_鋼板__アングル
  6
Continuous
 62
     2
100
AcDbLine
 10
970.0066814956221
 20
459.9483453435988
 30
0.0
 11
972.2862619666964
 21
458.0064804978684
 31
0.0
  0
ARC
  5
48D
330
22
100
AcDbEntity
  8
_2-6_鋼板__アングル
  6
Continuous
 62
     2
100
AcDbCircle
 10
969.0339818122239
 20
458.8064804978689
 30
0.0
 40
2.7
100
AcDbArc
 50
49.57392125990146
 51
90.0
  0
ARC
  5
48E
330
22
100
AcDbEntity
  8
_2-6_鋼板__アングル
  6
Continuous
 62
     2
100
AcDbCircle
 10
969.0339818122239
 20
458.8064804978689
 30
0.0
 40
1.5
100
AcDbArc
 50
49.57392125990146
 51
90.0
  0
LINE
  5
48F
330
22
100
AcDbEntity
  8
_2-6_鋼板__アングル
  6
Continuous
 62
     2
100
AcDbLine
 10
973.0644217134178
 20
458.9199723744532
 30
0.0
 11
972.2862619666964
 21
458.0064804978684
 31
0.0
  0
LINE
  5
490
330
22
100
AcDbEntity
  8
_2-6_鋼板__アングル
  6
Continuous
 62
     2
100
AcDbLine
 10
956.3807143854635
 20
461.5064804978687
 30
0.0
 11
969.0339818122239
 21
461.5064804978687
 31
0.0
  0
LINE
  5
491
330
22
100
AcDbEntity
  8
_2-6_鋼板__アングル
  6
Continuous
 62
     2
100
AcDbLine
 10
956.061477988287
 20
460.3064804978573
 30
0.0
 11
969.0339818122239
 21
460.3064804978573
 31
0.0
  0
LINE
  5
492
330
22
100
AcDbEntity
  8
_2-2_IN_LINE
  6
Continuous
 62
     7
100
AcDbLine
 10
951.0644217134164
 20
453.0553317109428
 30
0.0
 11
1425.064421713416
 21
453.0553317109428
 31
0.0
  0
LINE
  5
493
330
22
100
AcDbEntity
  8
_2-2_IN_LINE
  6
Continuous
 62
     7
100
AcDbLine
 10
927.0126591584274
 20
453.0553317109428
 30
0.0
 11
947.0644217134164
 21
453.0553317109428
 31
0.0
  0
LINE
  5
494
330
22
100
AcDbEntity
  8
_2-6_鋼板__アングル
  6
Continuous
 62
     2
100
AcDbLine
 10
970.7848412423436
 20
460.8618372201823
 30
0.0
 11
973.0644217134178
 21
458.9199723744532
 31
0.0
  0
LINE
  5
495
330
22
100
AcDbEntity
  8
_2-2_IN_LINE
  6
Continuous
 62
     7
100
AcDbLine
 10
973.0644217134178
 20
458.9199723744532
 30
0.0
 11
974.0794346662353
 21
458.0553317109428
 31
0.0
  0
LINE
  5
496
330
22
100
AcDbEntity
  8
_2-4_OUT_LINE
  6
Continuous
 62
     2
100
AcDbLine
 10
975.9203685144811
 20
463.0553317109428
 30
0.0
 11
1021.064421713408
 21
463.0553317109428
 31
0.0
  0
LINE
  5
497
330
22
100
AcDbEntity
  8
_2-4_OUT_LINE
  6
Continuous
 62
     2
100
AcDbLine
 10
933.0644217134157
 20
466.5553317109441
 30
0.0
 11
971.8116728623034
 21
466.5553317109441
 31
0.0
  0
LINE
  5
498
330
22
100
AcDbEntity
  8
_2-4_OUT_LINE
  6
Continuous
 62
     2
100
AcDbLine
 10
971.8116728623034
 20
466.5553317109441
 30
0.0
 11
975.9203685144811
 21
463.0553317109428
 31
0.0
  0
LINE
  5
499
330
22
100
AcDbEntity
  8
_2-D_ハッチ他
  6
Continuous
 62
     4
100
AcDbLine
 10
951.0644217134164
 20
430.6103099868045
 30
0.0
 11
958.6193999892804
 21
423.0553317109405
 31
0.0
  0
LINE
  5
49A
330
22
100
AcDbEntity
  8
_2-D_ハッチ他
  6
Continuous
 62
     4
100
AcDbLine
 10
951.0644217134164
 20
424.5771310314871
 30
0.0
 11
979.5426223928723
 21
453.0553317109428
 31
0.0
  0
LINE
  5
49B
330
22
100
AcDbEntity
  8
_2-D_ハッチ他
  6
Continuous
 62
     4
100
AcDbLine
 10
928.6193999892791
 20
453.0553317109428
 30
0.0
 11
947.0644217134164
 21
434.6103099868054
 31
0.0
  0
LINE
  5
49C
330
22
100
AcDbEntity
  8
_2-D_ハッチ他
  6
Continuous
 62
     4
100
AcDbLine
 10
925.0644217134173
 20
426.8614022789456
 30
0.0
 11
947.0644217134164
 21
448.8614022789461
 31
0.0
  0
ENDSEC
  0
SECTION
  2
OBJECTS
  0
DICTIONARY
  5
C
330
0
100
AcDbDictionary
281
     1
  3
ACAD_COLOR
350
1B
  3
ACAD_GROUP
350
D
  3
ACAD_LAYOUT
350
19
  3
ACAD_MATERIAL
350
1A
  3
ACAD_MLINESTYLE
350
16
  3
ACAD_PLOTSETTINGS
350
18
  3
ACAD_PLOTSTYLENAME
350
E
  3
ACAD_TABLESTYLE
350
1C
  3
ACDBHEADERROUNDTRIPXREC
350
4A4
  3
AcDbVariableDictionary
350
49F
  0
DICTIONARY
  5
1B
102
{ACAD_REACTORS
330
C
102
}
330
C
100
AcDbDictionary
281
     1
  0
DICTIONARY
  5
D
102
{ACAD_REACTORS
330
C
102
}
330
C
100
AcDbDictionary
281
     1
  0
DICTIONARY
  5
19
102
{ACAD_REACTORS
330
C
102
}
330
C
100
AcDbDictionary
281
     1
  3
Model
350
25
  3
レイアウト1
350
21
  0
DICTIONARY
  5
1A
102
{ACAD_REACTORS
330
C
102
}
330
C
100
AcDbDictionary
281
     1
  0
DICTIONARY
  5
16
102
{ACAD_REACTORS
330
C
102
}
330
C
100
AcDbDictionary
281
     1
  3
Standard
350
17
  0
DICTIONARY
  5
18
102
{ACAD_REACTORS
330
C
102
}
330
C
100
AcDbDictionary
281
     1
  0
ACDBDICTIONARYWDFLT
  5
E
102
{ACAD_REACTORS
330
C
102
}
330
C
100
AcDbDictionary
281
     1
  3
Normal
350
F
100
AcDbDictionaryWithDefault
340
F
  0
DICTIONARY
  5
1C
102
{ACAD_REACTORS
330
C
102
}
330
C
100
AcDbDictionary
281
     1
  3
Standard
350
1D
  0
DICTIONARY
  5
4A4
102
{ACAD_REACTORS
330
C
102
}
330
C
100
AcDbDictionary
281
     1
  0
DICTIONARY
  5
49F
102
{ACAD_REACTORS
330
C
102
}
330
C
100
AcDbDictionary
281
     1
  3
CTABLESTYLE
350
4A0
  3
DIMASSOC
350
4A1
  3
PROJECTNAME
350
4A2
  0
LAYOUT
  5
25
102
{ACAD_XDICTIONARY
360
4A7
102
}
102
{ACAD_REACTORS
330
19
102
}
330
19
100
AcDbPlotSettings
  1

  2
PC1665
  4

  6

 40
0.0
 41
0.0
 42
0.0
 43
0.0
 44
0.0
 45
0.0
 46
0.0
 47
0.0
 48
0.0
 49
0.0
140
0.0
141
0.0
142
1.0
143
1.0
 70
  1712
 72
     0
 73
     0
 74
     0
  7

 75
     0
147
1.0
148
0.0
149
0.0
100
AcDbLayout
  1
Model
 70
     1
 71
     0
 10
0.0
 20
0.0
 11
12.0
 21
9.0
 12
0.0
 22
0.0
 32
0.0
 14
0.0
 24
0.0
 34
0.0
 15
0.0
 25
0.0
 35
0.0
146
0.0
 13
0.0
 23
0.0
 33
0.0
 16
1.0
 26
0.0
 36
0.0
 17
0.0
 27
1.0
 37
0.0
 76
     0
330
22
  0
LAYOUT
  5
21
102
{ACAD_XDICTIONARY
360
4A5
102
}
102
{ACAD_REACTORS
330
19
102
}
330
19
100
AcDbPlotSettings
  1

  2
PC1665
  4

  6

 40
0.0
 41
0.0
 42
0.0
 43
0.0
 44
0.0
 45
0.0
 46
0.0
 47
0.0
 48
0.0
 49
0.0
140
0.0
141
0.0
142
1.0
143
1.0
 70
   688
 72
     0
 73
     0
 74
     5
  7

 75
    16
147
1.0
148
0.0
149
0.0
100
AcDbLayout
  1
レイアウト1
 70
     1
 71
     1
 10
0.0
 20
0.0
 11
12.0
 21
9.0
 12
0.0
 22
0.0
 32
0.0
 14
1.000000000000000E+20
 24
1.000000000000000E+20
 34
1.000000000000000E+20
 15
-1.000000000000000E+20
 25
-1.000000000000000E+20
 35
-1.000000000000000E+20
146
0.0
 13
0.0
 23
0.0
 33
0.0
 16
1.0
 26
0.0
 36
0.0
 17
0.0
 27
1.0
 37
0.0
 76
     0
330
1E
  0
MLINESTYLE
  5
17
102
{ACAD_REACTORS
330
16
102
}
330
16
100
AcDbMlineStyle
  2
STANDARD
 70
     0
  3

 62
   256
 51
90.0
 52
90.0
 71
     2
 49
0.5
 62
   256
  6
BYLAYER
 49
-0.5
 62
   256
  6
BYLAYER
  0
ACDBPLACEHOLDER
  5
F
102
{ACAD_REACTORS
330
E
102
}
330
E
  0
TABLESTYLE
  5
1D
102
{ACAD_REACTORS
330
1C
102
}
330
1C
100
AcDbTableStyle
  3
Standard
 70
     0
 71
     0
 40
0.06
 41
0.06
280
     0
281
     0
  7
STANDARD
140
0.18
170
     2
 62
     0
 63
     7
283
     0
274
    -2
284
     1
 64
     0
275
    -2
285
     1
 65
     0
276
    -2
286
     1
 66
     0
277
    -2
287
     1
 67
     0
278
    -2
288
     1
 68
     0
279
    -2
289
     1
 69
     0
  7
STANDARD
140
0.25
170
     5
 62
     0
 63
     7
283
     0
274
    -2
284
     1
 64
     0
275
    -2
285
     1
 65
     0
276
    -2
286
     1
 66
     0
277
    -2
287
     1
 67
     0
278
    -2
288
     1
 68
     0
279
    -2
289
     1
 69
     0
  7
STANDARD
140
0.18
170
     5
 62
     0
 63
     7
283
     0
274
    -2
284
     1
 64
     0
275
    -2
285
     1
 65
     0
276
    -2
286
     1
 66
     0
277
    -2
287
     1
 67
     0
278
    -2
288
     1
 68
     0
279
    -2
289
     1
 69
     0
  0
DICTIONARYVAR
  5
4A0
102
{ACAD_REACTORS
330
49F
102
}
330
49F
100
DictionaryVariables
280
     0
  1
STANDARD
  0
DICTIONARYVAR
  5
4A1
102
{ACAD_REACTORS
330
49F
102
}
330
49F
100
DictionaryVariables
280
     0
  1
1
  0
DICTIONARYVAR
  5
4A2
102
{ACAD_REACTORS
330
49F
102
}
330
49F
100
DictionaryVariables
280
     0
  1

  0
DICTIONARY
  5
4A7
330
25
100
AcDbDictionary
280
     1
281
     1
  3
ACAD_XREC_ROUNDTRIP
360
4A8
  0
DICTIONARY
  5
4A5
330
21
100
AcDbDictionary
280
     1
281
     1
  3
ACAD_XREC_ROUNDTRIP
360
4A6
  0
XRECORD
  5
4A8
102
{ACAD_REACTORS
330
4A7
102
}
330
4A7
100
AcDbXrecord
280
     1
102
SHADEPLOT
 70
     0
102
SHADEPLOTRESLEVEL
 70
     2
102
SHADEPLOTCUSTOMDPI
 70
   300
  0
XRECORD
  5
4A6
102
{ACAD_REACTORS
330
4A5
102
}
330
4A5
100
AcDbXrecord
280
     1
102
SHADEPLOT
 70
     0
102
SHADEPLOTRESLEVEL
 70
     2
102
SHADEPLOTCUSTOMDPI
 70
   300
  0
ENDSEC
  0
EOF
