  0
SECTION
  2
HEADER
  9
$ACADVER
  1
AC1015
  9
$ACADMAINTVER
 70
    20
  9
$DWGCODEPAGE
  3
ANSI_932
  9
$INSBASE
 10
0.0
 20
0.0
 30
0.0
  9
$EXTMIN
 10
541.6305597192031
 20
33.4904514945697
 30
-0.0015258207003583
  9
$EXTMAX
 10
1541.867069669379
 20
1463.632281875042
 30
0.0000000349246037
  9
$LIMMIN
 10
0.0
 20
0.0
  9
$LIMMAX
 10
2100.0
 20
1485.0
  9
$ORTHOMODE
 70
     0
  9
$REGENMODE
 70
     1
  9
$FILLMODE
 70
     1
  9
$QTEXTMODE
 70
     0
  9
$MIRRTEXT
 70
     0
  9
$LTSCALE
 40
5.0
  9
$ATTMODE
 70
     1
  9
$TEXTSIZE
 40
0.2
  9
$TRACEWID
 40
0.05
  9
$TEXTSTYLE
  7
STANDARD
  9
$CLAYER
  8
0
  9
$CELTYPE
  6
CONTINUOUS
  9
$CECOLOR
 62
   256
  9
$CELTSCALE
 40
1.0
  9
$DISPSILH
 70
     0
  9
$DIMSCALE
 40
1.0
  9
$DIMASZ
 40
0.18
  9
$DIMEXO
 40
0.0625
  9
$DIMDLI
 40
0.38
  9
$DIMRND
 40
0.0
  9
$DIMDLE
 40
0.0
  9
$DIMEXE
 40
0.18
  9
$DIMTP
 40
0.0
  9
$DIMTM
 40
0.0
  9
$DIMTXT
 40
0.18
  9
$DIMCEN
 40
0.09
  9
$DIMTSZ
 40
0.0
  9
$DIMTOL
 70
     0
  9
$DIMLIM
 70
     0
  9
$DIMTIH
 70
     1
  9
$DIMTOH
 70
     1
  9
$DIMSE1
 70
     0
  9
$DIMSE2
 70
     0
  9
$DIMTAD
 70
     0
  9
$DIMZIN
 70
     0
  9
$DIMBLK
  1

  9
$DIMASO
 70
     1
  9
$DIMSHO
 70
     1
  9
$DIMPOST
  1

  9
$DIMAPOST
  1

  9
$DIMALT
 70
     0
  9
$DIMALTD
 70
     2
  9
$DIMALTF
 40
25.4
  9
$DIMLFAC
 40
1.0
  9
$DIMTOFL
 70
     0
  9
$DIMTVP
 40
0.0
  9
$DIMTIX
 70
     0
  9
$DIMSOXD
 70
     0
  9
$DIMSAH
 70
     0
  9
$DIMBLK1
  1

  9
$DIMBLK2
  1

  9
$DIMSTYLE
  2
Standard
  9
$DIMCLRD
 70
     0
  9
$DIMCLRE
 70
     0
  9
$DIMCLRT
 70
     0
  9
$DIMTFAC
 40
1.0
  9
$DIMGAP
 40
0.09
  9
$DIMJUST
 70
     0
  9
$DIMSD1
 70
     0
  9
$DIMSD2
 70
     0
  9
$DIMTOLJ
 70
     1
  9
$DIMTZIN
 70
     0
  9
$DIMALTZ
 70
     0
  9
$DIMALTTZ
 70
     0
  9
$DIMUPT
 70
     0
  9
$DIMDEC
 70
     4
  9
$DIMTDEC
 70
     4
  9
$DIMALTU
 70
     2
  9
$DIMALTTD
 70
     2
  9
$DIMTXSTY
  7
STANDARD
  9
$DIMAUNIT
 70
     0
  9
$DIMADEC
 70
     0
  9
$DIMALTRND
 40
0.0
  9
$DIMAZIN
 70
     0
  9
$DIMDSEP
 70
    46
  9
$DIMATFIT
 70
     3
  9
$DIMFRAC
 70
     0
  9
$DIMLDRBLK
  1

  9
$DIMLUNIT
 70
     2
  9
$DIMLWD
 70
    -2
  9
$DIMLWE
 70
    -2
  9
$DIMTMOVE
 70
     0
  9
$LUNITS
 70
     2
  9
$LUPREC
 70
     4
  9
$SKETCHINC
 40
0.1
  9
$FILLETRAD
 40
0.0
  9
$AUNITS
 70
     0
  9
$AUPREC
 70
     0
  9
$MENU
  1
.
  9
$ELEVATION
 40
0.0
  9
$PELEVATION
 40
0.0
  9
$THICKNESS
 40
0.0
  9
$LIMCHECK
 70
     0
  9
$CHAMFERA
 40
0.0
  9
$CHAMFERB
 40
0.0
  9
$CHAMFERC
 40
0.0
  9
$CHAMFERD
 40
0.0
  9
$SKPOLY
 70
     0
  9
$TDCREATE
 40
2454846.619280266
  9
$TDUCREATE
 40
2454846.244280266
  9
$TDUPDATE
 40
2454846.619857338
  9
$TDUUPDATE
 40
2454846.244857338
  9
$TDINDWG
 40
0.0005794213
  9
$TDUSRTIMER
 40
0.0005794213
  9
$USRTIMER
 70
     1
  9
$ANGBASE
 50
0.0
  9
$ANGDIR
 70
     0
  9
$PDMODE
 70
     0
  9
$PDSIZE
 40
0.0
  9
$PLINEWID
 40
0.0
  9
$SPLFRAME
 70
     0
  9
$SPLINETYPE
 70
     6
  9
$SPLINESEGS
 70
     8
  9
$HANDSEED
  5
774
  9
$SURFTAB1
 70
     6
  9
$SURFTAB2
 70
     6
  9
$SURFTYPE
 70
     6
  9
$SURFU
 70
     6
  9
$SURFV
 70
     6
  9
$UCSBASE
  2

  9
$UCSNAME
  2

  9
$UCSORG
 10
0.0
 20
0.0
 30
0.0
  9
$UCSXDIR
 10
1.0
 20
0.0
 30
0.0
  9
$UCSYDIR
 10
0.0
 20
1.0
 30
0.0
  9
$UCSORTHOREF
  2

  9
$UCSORTHOVIEW
 70
     0
  9
$UCSORGTOP
 10
0.0
 20
0.0
 30
0.0
  9
$UCSORGBOTTOM
 10
0.0
 20
0.0
 30
0.0
  9
$UCSORGLEFT
 10
0.0
 20
0.0
 30
0.0
  9
$UCSORGRIGHT
 10
0.0
 20
0.0
 30
0.0
  9
$UCSORGFRONT
 10
0.0
 20
0.0
 30
0.0
  9
$UCSORGBACK
 10
0.0
 20
0.0
 30
0.0
  9
$PUCSBASE
  2

  9
$PUCSNAME
  2

  9
$PUCSORG
 10
0.0
 20
0.0
 30
0.0
  9
$PUCSXDIR
 10
1.0
 20
0.0
 30
0.0
  9
$PUCSYDIR
 10
0.0
 20
1.0
 30
0.0
  9
$PUCSORTHOREF
  2

  9
$PUCSORTHOVIEW
 70
     0
  9
$PUCSORGTOP
 10
0.0
 20
0.0
 30
0.0
  9
$PUCSORGBOTTOM
 10
0.0
 20
0.0
 30
0.0
  9
$PUCSORGLEFT
 10
0.0
 20
0.0
 30
0.0
  9
$PUCSORGRIGHT
 10
0.0
 20
0.0
 30
0.0
  9
$PUCSORGFRONT
 10
0.0
 20
0.0
 30
0.0
  9
$PUCSORGBACK
 10
0.0
 20
0.0
 30
0.0
  9
$USERI1
 70
     0
  9
$USERI2
 70
     0
  9
$USERI3
 70
     0
  9
$USERI4
 70
     0
  9
$USERI5
 70
     0
  9
$USERR1
 40
0.0
  9
$USERR2
 40
0.0
  9
$USERR3
 40
0.0
  9
$USERR4
 40
0.0
  9
$USERR5
 40
0.0
  9
$WORLDVIEW
 70
     1
  9
$SHADEDGE
 70
     3
  9
$SHADEDIF
 70
    70
  9
$TILEMODE
 70
     1
  9
$MAXACTVP
 70
    64
  9
$PINSBASE
 10
0.0
 20
0.0
 30
0.0
  9
$PLIMCHECK
 70
     0
  9
$PEXTMIN
 10
1.000000000000000E+20
 20
1.000000000000000E+20
 30
1.000000000000000E+20
  9
$PEXTMAX
 10
-1.000000000000000E+20
 20
-1.000000000000000E+20
 30
-1.000000000000000E+20
  9
$PLIMMIN
 10
0.0
 20
0.0
  9
$PLIMMAX
 10
12.0
 20
9.0
  9
$UNITMODE
 70
     0
  9
$VISRETAIN
 70
     1
  9
$PLINEGEN
 70
     0
  9
$PSLTSCALE
 70
     1
  9
$TREEDEPTH
 70
  3020
  9
$CMLSTYLE
  2
Standard
  9
$CMLJUST
 70
     0
  9
$CMLSCALE
 40
1.0
  9
$PROXYGRAPHICS
 70
     1
  9
$MEASUREMENT
 70
     0
  9
$CELWEIGHT
370
    -1
  9
$ENDCAPS
280
     0
  9
$JOINSTYLE
280
     0
  9
$LWDISPLAY
290
     0
  9
$INSUNITS
 70
     0
  9
$HYPERLINKBASE
  1

  9
$STYLESHEET
  1

  9
$XEDIT
290
     1
  9
$CEPSNTYPE
380
     0
  9
$PSTYLEMODE
290
     1
  9
$FINGERPRINTGUID
  2
{62106E3B-69FD-4055-BCCD-7CCB692B705A}
  9
$VERSIONGUID
  2
{2EEBD8F7-212B-4559-95BA-1FE8ADB51BB7}
  9
$EXTNAMES
290
     1
  9
$PSVPSCALE
 40
0.0
  9
$OLESTARTUP
290
     0
  0
ENDSEC
  0
SECTION
  2
CLASSES
  0
CLASS
  1
ACDBDICTIONARYWDFLT
  2
AcDbDictionaryWithDefault
  3
ObjectDBX Classes
 90
        0
280
     0
281
     0
  0
CLASS
  1
TABLESTYLE
  2
AcDbTableStyle
  3
ObjectDBX Classes
 90
     2047
280
     0
281
     0
  0
CLASS
  1
DICTIONARYVAR
  2
AcDbDictionaryVar
  3
ObjectDBX Classes
 90
        0
280
     0
281
     0
  0
CLASS
  1
ACDBPLACEHOLDER
  2
AcDbPlaceHolder
  3
ObjectDBX Classes
 90
        0
280
     0
281
     0
  0
CLASS
  1
LAYOUT
  2
AcDbLayout
  3
ObjectDBX Classes
 90
        0
280
     0
281
     0
  0
ENDSEC
  0
SECTION
  2
TABLES
  0
TABLE
  2
VPORT
  5
8
330
0
100
AcDbSymbolTable
 70
     2
  0
VPORT
  5
76E
330
8
100
AcDbSymbolTableRecord
100
AcDbViewportTableRecord
  2
*Active
 70
     0
 10
0.0
 20
0.0
 11
1.0
 21
1.0
 12
1041.748814694291
 22
748.5613666848061
 13
0.0
 23
0.0
 14
1.0
 24
1.0
 15
0.0
 25
0.0
 16
0.0
 26
0.0
 36
1.0
 17
0.0
 27
0.0
 37
0.0
 40
1443.123450625984
 41
2.069696969696969
 42
50.0
 43
0.0
 44
0.0
 50
0.0
 51
0.0
 71
     0
 72
   100
 73
     1
 74
     1
 75
     0
 76
     0
 77
     0
 78
     0
281
     0
 65
     1
110
0.0
120
0.0
130
0.0
111
1.0
121
0.0
131
0.0
112
0.0
122
1.0
132
0.0
 79
     0
146
0.0
  0
ENDTAB
  0
TABLE
  2
LTYPE
  5
5
330
0
100
AcDbSymbolTable
 70
    35
  0
LTYPE
  5
13
330
5
100
AcDbSymbolTableRecord
100
AcDbLinetypeTableRecord
  2
ByBlock
 70
     0
  3

 72
    65
 73
     0
 40
0.0
  0
LTYPE
  5
14
330
5
100
AcDbSymbolTableRecord
100
AcDbLinetypeTableRecord
  2
ByLayer
 70
     0
  3

 72
    65
 73
     0
 40
0.0
  0
LTYPE
  5
15
330
5
100
AcDbSymbolTableRecord
100
AcDbLinetypeTableRecord
  2
CONTINUOUS
 70
     0
  3
実線
 72
    65
 73
     0
 40
0.0
  0
LTYPE
  5
26
330
5
100
AcDbSymbolTableRecord
100
AcDbLinetypeTableRecord
  2
DASHED1
 70
     0
  3
--  --  --  --  --  --  --  --  
 72
    65
 73
     2
 40
2.5
 49
1.25
 74
     0
 49
-1.25
 74
     0
  0
LTYPE
  5
27
330
5
100
AcDbSymbolTableRecord
100
AcDbLinetypeTableRecord
  2
DASHED2
 70
     0
  3
----    ----    ----    ----    
 72
    65
 73
     2
 40
5.0
 49
2.5
 74
     0
 49
-2.5
 74
     0
  0
LTYPE
  5
28
330
5
100
AcDbSymbolTableRecord
100
AcDbLinetypeTableRecord
  2
DASHED3
 70
     0
  3
------  ------  ------  ------  
 72
    65
 73
     2
 40
5.0
 49
3.75
 74
     0
 49
-1.25
 74
     0
  0
LTYPE
  5
29
330
5
100
AcDbSymbolTableRecord
100
AcDbLinetypeTableRecord
  2
CENTER1
 70
     0
  3
----- - ----- - ----- - ----- - 
 72
    65
 73
     4
 40
10.0
 49
6.25
 74
     0
 49
-1.25
 74
     0
 49
1.25
 74
     0
 49
-1.25
 74
     0
  0
LTYPE
  5
2A
330
5
100
AcDbSymbolTableRecord
100
AcDbLinetypeTableRecord
  2
CENTER2
 70
     0
  3
----------  --  ----------  --  
 72
    65
 73
     4
 40
20.0
 49
12.5
 74
     0
 49
-2.5
 74
     0
 49
2.5
 74
     0
 49
-2.5
 74
     0
  0
LTYPE
  5
2B
330
5
100
AcDbSymbolTableRecord
100
AcDbLinetypeTableRecord
  2
PHANTOM1
 70
     0
  3
--- - - --- - - --- - - --- - - 
 72
    65
 73
     6
 40
10.0
 49
3.25
 74
     0
 49
-1.25
 74
     0
 49
1.25
 74
     0
 49
-1.25
 74
     0
 49
1.25
 74
     0
 49
-1.25
 74
     0
  0
LTYPE
  5
2C
330
5
100
AcDbSymbolTableRecord
100
AcDbLinetypeTableRecord
  2
PHANTOM2
 70
     0
  3
--------  -  -  --------  -  -  
 72
    65
 73
     6
 40
20.0
 49
10.0
 74
     0
 49
-2.5
 74
     0
 49
1.25
 74
     0
 49
-2.5
 74
     0
 49
1.25
 74
     0
 49
-2.5
 74
     0
  0
LTYPE
  5
2D
330
5
100
AcDbSymbolTableRecord
100
AcDbLinetypeTableRecord
  2
DOT
 70
     0
  3
-   -   -   -   -   -   -   -   
 72
    65
 73
     2
 40
2.5
 49
0.625
 74
     0
 49
-1.875
 74
     0
  0
LTYPE
  5
2E
330
5
100
AcDbSymbolTableRecord
100
AcDbLinetypeTableRecord
  2
DUMMY
 70
     0
  3
ダミー
 72
    65
 73
     0
 40
0.0
  0
LTYPE
  5
2F
330
5
100
AcDbSymbolTableRecord
100
AcDbLinetypeTableRecord
  2
RAND1
 70
     0
  3
ランダム線1
 72
    65
 73
     4
 40
10.0
 49
1.0
 74
     0
 49
-2.0
 74
     0
 49
3.0
 74
     0
 49
-4.0
 74
     0
  0
LTYPE
  5
30
330
5
100
AcDbSymbolTableRecord
100
AcDbLinetypeTableRecord
  2
RAND2
 70
     0
  3
ランダム線2
 72
    65
 73
     4
 40
14.0
 49
2.0
 74
     0
 49
-3.0
 74
     0
 49
4.0
 74
     0
 49
-5.0
 74
     0
  0
LTYPE
  5
31
330
5
100
AcDbSymbolTableRecord
100
AcDbLinetypeTableRecord
  2
RAND3
 70
     0
  3
ランダム線3
 72
    65
 73
     4
 40
18.0
 49
3.0
 74
     0
 49
-4.0
 74
     0
 49
5.0
 74
     0
 49
-6.0
 74
     0
  0
LTYPE
  5
32
330
5
100
AcDbSymbolTableRecord
100
AcDbLinetypeTableRecord
  2
RAND4
 70
     0
  3
ランダム線4
 72
    65
 73
     4
 40
22.0
 49
4.0
 74
     0
 49
-5.0
 74
     0
 49
6.0
 74
     0
 49
-7.0
 74
     0
  0
LTYPE
  5
33
330
5
100
AcDbSymbolTableRecord
100
AcDbLinetypeTableRecord
  2
RAND5
 70
     0
  3
ランダム線5
 72
    65
 73
     4
 40
26.0
 49
5.0
 74
     0
 49
-6.0
 74
     0
 49
7.0
 74
     0
 49
-8.0
 74
     0
  0
LTYPE
  5
34
330
5
100
AcDbSymbolTableRecord
100
AcDbLinetypeTableRecord
  2
LONG1
 70
     0
  3
----------  --  ----------  --  
 72
    65
 73
     4
 40
40.0
 49
32.5
 74
     0
 49
-2.5
 74
     0
 49
2.5
 74
     0
 49
-2.5
 74
     0
  0
LTYPE
  5
35
330
5
100
AcDbSymbolTableRecord
100
AcDbLinetypeTableRecord
  2
LONG2
 70
     0
  3
--------  -  -  --------  -  -  
 72
    65
 73
     6
 40
40.0
 49
30.0
 74
     0
 49
-2.5
 74
     0
 49
1.25
 74
     0
 49
-2.5
 74
     0
 49
1.25
 74
     0
 49
-2.5
 74
     0
  0
LTYPE
  5
36
330
5
100
AcDbSymbolTableRecord
100
AcDbLinetypeTableRecord
  2
LONG3
 70
     0
  3
+++++++++++++++..+++++++++++++++
 72
    65
 73
     2
 40
40.0
 49
37.5
 74
     0
 49
-2.5
 74
     0
  0
LTYPE
  5
37
330
5
100
AcDbSymbolTableRecord
100
AcDbLinetypeTableRecord
  2
LONG4
 70
     0
  3
+++++++++++++++..+++++++++++++++
 72
    65
 73
     2
 40
80.0
 49
75.0
 74
     0
 49
-5.0
 74
     0
  0
LTYPE
  5
38
330
5
100
AcDbSymbolTableRecord
100
AcDbLinetypeTableRecord
  2
LONG5
 70
     0
  3
----------  --  ----------  --  
 72
    65
 73
     4
 40
60.0
 49
37.5
 74
     0
 49
-7.5
 74
     0
 49
7.5
 74
     0
 49
-7.5
 74
     0
  0
LTYPE
  5
39
330
5
100
AcDbSymbolTableRecord
100
AcDbLinetypeTableRecord
  2
DASHED
 70
     0
  3
-------   -------------   ------
 72
    65
 73
     2
 40
7.5
 49
6.0
 74
     0
 49
-1.5
 74
     0
  0
LTYPE
  5
3A
330
5
100
AcDbSymbolTableRecord
100
AcDbLinetypeTableRecord
  2
DASHED_SPACED
 70
     0
  3
----        --------        ----
 72
    65
 73
     2
 40
12.0
 49
6.0
 74
     0
 49
-6.0
 74
     0
  0
LTYPE
  5
3B
330
5
100
AcDbSymbolTableRecord
100
AcDbLinetypeTableRecord
  2
LONG_DASHED_DOTTED
 70
     0
  3
------------- --- --------------
 72
    65
 73
     4
 40
15.25
 49
12.0
 74
     0
 49
-1.5
 74
     0
 49
0.25
 74
     0
 49
-1.5
 74
     0
  0
LTYPE
  5
3C
330
5
100
AcDbSymbolTableRecord
100
AcDbLinetypeTableRecord
  2
LONG_DASHED_DOUBLE-DOTTED
 70
     0
  3
----------- --- --- ------------
 72
    65
 73
     6
 40
17.0
 49
12.0
 74
     0
 49
-1.5
 74
     0
 49
0.25
 74
     0
 49
-1.5
 74
     0
 49
0.25
 74
     0
 49
-1.5
 74
     0
  0
LTYPE
  5
3D
330
5
100
AcDbSymbolTableRecord
100
AcDbLinetypeTableRecord
  2
LONG_DASHED_TRIPLICATE-DOTTED
 70
     0
  3
--------- --- --- --- ----------
 72
    65
 73
     8
 40
18.75
 49
12.0
 74
     0
 49
-1.5
 74
     0
 49
0.25
 74
     0
 49
-1.5
 74
     0
 49
0.25
 74
     0
 49
-1.5
 74
     0
 49
0.25
 74
     0
 49
-1.5
 74
     0
  0
LTYPE
  5
3E
330
5
100
AcDbSymbolTableRecord
100
AcDbLinetypeTableRecord
  2
DOTTED
 70
     0
  3
   -       -       -       -    
 72
    65
 73
     2
 40
1.75
 49
0.25
 74
     0
 49
-1.5
 74
     0
  0
LTYPE
  5
3F
330
5
100
AcDbSymbolTableRecord
100
AcDbLinetypeTableRecord
  2
CHAIN
 70
     0
  3
-------------- -- --------------
 72
    65
 73
     4
 40
18.5
 49
12.0
 74
     0
 49
-1.5
 74
     0
 49
3.5
 74
     0
 49
-1.5
 74
     0
  0
LTYPE
  5
40
330
5
100
AcDbSymbolTableRecord
100
AcDbLinetypeTableRecord
  2
CHAIN_DOUBLE_DASH
 70
     0
  3
------------ -- -- -------------
 72
    65
 73
     6
 40
23.5
 49
12.0
 74
     0
 49
-1.5
 74
     0
 49
3.5
 74
     0
 49
-1.5
 74
     0
 49
3.5
 74
     0
 49
-1.5
 74
     0
  0
LTYPE
  5
41
330
5
100
AcDbSymbolTableRecord
100
AcDbLinetypeTableRecord
  2
DASHED_DOTTED
 70
     0
  3
-----------     -     ----------
 72
    65
 73
     4
 40
9.25
 49
6.0
 74
     0
 49
-1.5
 74
     0
 49
0.25
 74
     0
 49
-1.5
 74
     0
  0
LTYPE
  5
42
330
5
100
AcDbSymbolTableRecord
100
AcDbLinetypeTableRecord
  2
DOUBLE-DASHED_DOTTED
 70
     0
  3
------   -----------   -   -----
 72
    65
 73
     6
 40
16.75
 49
6.0
 74
     0
 49
-1.5
 74
     0
 49
6.0
 74
     0
 49
-1.5
 74
     0
 49
0.25
 74
     0
 49
-1.5
 74
     0
  0
LTYPE
  5
43
330
5
100
AcDbSymbolTableRecord
100
AcDbLinetypeTableRecord
  2
DASHED_DOUBLE-DOTTED
 70
     0
  3
---------    -    -    ---------
 72
    65
 73
     6
 40
11.0
 49
6.0
 74
     0
 49
-1.5
 74
     0
 49
0.25
 74
     0
 49
-1.5
 74
     0
 49
0.25
 74
     0
 49
-1.5
 74
     0
  0
LTYPE
  5
44
330
5
100
AcDbSymbolTableRecord
100
AcDbLinetypeTableRecord
  2
DOUBLE-DASHED_DOUBLE-DOTTED
 70
     0
  3
-----   ---------   -   -   ----
 72
    65
 73
     8
 40
18.5
 49
6.0
 74
     0
 49
-1.5
 74
     0
 49
6.0
 74
     0
 49
-1.5
 74
     0
 49
0.25
 74
     0
 49
-1.5
 74
     0
 49
0.25
 74
     0
 49
-1.5
 74
     0
  0
LTYPE
  5
45
330
5
100
AcDbSymbolTableRecord
100
AcDbLinetypeTableRecord
  2
DASHED_TRIPLICATE-DOTTED
 70
     0
  3
-------    -    -    -    ------
 72
    65
 73
     8
 40
12.75
 49
6.0
 74
     0
 49
-1.5
 74
     0
 49
0.25
 74
     0
 49
-1.5
 74
     0
 49
0.25
 74
     0
 49
-1.5
 74
     0
 49
0.25
 74
     0
 49
-1.5
 74
     0
  0
LTYPE
  5
46
330
5
100
AcDbSymbolTableRecord
100
AcDbLinetypeTableRecord
  2
DOUBLE-DASHED_TRIPLICATE-DOTTED
 70
     0
  3
-----  ---------  -  -  -  -----
 72
    65
 73
    10
 40
20.25
 49
6.0
 74
     0
 49
-1.5
 74
     0
 49
6.0
 74
     0
 49
-1.5
 74
     0
 49
0.25
 74
     0
 49
-1.5
 74
     0
 49
0.25
 74
     0
 49
-1.5
 74
     0
 49
0.25
 74
     0
 49
-1.5
 74
     0
  0
LTYPE
  5
47
330
5
100
AcDbSymbolTableRecord
100
AcDbLinetypeTableRecord
  2
UNDEFINED
 70
     0
  3
--------------------------------
 72
    65
 73
     0
 40
0.0
  0
ENDTAB
  0
TABLE
  2
LAYER
  5
2
330
0
100
AcDbSymbolTable
 70
    17
  0
LAYER
  5
10
330
2
100
AcDbSymbolTableRecord
100
AcDbLayerTableRecord
  2
0
 70
     0
 62
     7
  6
CONTINUOUS
370
    -3
390
F
  0
LAYER
  5
49
330
2
100
AcDbSymbolTableRecord
100
AcDbLayerTableRecord
  2
_2-2_IN_LINE
 70
     0
 62
     7
  6
CONTINUOUS
370
    -3
390
F
  0
LAYER
  5
4A
330
2
100
AcDbSymbolTableRecord
100
AcDbLayerTableRecord
  2
_2-3_
 70
     0
 62
     7
  6
CONTINUOUS
370
    -3
390
F
  0
LAYER
  5
4B
330
2
100
AcDbSymbolTableRecord
100
AcDbLayerTableRecord
  2
_2-4_OUT_LINE
 70
     0
 62
     7
  6
CONTINUOUS
370
    -3
390
F
  0
LAYER
  5
4C
330
2
100
AcDbSymbolTableRecord
100
AcDbLayerTableRecord
  2
_2-5_金属
 70
     0
 62
     7
  6
CONTINUOUS
370
    -3
390
F
  0
LAYER
  5
4D
330
2
100
AcDbSymbolTableRecord
100
AcDbLayerTableRecord
  2
_2-6_鋼板__アングル
 70
     0
 62
     7
  6
CONTINUOUS
370
    -3
390
F
  0
LAYER
  5
4E
330
2
100
AcDbSymbolTableRecord
100
AcDbLayerTableRecord
  2
_2-7_ビス
 70
     0
 62
     7
  6
CONTINUOUS
370
    -3
390
F
  0
LAYER
  5
4F
330
2
100
AcDbSymbolTableRecord
100
AcDbLayerTableRecord
  2
_2-A_MOJI
 70
     0
 62
     7
  6
CONTINUOUS
370
    -3
390
F
  0
LAYER
  5
50
330
2
100
AcDbSymbolTableRecord
100
AcDbLayerTableRecord
  2
_2-B_DIM
 70
     0
 62
     7
  6
CONTINUOUS
370
    -3
390
F
  0
LAYER
  5
51
330
2
100
AcDbSymbolTableRecord
100
AcDbLayerTableRecord
  2
_2-D_ハッチ他
 70
     0
 62
     7
  6
CONTINUOUS
370
    -3
390
F
  0
LAYER
  5
52
330
2
100
AcDbSymbolTableRecord
100
AcDbLayerTableRecord
  2
_2-E_CON他
 70
     0
 62
     7
  6
CONTINUOUS
370
    -3
390
F
  0
LAYER
  5
53
330
2
100
AcDbSymbolTableRecord
100
AcDbLayerTableRecord
  2
_F-2_
 70
     0
 62
     7
  6
CONTINUOUS
370
    -3
390
F
  0
LAYER
  5
54
330
2
100
AcDbSymbolTableRecord
100
AcDbLayerTableRecord
  2
_F-5_
 70
     0
 62
     7
  6
CONTINUOUS
370
    -3
390
F
  0
LAYER
  5
55
330
2
100
AcDbSymbolTableRecord
100
AcDbLayerTableRecord
  2
_F-7_
 70
     0
 62
     7
  6
CONTINUOUS
370
    -3
390
F
  0
LAYER
  5
56
330
2
100
AcDbSymbolTableRecord
100
AcDbLayerTableRecord
  2
_F-8_
 70
     0
 62
     7
  6
CONTINUOUS
370
    -3
390
F
  0
LAYER
  5
57
330
2
100
AcDbSymbolTableRecord
100
AcDbLayerTableRecord
  2
_F-A_
 70
     0
 62
     7
  6
CONTINUOUS
370
    -3
390
F
  0
LAYER
  5
58
330
2
100
AcDbSymbolTableRecord
100
AcDbLayerTableRecord
  2
ADD_LINE
 70
     0
 62
     7
  6
CONTINUOUS
370
    -3
390
F
  0
ENDTAB
  0
TABLE
  2
STYLE
  5
3
330
0
100
AcDbSymbolTable
 70
     2
  0
STYLE
  5
11
330
3
100
AcDbSymbolTableRecord
100
AcDbTextStyleTableRecord
  2
STANDARD
 70
     0
 40
0.0
 41
1.0
 50
0.0
 71
     0
 42
0.2
  3
txt
  4
bigfont.shx
  0
STYLE
  5
48
330
3
100
AcDbSymbolTableRecord
100
AcDbTextStyleTableRecord
  2
TATEGAKI
 70
     4
 40
0.0
 41
1.0
 50
0.0
 71
     0
 42
1.0
  3
txt
  4
bigfont.shx
  0
ENDTAB
  0
TABLE
  2
VIEW
  5
6
330
0
100
AcDbSymbolTable
 70
     0
  0
ENDTAB
  0
TABLE
  2
UCS
  5
7
330
0
100
AcDbSymbolTable
 70
     0
  0
ENDTAB
  0
TABLE
  2
APPID
  5
9
330
0
100
AcDbSymbolTable
 70
     1
  0
APPID
  5
12
330
9
100
AcDbSymbolTableRecord
100
AcDbRegAppTableRecord
  2
ACAD
 70
     0
  0
ENDTAB
  0
TABLE
  2
DIMSTYLE
  5
A
330
0
100
AcDbSymbolTable
 70
     1
100
AcDbDimStyleTable
 71
     0
  0
DIMSTYLE
105
768
330
A
100
AcDbSymbolTableRecord
100
AcDbDimStyleTableRecord
  2
Standard
 70
     0
340
11
  0
ENDTAB
  0
TABLE
  2
BLOCK_RECORD
  5
1
330
0
100
AcDbSymbolTable
 70
     0
  0
BLOCK_RECORD
  5
22
330
1
100
AcDbSymbolTableRecord
100
AcDbBlockTableRecord
  2
*Model_Space
340
25
  0
BLOCK_RECORD
  5
1E
330
1
100
AcDbSymbolTableRecord
100
AcDbBlockTableRecord
  2
*Paper_Space
340
21
  0
ENDTAB
  0
ENDSEC
  0
SECTION
  2
BLOCKS
  0
BLOCK
  5
23
330
22
100
AcDbEntity
  8
0
100
AcDbBlockBegin
  2
*Model_Space
 70
     0
 10
0.0
 20
0.0
 30
0.0
  3
*Model_Space
  1

  0
ENDBLK
  5
24
330
22
100
AcDbEntity
  8
0
100
AcDbBlockEnd
  0
BLOCK
  5
1F
330
1E
100
AcDbEntity
 67
     1
  8
0
100
AcDbBlockBegin
  2
*Paper_Space
 70
     0
 10
0.0
 20
0.0
 30
0.0
  3
*Paper_Space
  1

  0
ENDBLK
  5
20
330
1E
100
AcDbEntity
 67
     1
  8
0
100
AcDbBlockEnd
  0
ENDSEC
  0
SECTION
  2
ENTITIES
  0
LINE
  5
5C
330
22
100
AcDbEntity
  8
ADD_LINE
  6
DOT
 62
   136
100
AcDbLine
 10
541.7114805369656
 20
1463.519383998523
 30
0.0
 11
541.7114805369656
 21
33.51938399852372
 31
0.0
  0
LINE
  5
5D
330
22
100
AcDbEntity
  8
ADD_LINE
  6
DOT
 62
   136
100
AcDbLine
 10
541.7114805369656
 20
1463.519383998523
 30
0.0
 11
1541.711480536966
 21
1463.519383998523
 31
0.0
  0
LINE
  5
5E
330
22
100
AcDbEntity
  8
_F-7_
  6
Continuous
 62
     1
100
AcDbLine
 10
641.7114805369656
 20
1363.519383998524
 30
0.0
 11
1441.711480536965
 21
1363.519383998524
 31
0.0
  0
LINE
  5
5F
330
22
100
AcDbEntity
  8
ADD_LINE
  6
DOT
 62
   136
100
AcDbLine
 10
1541.711480536966
 20
1463.519383998523
 30
0.0
 11
1541.711480536966
 21
33.51938399852372
 31
0.0
  0
LINE
  5
60
330
22
100
AcDbEntity
  8
ADD_LINE
  6
DOT
 62
   136
100
AcDbLine
 10
1541.711480536966
 20
33.51938399852372
 30
0.0
 11
541.7114805369633
 21
33.51938399852372
 31
0.0
  0
LINE
  5
61
330
22
100
AcDbEntity
  8
_F-7_
  6
Continuous
 62
     1
100
AcDbLine
 10
641.7114805369656
 20
773.5193839985236
 30
0.0
 11
1441.711480536965
 21
773.5193839985236
 31
0.0
  0
LINE
  5
62
330
22
100
AcDbEntity
  8
_F-7_
  6
Continuous
 62
     1
100
AcDbLine
 10
1441.711480536965
 20
1363.519383998524
 30
0.0
 11
1441.711480536965
 21
773.5193839985236
 31
0.0
  0
LINE
  5
63
330
22
100
AcDbEntity
  8
_F-7_
  6
Continuous
 62
     1
100
AcDbLine
 10
641.7114805369656
 20
1363.519383998524
 30
0.0
 11
641.7114805369656
 21
773.5193839985236
 31
0.0
  0
LINE
  5
64
330
22
100
AcDbEntity
  8
ADD_LINE
  6
DOT
 62
   136
100
AcDbLine
 10
641.7114805369656
 20
793.5193839985235
 30
0.0
 11
1441.711480536965
 21
793.5193839985235
 31
0.0
  0
LINE
  5
65
330
22
100
AcDbEntity
  8
_F-7_
  6
Continuous
 62
     1
100
AcDbLine
 10
641.7114805369656
 20
723.5193839985235
 30
0.0
 11
641.7114805369656
 21
133.5193839985237
 31
0.0
  0
LINE
  5
66
330
22
100
AcDbEntity
  8
_F-7_
  6
Continuous
 62
     1
100
AcDbLine
 10
1441.711480536965
 20
723.5193839985235
 30
0.0
 11
1441.711480536965
 21
133.5193839985237
 31
0.0
  0
LINE
  5
67
330
22
100
AcDbEntity
  8
_F-5_
  6
Continuous
 62
     6
100
AcDbLine
 10
641.7114805369656
 20
813.5193839985236
 30
0.0
 11
1441.711480536965
 21
813.5193839985236
 31
0.0
  0
LINE
  5
68
330
22
100
AcDbEntity
  8
ADD_LINE
  6
DOT
 62
   136
100
AcDbLine
 10
661.7114805369656
 20
813.5193839985236
 30
0.0
 11
661.7114805369656
 21
773.5193839985236
 31
0.0
  0
LINE
  5
69
330
22
100
AcDbEntity
  8
_F-7_
  6
Continuous
 62
     1
100
AcDbLine
 10
641.7114805369656
 20
133.5193839985237
 30
0.0
 11
1441.711480536965
 21
133.5193839985237
 31
0.0
  0
LINE
  5
6A
330
22
100
AcDbEntity
  8
ADD_LINE
  6
DOT
 62
   136
100
AcDbLine
 10
641.7114805369656
 20
153.5193839985237
 30
0.0
 11
1441.711480536965
 21
153.5193839985237
 31
0.0
  0
LINE
  5
6B
330
22
100
AcDbEntity
  8
_F-5_
  6
Continuous
 62
     6
100
AcDbLine
 10
641.7114805369656
 20
173.5193839985237
 30
0.0
 11
1441.711480536965
 21
173.5193839985237
 31
0.0
  0
LINE
  5
6C
330
22
100
AcDbEntity
  8
ADD_LINE
  6
DOT
 62
   136
100
AcDbLine
 10
661.7114805369656
 20
173.5193839985237
 30
0.0
 11
661.7114805369656
 21
133.5193839985237
 31
0.0
  0
LINE
  5
6D
330
22
100
AcDbEntity
  8
_F-7_
  6
Continuous
 62
     1
100
AcDbLine
 10
641.7114805369656
 20
723.5193839985235
 30
0.0
 11
1441.711480536965
 21
723.5193839985235
 31
0.0
  0
LINE
  5
6E
330
22
100
AcDbEntity
  8
_F-2_
  6
Continuous
 62
     7
100
AcDbLine
 10
1011.711480536965
 20
813.5193839985236
 30
0.0
 11
1011.711480536965
 21
773.5193839985236
 31
0.0
  0
LINE
  5
6F
330
22
100
AcDbEntity
  8
ADD_LINE
  6
DOT
 62
   136
100
AcDbLine
 10
1026.711480536965
 20
813.5193839985236
 30
0.0
 11
1026.711480536965
 21
773.5193839985236
 31
0.0
  0
LINE
  5
70
330
22
100
AcDbEntity
  8
ADD_LINE
  6
DOT
 62
   136
100
AcDbLine
 10
876.7114805369656
 20
813.5193839985236
 30
0.0
 11
876.7114805369656
 21
773.5193839985236
 31
0.0
  0
TEXT
  5
71
330
22
100
AcDbEntity
  8
_F-A_
 62
     7
100
AcDbText
 10
876.7114805369656
 20
783.5193839985236
 30
0.0
 40
17.5
  1
下地：ＲＣ
100
AcDbText
  0
LINE
  5
72
330
22
100
AcDbEntity
  8
_F-2_
  6
Continuous
 62
     7
100
AcDbLine
 10
1011.711480536965
 20
173.5193839985237
 30
0.0
 11
1011.711480536965
 21
133.5193839985237
 31
0.0
  0
LINE
  5
73
330
22
100
AcDbEntity
  8
ADD_LINE
  6
DOT
 62
   136
100
AcDbLine
 10
1026.711480536965
 20
173.5193839985237
 30
0.0
 11
1026.711480536965
 21
133.5193839985237
 31
0.0
  0
LINE
  5
74
330
22
100
AcDbEntity
  8
ADD_LINE
  6
DOT
 62
   136
100
AcDbLine
 10
876.7114805369656
 20
173.5193839985237
 30
0.0
 11
876.7114805369656
 21
133.5193839985237
 31
0.0
  0
LINE
  5
75
330
22
100
AcDbEntity
  8
_F-5_
  6
Continuous
 62
     6
100
AcDbLine
 10
861.7114805369656
 20
813.5193839985236
 30
0.0
 11
861.7114805369656
 21
773.5193839985236
 31
0.0
  0
LINE
  5
76
330
22
100
AcDbEntity
  8
_F-5_
  6
Continuous
 62
     6
100
AcDbLine
 10
861.7114805369656
 20
173.5193839985237
 30
0.0
 11
861.7114805369656
 21
133.5193839985237
 31
0.0
  0
LINE
  5
77
330
22
100
AcDbEntity
  8
_F-5_
  6
Continuous
 62
     6
100
AcDbLine
 10
859.2114805369655
 20
813.5193839985236
 30
0.0
 11
859.2114805369655
 21
773.5193839985236
 31
0.0
  0
LINE
  5
78
330
22
100
AcDbEntity
  8
_F-5_
  6
Continuous
 62
     6
100
AcDbLine
 10
859.2114805369655
 20
173.5193839985237
 30
0.0
 11
859.2114805369655
 21
133.5193839985237
 31
0.0
  0
TEXT
  5
79
330
22
100
AcDbEntity
  8
_F-A_
 62
     7
100
AcDbText
 10
1026.711480536965
 20
783.5193839985236
 30
0.0
 40
17.5
  1
部位：立上り角
100
AcDbText
  0
TEXT
  5
7A
330
22
100
AcDbEntity
  8
_F-A_
 62
     7
100
AcDbText
 10
1026.711480536965
 20
143.5193839985237
 30
0.0
 40
17.5
  1
部位：立上り角
100
AcDbText
  0
TEXT
  5
7B
330
22
100
AcDbEntity
  8
_F-A_
 62
     7
100
AcDbText
 10
661.7114805369656
 20
783.5193839985236
 30
0.0
 40
20.0
  1
１２５・１２７仕様
100
AcDbText
  0
TEXT
  5
7C
330
22
100
AcDbEntity
  8
_F-A_
 62
     7
100
AcDbText
 10
661.7114805369656
 20
143.5193839985237
 30
0.0
 40
20.0
  1
１２５・１２７仕様
100
AcDbText
  0
LINE
  5
7D
330
22
100
AcDbEntity
  8
ADD_LINE
  6
DOT
 62
   136
100
AcDbLine
 10
1326.711480536965
 20
813.5193839985236
 30
0.0
 11
1326.711480536965
 21
773.5193839985236
 31
0.0
  0
LINE
  5
7E
330
22
100
AcDbEntity
  8
_F-2_
  6
Continuous
 62
     7
100
AcDbLine
 10
1311.711480536965
 20
813.5193839985236
 30
0.0
 11
1311.711480536965
 21
773.5193839985236
 31
0.0
  0
LINE
  5
7F
330
22
100
AcDbEntity
  8
ADD_LINE
  6
DOT
 62
   136
100
AcDbLine
 10
1221.711480536965
 20
813.5193839985236
 30
0.0
 11
1221.711480536965
 21
773.5193839985236
 31
0.0
  0
LINE
  5
80
330
22
100
AcDbEntity
  8
_F-2_
  6
Continuous
 62
     7
100
AcDbLine
 10
1206.711480536965
 20
813.5193839985236
 30
0.0
 11
1206.711480536965
 21
773.5193839985236
 31
0.0
  0
TEXT
  5
81
330
22
100
AcDbEntity
  8
_F-A_
 62
     7
100
AcDbText
 10
1221.711480536965
 20
783.5193839985236
 30
0.0
 40
15.0
  1
Ｓ＝１：５
100
AcDbText
  0
TEXT
  5
82
330
22
100
AcDbEntity
  8
_F-A_
 62
     7
100
AcDbText
 10
1326.711480536965
 20
783.5193839985236
 30
0.0
 40
15.0
  1
図番
100
AcDbText
  0
LINE
  5
83
330
22
100
AcDbEntity
  8
ADD_LINE
  6
DOT
 62
   136
100
AcDbLine
 10
1326.711480536965
 20
173.5193839985237
 30
0.0
 11
1326.711480536965
 21
133.5193839985237
 31
0.0
  0
LINE
  5
84
330
22
100
AcDbEntity
  8
_F-2_
  6
Continuous
 62
     7
100
AcDbLine
 10
1311.711480536965
 20
173.5193839985237
 30
0.0
 11
1311.711480536965
 21
133.5193839985237
 31
0.0
  0
LINE
  5
85
330
22
100
AcDbEntity
  8
ADD_LINE
  6
DOT
 62
   136
100
AcDbLine
 10
1221.711480536965
 20
173.5193839985237
 30
0.0
 11
1221.711480536965
 21
133.5193839985237
 31
0.0
  0
LINE
  5
86
330
22
100
AcDbEntity
  8
_F-2_
  6
Continuous
 62
     7
100
AcDbLine
 10
1206.711480536965
 20
173.5193839985237
 30
0.0
 11
1206.711480536965
 21
133.5193839985237
 31
0.0
  0
TEXT
  5
87
330
22
100
AcDbEntity
  8
_F-A_
 62
     7
100
AcDbText
 10
1221.711480536965
 20
143.5193839985237
 30
0.0
 40
15.0
  1
Ｓ＝１：５
100
AcDbText
  0
TEXT
  5
88
330
22
100
AcDbEntity
  8
_F-A_
 62
     7
100
AcDbText
 10
1326.711480536965
 20
143.5193839985237
 30
0.0
 40
15.0
  1
図番
100
AcDbText
  0
TEXT
  5
89
330
22
100
AcDbEntity
  8
_F-A_
 62
     7
100
AcDbText
 10
1373.129149261072
 20
783.5193839985236
 30
0.0
 40
15.0
  1
３－３
100
AcDbText
  0
TEXT
  5
8A
330
22
100
AcDbEntity
  8
_F-A_
 62
     7
100
AcDbText
 10
1373.129149261072
 20
143.5193839985237
 30
0.0
 40
15.0
  1
３－４
100
AcDbText
  0
TEXT
  5
8B
330
22
100
AcDbEntity
  8
_F-A_
 62
     7
100
AcDbText
 10
876.7114805369656
 20
143.5193839985237
 30
0.0
 40
17.5
  1
下地：ＡＬＣ
100
AcDbText
  0
LINE
  5
8C
330
22
100
AcDbEntity
  8
_2-E_CON他
  6
Continuous
 62
     4
100
AcDbLine
 10
716.7114805369656
 20
495.6859101278705
 30
0.0
 11
866.7114805369656
 21
645.6859101278706
 31
0.0
  0
LINE
  5
8D
330
22
100
AcDbEntity
  8
_2-E_CON他
  6
Continuous
 62
     4
100
AcDbLine
 10
716.7114805369656
 20
1135.68591012787
 30
0.0
 11
866.7114805369656
 21
1285.685910127871
 31
0.0
  0
LINE
  5
8E
330
22
100
AcDbEntity
  8
_2-E_CON他
  6
Continuous
 62
     4
100
AcDbLine
 10
716.7114805369656
 20
1128.614842316004
 30
0.0
 11
866.7114805369656
 21
1278.614842316004
 31
0.0
  0
LINE
  5
8F
330
22
100
AcDbEntity
  8
_2-E_CON他
  6
Continuous
 62
     4
100
AcDbLine
 10
716.7114805369656
 20
1121.543774504142
 30
0.0
 11
866.7114805369656
 21
1271.543774504139
 31
0.0
  0
LINE
  5
90
330
22
100
AcDbEntity
  8
_2-E_CON他
  6
Continuous
 62
     4
100
AcDbLine
 10
716.7114805369656
 20
921.5437745041416
 30
0.0
 11
866.7114805369656
 21
1071.543774504139
 31
0.0
  0
LINE
  5
91
330
22
100
AcDbEntity
  8
_2-E_CON他
  6
Continuous
 62
     4
100
AcDbLine
 10
716.7114805369656
 20
935.6859101278704
 30
0.0
 11
866.7114805369656
 21
1085.68591012787
 31
0.0
  0
LINE
  5
92
330
22
100
AcDbEntity
  8
_2-E_CON他
  6
Continuous
 62
     4
100
AcDbLine
 10
716.7114805369656
 20
928.6148423160041
 30
0.0
 11
866.7114805369656
 21
1078.614842316004
 31
0.0
  0
LINE
  5
93
330
22
100
AcDbEntity
  8
_2-E_CON他
  6
Continuous
 62
     4
100
AcDbLine
 10
1094.54495440762
 20
913.5193839985236
 30
0.0
 11
1244.54495440762
 21
1063.519383998523
 31
0.0
  0
LINE
  5
94
330
22
100
AcDbEntity
  8
_2-E_CON他
  6
Continuous
 62
     4
100
AcDbLine
 10
1108.68709003135
 20
913.5193839985236
 30
0.0
 11
1258.687090031349
 21
1063.519383998523
 31
0.0
  0
LINE
  5
95
330
22
100
AcDbEntity
  8
_2-E_CON他
  6
Continuous
 62
     4
100
AcDbLine
 10
1101.616022219485
 20
913.5193839985236
 30
0.0
 11
1251.616022219485
 21
1063.519383998523
 31
0.0
  0
LINE
  5
96
330
22
100
AcDbEntity
  8
_2-E_CON他
  6
Continuous
 62
     4
100
AcDbLine
 10
1308.687090031349
 20
913.5193839985236
 30
0.0
 11
1366.711480536965
 21
971.5437745041397
 31
0.0
  0
LINE
  5
97
330
22
100
AcDbEntity
  8
_2-E_CON他
  6
Continuous
 62
     4
100
AcDbLine
 10
1301.616022219485
 20
913.5193839985236
 30
0.0
 11
1366.711480536965
 21
978.6148423160041
 31
0.0
  0
LINE
  5
98
330
22
100
AcDbEntity
  8
_2-E_CON他
  6
Continuous
 62
     4
100
AcDbLine
 10
1294.544954407619
 20
913.5193839985236
 30
0.0
 11
1366.711480536965
 21
985.6859101278704
 31
0.0
  0
LINE
  5
99
330
22
100
AcDbEntity
  8
_2-D_ハッチ他
  6
Continuous
 62
     4
100
AcDbLine
 10
1315.453749928359
 20
1063.519383998526
 30
0.0
 11
1345.453749928358
 21
1093.519383998526
 31
0.0
  0
LINE
  5
9A
330
22
100
AcDbEntity
  8
_2-D_ハッチ他
  6
Continuous
 62
     4
100
AcDbLine
 10
1287.169478680892
 20
1063.519383998523
 30
0.0
 11
1317.169478680892
 21
1093.519383998526
 31
0.0
  0
LINE
  5
9B
330
22
100
AcDbEntity
  8
_2-D_ハッチ他
  6
Continuous
 62
     4
100
AcDbLine
 10
1258.885207433431
 20
1063.519383998523
 30
0.0
 11
1288.885207433433
 21
1093.519383998526
 31
0.0
  0
LINE
  5
9C
330
22
100
AcDbEntity
  8
_2-D_ハッチ他
  6
Continuous
 62
     4
100
AcDbLine
 10
1230.600936185967
 20
1063.519383998526
 30
0.0
 11
1260.600936185967
 21
1093.519383998524
 31
0.0
  0
LINE
  5
9D
330
22
100
AcDbEntity
  8
_2-D_ハッチ他
  6
Continuous
 62
     4
100
AcDbLine
 10
1202.316664938507
 20
1063.519383998523
 30
0.0
 11
1232.316664938511
 21
1093.519383998526
 31
0.0
  0
LINE
  5
9E
330
22
100
AcDbEntity
  8
_2-D_ハッチ他
  6
Continuous
 62
     4
100
AcDbLine
 10
1174.032393691043
 20
1063.519383998526
 30
0.0
 11
1204.032393691044
 21
1093.519383998526
 31
0.0
  0
LINE
  5
9F
330
22
100
AcDbEntity
  8
_2-D_ハッチ他
  6
Continuous
 62
     4
100
AcDbLine
 10
1145.748122443583
 20
1063.519383998523
 30
0.0
 11
1175.748122443584
 21
1093.519383998524
 31
0.0
  0
LINE
  5
A0
330
22
100
AcDbEntity
  8
_2-D_ハッチ他
  6
Continuous
 62
     4
100
AcDbLine
 10
1117.46385119612
 20
1063.519383998526
 30
0.0
 11
1147.463851196119
 21
1093.519383998526
 31
0.0
  0
LINE
  5
A1
330
22
100
AcDbEntity
  8
_2-D_ハッチ他
  6
Continuous
 62
     4
100
AcDbLine
 10
1060.895308701196
 20
1063.519383998526
 30
0.0
 11
1090.895308701195
 21
1093.519383998526
 31
0.0
  0
LINE
  5
A2
330
22
100
AcDbEntity
  8
_2-D_ハッチ他
  6
Continuous
 62
     4
100
AcDbLine
 10
1032.611037453736
 20
1063.519383998523
 30
0.0
 11
1062.611037453737
 21
1093.519383998524
 31
0.0
  0
LINE
  5
A3
330
22
100
AcDbEntity
  8
_2-D_ハッチ他
  6
Continuous
 62
     4
100
AcDbLine
 10
1004.326766206269
 20
1063.519383998523
 30
0.0
 11
1034.326766206267
 21
1093.519383998524
 31
0.0
  0
LINE
  5
A4
330
22
100
AcDbEntity
  8
_2-D_ハッチ他
  6
Continuous
 62
     4
100
AcDbLine
 10
976.0424949588125
 20
1063.519383998523
 30
0.0
 11
1006.042494958812
 21
1093.519383998524
 31
0.0
  0
LINE
  5
A5
330
22
100
AcDbEntity
  8
_2-D_ハッチ他
  6
Continuous
 62
     4
100
AcDbLine
 10
947.7582237113548
 20
1063.519383998523
 30
0.0
 11
977.7582237113549
 21
1093.519383998524
 31
0.0
  0
LINE
  5
A6
330
22
100
AcDbEntity
  8
_2-D_ハッチ他
  6
Continuous
 62
     4
100
AcDbLine
 10
919.4739524638883
 20
1063.519383998523
 30
0.0
 11
949.4739524638884
 21
1093.519383998524
 31
0.0
  0
LINE
  5
A7
330
22
100
AcDbEntity
  8
_2-D_ハッチ他
  6
Continuous
 62
     4
100
AcDbLine
 10
866.7114805369633
 20
1068.790091026922
 30
0.0
 11
871.9821875653639
 21
1063.519383998521
 31
0.0
  0
LINE
  5
A8
330
22
100
AcDbEntity
  8
_2-D_ハッチ他
  6
Continuous
 62
     4
100
AcDbLine
 10
898.5507300602884
 20
1093.519383998521
 30
0.0
 11
928.5507300602873
 21
1063.519383998521
 31
0.0
  0
LINE
  5
A9
330
22
100
AcDbEntity
  8
_2-D_ハッチ他
  6
Continuous
 62
     4
100
AcDbLine
 10
926.8350013077526
 20
1093.519383998524
 30
0.0
 11
956.8350013077516
 21
1063.519383998523
 31
0.0
  0
LINE
  5
AA
330
22
100
AcDbEntity
  8
_2-D_ハッチ他
  6
Continuous
 62
     4
100
AcDbLine
 10
955.1192725552114
 20
1093.519383998521
 30
0.0
 11
985.1192725552126
 21
1063.519383998521
 31
0.0
  0
LINE
  5
AB
330
22
100
AcDbEntity
  8
_2-D_ハッチ他
  6
Continuous
 62
     4
100
AcDbLine
 10
983.4035438026772
 20
1093.519383998524
 30
0.0
 11
1013.403543802679
 21
1063.519383998521
 31
0.0
  0
LINE
  5
AC
330
22
100
AcDbEntity
  8
_2-D_ハッチ他
  6
Continuous
 62
     4
100
AcDbLine
 10
1011.687815050136
 20
1093.519383998521
 30
0.0
 11
1041.687815050136
 21
1063.519383998521
 31
0.0
  0
LINE
  5
AD
330
22
100
AcDbEntity
  8
_2-D_ハッチ他
  6
Continuous
 62
     4
100
AcDbLine
 10
1039.9720862976
 20
1093.519383998524
 30
0.0
 11
1069.972086297602
 21
1063.519383998521
 31
0.0
  0
LINE
  5
AE
330
22
100
AcDbEntity
  8
_2-D_ハッチ他
  6
Continuous
 62
     4
100
AcDbLine
 10
1068.25635754506
 20
1093.519383998521
 30
0.0
 11
1098.25635754506
 21
1063.519383998523
 31
0.0
  0
LINE
  5
AF
330
22
100
AcDbEntity
  8
_2-D_ハッチ他
  6
Continuous
 62
     4
100
AcDbLine
 10
1124.824900039984
 20
1093.519383998521
 30
0.0
 11
1154.824900039984
 21
1063.519383998523
 31
0.0
  0
LINE
  5
B0
330
22
100
AcDbEntity
  8
_2-D_ハッチ他
  6
Continuous
 62
     4
100
AcDbLine
 10
1153.109171287442
 20
1093.519383998524
 30
0.0
 11
1183.109171287442
 21
1063.519383998523
 31
0.0
  0
LINE
  5
B1
330
22
100
AcDbEntity
  8
_2-D_ハッチ他
  6
Continuous
 62
     4
100
AcDbLine
 10
1181.393442534909
 20
1093.519383998524
 30
0.0
 11
1211.393442534908
 21
1063.519383998523
 31
0.0
  0
LINE
  5
B2
330
22
100
AcDbEntity
  8
_2-D_ハッチ他
  6
Continuous
 62
     4
100
AcDbLine
 10
1209.677713782366
 20
1093.519383998524
 30
0.0
 11
1239.677713782366
 21
1063.519383998523
 31
0.0
  0
LINE
  5
B3
330
22
100
AcDbEntity
  8
_2-D_ハッチ他
  6
Continuous
 62
     4
100
AcDbLine
 10
1237.961985029833
 20
1093.519383998524
 30
0.0
 11
1267.961985029832
 21
1063.519383998523
 31
0.0
  0
LINE
  5
B4
330
22
100
AcDbEntity
  8
_2-D_ハッチ他
  6
Continuous
 62
     4
100
AcDbLine
 10
1266.246256277293
 20
1093.519383998519
 30
0.0
 11
1296.246256277292
 21
1063.519383998521
 31
0.0
  0
LINE
  5
B5
330
22
100
AcDbEntity
  8
_2-D_ハッチ他
  6
Continuous
 62
     4
100
AcDbLine
 10
1294.530527524757
 20
1093.519383998524
 30
0.0
 11
1324.530527524757
 21
1063.519383998523
 31
0.0
  0
LINE
  5
B6
330
22
100
AcDbEntity
  8
_2-D_ハッチ他
  6
Continuous
 62
     4
100
AcDbLine
 10
1322.814798772217
 20
1093.519383998521
 30
0.0
 11
1352.814798772216
 21
1063.519383998521
 31
0.0
  0
LINE
  5
B7
330
22
100
AcDbEntity
  8
_2-D_ハッチ他
  6
Continuous
 62
     4
100
AcDbLine
 10
1089.17957994866
 20
1063.519383998523
 30
0.0
 11
1119.17957994866
 21
1093.519383998524
 31
0.0
  0
LINE
  5
B8
330
22
100
AcDbEntity
  8
_2-D_ハッチ他
  6
Continuous
 62
     4
100
AcDbLine
 10
1096.540628792526
 20
1093.519383998521
 30
0.0
 11
1126.540628792526
 21
1063.519383998521
 31
0.0
  0
LINE
  5
B9
330
22
100
AcDbEntity
  8
_2-D_ハッチ他
  6
Continuous
 62
     4
100
AcDbLine
 10
1343.738021175815
 20
1063.519383998526
 30
0.0
 11
1366.711480536965
 21
1086.492843359675
 31
0.0
  0
LINE
  5
BA
330
22
100
AcDbEntity
  8
_2-D_ハッチ他
  6
Continuous
 62
     4
100
AcDbLine
 10
1351.099070019681
 20
1093.519383998524
 30
0.0
 11
1366.711480536965
 21
1077.906973481238
 31
0.0
  0
LINE
  5
BB
330
22
100
AcDbEntity
  8
_2-B_DIM
  6
Continuous
 62
     7
100
AcDbLine
 10
962.7114805369576
 20
1076.367475219909
 30
0.0
 11
962.7114805369576
 21
1036.337105506991
 31
0.0
  0
POINT
  5
BC
330
22
100
AcDbEntity
  8
_2-B_DIM
 62
     1
100
AcDbPoint
 10
962.7114805369576
 20
1036.337105506991
 30
0.0
  0
LINE
  5
BD
330
22
100
AcDbEntity
  8
_2-B_DIM
  6
Continuous
 62
     7
100
AcDbLine
 10
918.773658363453
 20
1036.337105506991
 30
0.0
 11
962.7114805369576
 21
1036.337105506991
 31
0.0
  0
POINT
  5
BE
330
22
100
AcDbEntity
  8
_2-B_DIM
 62
     1
100
AcDbPoint
 10
918.773658363453
 20
1036.337105506991
 30
0.0
  0
LINE
  5
BF
330
22
100
AcDbEntity
  8
_2-B_DIM
  6
Continuous
 62
     7
100
AcDbLine
 10
918.773658363453
 20
1076.367475219909
 30
0.0
 11
918.773658363453
 21
1036.337105506991
 31
0.0
  0
ARC
  5
C0
330
22
100
AcDbEntity
  8
_2-4_OUT_LINE
  6
Continuous
 62
     2
100
AcDbCircle
 10
874.7114805369651
 20
1120.019383998529
 30
0.0
 40
3.0
100
AcDbArc
 50
180.0
 51
270.0
  0
LINE
  5
C1
330
22
100
AcDbEntity
  8
_2-4_OUT_LINE
  6
Continuous
 62
     2
100
AcDbLine
 10
871.7114805369655
 20
1120.019383998529
 30
0.0
 11
871.7114805369655
 21
1313.519383998523
 31
0.0
  0
LINE
  5
C2
330
22
100
AcDbEntity
  8
_2-4_OUT_LINE
  6
Continuous
 62
     2
100
AcDbLine
 10
962.7114805369576
 20
1108.519383998523
 30
0.0
 11
1366.711480536965
 21
1108.519383998523
 31
0.0
  0
LINE
  5
C3
330
22
100
AcDbEntity
  8
_2-4_OUT_LINE
  6
Continuous
 62
     2
100
AcDbLine
 10
962.7114805369576
 20
1108.519383998523
 30
0.0
 11
962.7114805369576
 21
1113.519383998523
 31
0.0
  0
LINE
  5
C4
330
22
100
AcDbEntity
  8
_2-D_ハッチ他
  6
Continuous
 62
     4
100
AcDbLine
 10
1314.524403955023
 20
1093.519383998526
 30
0.0
 11
1324.524403955023
 21
1103.519383998526
 31
0.0
  0
LINE
  5
C5
330
22
100
AcDbEntity
  8
_2-D_ハッチ他
  6
Continuous
 62
     4
100
AcDbLine
 10
1300.382268331292
 20
1093.519383998528
 30
0.0
 11
1310.382268331292
 21
1103.519383998528
 31
0.0
  0
LINE
  5
C6
330
22
100
AcDbEntity
  8
_2-D_ハッチ他
  6
Continuous
 62
     4
100
AcDbLine
 10
1286.240132707556
 20
1093.519383998526
 30
0.0
 11
1296.240132707557
 21
1103.519383998526
 31
0.0
  0
LINE
  5
C7
330
22
100
AcDbEntity
  8
_2-D_ハッチ他
  6
Continuous
 62
     4
100
AcDbLine
 10
1272.097997083832
 20
1093.519383998526
 30
0.0
 11
1282.097997083832
 21
1103.519383998526
 31
0.0
  0
LINE
  5
C8
330
22
100
AcDbEntity
  8
_2-D_ハッチ他
  6
Continuous
 62
     4
100
AcDbLine
 10
1257.955861460098
 20
1093.519383998526
 30
0.0
 11
1267.955861460098
 21
1103.519383998526
 31
0.0
  0
LINE
  5
C9
330
22
100
AcDbEntity
  8
_2-D_ハッチ他
  6
Continuous
 62
     4
100
AcDbLine
 10
1243.813725836365
 20
1093.519383998526
 30
0.0
 11
1253.813725836367
 21
1103.519383998528
 31
0.0
  0
LINE
  5
CA
330
22
100
AcDbEntity
  8
_2-D_ハッチ他
  6
Continuous
 62
     4
100
AcDbLine
 10
1229.671590212632
 20
1093.519383998526
 30
0.0
 11
1239.671590212632
 21
1103.519383998526
 31
0.0
  0
LINE
  5
CB
330
22
100
AcDbEntity
  8
_2-D_ハッチ他
  6
Continuous
 62
     4
100
AcDbLine
 10
1215.529454588908
 20
1093.519383998526
 30
0.0
 11
1225.529454588908
 21
1103.519383998526
 31
0.0
  0
LINE
  5
CC
330
22
100
AcDbEntity
  8
_2-D_ハッチ他
  6
Continuous
 62
     4
100
AcDbLine
 10
1201.387318965175
 20
1093.519383998528
 30
0.0
 11
1211.387318965175
 21
1103.519383998528
 31
0.0
  0
LINE
  5
CD
330
22
100
AcDbEntity
  8
_2-D_ハッチ他
  6
Continuous
 62
     4
100
AcDbLine
 10
1187.245183341441
 20
1093.519383998526
 30
0.0
 11
1197.245183341441
 21
1103.519383998526
 31
0.0
  0
LINE
  5
CE
330
22
100
AcDbEntity
  8
_2-D_ハッチ他
  6
Continuous
 62
     4
100
AcDbLine
 10
1173.103047717705
 20
1093.519383998524
 30
0.0
 11
1183.103047717706
 21
1103.519383998524
 31
0.0
  0
LINE
  5
CF
330
22
100
AcDbEntity
  8
_2-D_ハッチ他
  6
Continuous
 62
     4
100
AcDbLine
 10
1158.960912093983
 20
1093.519383998526
 30
0.0
 11
1168.960912093983
 21
1103.519383998526
 31
0.0
  0
LINE
  5
D0
330
22
100
AcDbEntity
  8
_2-D_ハッチ他
  6
Continuous
 62
     4
100
AcDbLine
 10
1144.818776470251
 20
1093.519383998528
 30
0.0
 11
1154.818776470251
 21
1103.519383998528
 31
0.0
  0
LINE
  5
D1
330
22
100
AcDbEntity
  8
_2-D_ハッチ他
  6
Continuous
 62
     4
100
AcDbLine
 10
1130.676640846516
 20
1093.519383998526
 30
0.0
 11
1140.676640846516
 21
1103.519383998526
 31
0.0
  0
LINE
  5
D2
330
22
100
AcDbEntity
  8
_2-D_ハッチ他
  6
Continuous
 62
     4
100
AcDbLine
 10
1116.534505222791
 20
1093.519383998524
 30
0.0
 11
1126.534505222791
 21
1103.519383998524
 31
0.0
  0
LINE
  5
D3
330
22
100
AcDbEntity
  8
_2-D_ハッチ他
  6
Continuous
 62
     4
100
AcDbLine
 10
1102.392369599059
 20
1093.519383998526
 30
0.0
 11
1112.392369599059
 21
1103.519383998526
 31
0.0
  0
LINE
  5
D4
330
22
100
AcDbEntity
  8
_2-D_ハッチ他
  6
Continuous
 62
     4
100
AcDbLine
 10
1088.250233975328
 20
1093.519383998528
 30
0.0
 11
1098.250233975327
 21
1103.519383998528
 31
0.0
  0
LINE
  5
D5
330
22
100
AcDbEntity
  8
_2-D_ハッチ他
  6
Continuous
 62
     4
100
AcDbLine
 10
1074.108098351592
 20
1093.519383998526
 30
0.0
 11
1084.108098351592
 21
1103.519383998526
 31
0.0
  0
LINE
  5
D6
330
22
100
AcDbEntity
  8
_2-D_ハッチ他
  6
Continuous
 62
     4
100
AcDbLine
 10
1045.823827104136
 20
1093.519383998528
 30
0.0
 11
1055.823827104135
 21
1103.519383998526
 31
0.0
  0
LINE
  5
D7
330
22
100
AcDbEntity
  8
_2-D_ハッチ他
  6
Continuous
 62
     4
100
AcDbLine
 10
1031.681691480402
 20
1093.519383998528
 30
0.0
 11
1041.681691480404
 21
1103.519383998528
 31
0.0
  0
LINE
  5
D8
330
22
100
AcDbEntity
  8
_2-D_ハッチ他
  6
Continuous
 62
     4
100
AcDbLine
 10
1017.539555856668
 20
1093.519383998526
 30
0.0
 11
1027.539555856668
 21
1103.519383998526
 31
0.0
  0
LINE
  5
D9
330
22
100
AcDbEntity
  8
_2-D_ハッチ他
  6
Continuous
 62
     4
100
AcDbLine
 10
1003.397420232944
 20
1093.519383998526
 30
0.0
 11
1013.397420232944
 21
1103.519383998526
 31
0.0
  0
LINE
  5
DA
330
22
100
AcDbEntity
  8
_2-D_ハッチ他
  6
Continuous
 62
     4
100
AcDbLine
 10
989.2552846092108
 20
1093.519383998526
 30
0.0
 11
999.2552846092108
 21
1103.519383998526
 31
0.0
  0
LINE
  5
DB
330
22
100
AcDbEntity
  8
_2-D_ハッチ他
  6
Continuous
 62
     4
100
AcDbLine
 10
975.1131489854774
 20
1093.519383998526
 30
0.0
 11
985.1131489854795
 21
1103.519383998528
 31
0.0
  0
LINE
  5
DC
330
22
100
AcDbEntity
  8
_2-D_ハッチ他
  6
Continuous
 62
     4
100
AcDbLine
 10
960.9710133617438
 20
1093.519383998526
 30
0.0
 11
970.9710133617438
 21
1103.519383998526
 31
0.0
  0
LINE
  5
DD
330
22
100
AcDbEntity
  8
_2-D_ハッチ他
  6
Continuous
 62
     4
100
AcDbLine
 10
946.8288777380198
 20
1093.519383998526
 30
0.0
 11
956.8288777380198
 21
1103.519383998526
 31
0.0
  0
LINE
  5
DE
330
22
100
AcDbEntity
  8
_2-D_ハッチ他
  6
Continuous
 62
     4
100
AcDbLine
 10
932.6867421142875
 20
1093.519383998528
 30
0.0
 11
942.6867421142874
 21
1103.519383998528
 31
0.0
  0
LINE
  5
DF
330
22
100
AcDbEntity
  8
_2-D_ハッチ他
  6
Continuous
 62
     4
100
AcDbLine
 10
918.5446064905532
 20
1093.519383998526
 30
0.0
 11
928.5446064905533
 21
1103.519383998526
 31
0.0
  0
LINE
  5
E0
330
22
100
AcDbEntity
  8
_2-D_ハッチ他
  6
Continuous
 62
     4
100
AcDbLine
 10
904.4024708668207
 20
1093.519383998528
 30
0.0
 11
914.4024708668199
 21
1103.519383998526
 31
0.0
  0
LINE
  5
E1
330
22
100
AcDbEntity
  8
_2-D_ハッチ他
  6
Continuous
 62
     4
100
AcDbLine
 10
1059.965962727857
 20
1093.519383998524
 30
0.0
 11
1069.965962727857
 21
1103.519383998524
 31
0.0
  0
LINE
  5
E2
330
22
100
AcDbEntity
  8
_2-D_ハッチ他
  6
Continuous
 62
     4
100
AcDbLine
 10
876.1181996193634
 20
1093.519383998528
 30
0.0
 11
886.1181996193634
 21
1103.519383998528
 31
0.0
  0
LINE
  5
E3
330
22
100
AcDbEntity
  8
_2-D_ハッチ他
  6
Continuous
 62
     4
100
AcDbLine
 10
868.9265186303474
 20
1100.469838633244
 30
0.0
 11
871.9760639956289
 21
1103.519383998526
 31
0.0
  0
LINE
  5
E4
330
22
100
AcDbEntity
  8
_2-D_ハッチ他
  6
Continuous
 62
     4
100
AcDbLine
 10
1356.950810826214
 20
1093.519383998528
 30
0.0
 11
1366.950810826214
 21
1103.519383998528
 31
0.0
  0
LINE
  5
E5
330
22
100
AcDbEntity
  8
_2-D_ハッチ他
  6
Continuous
 62
     4
100
AcDbLine
 10
1342.80867520248
 20
1093.519383998526
 30
0.0
 11
1352.808675202483
 21
1103.519383998528
 31
0.0
  0
LINE
  5
E6
330
22
100
AcDbEntity
  8
_2-D_ハッチ他
  6
Continuous
 62
     4
100
AcDbLine
 10
1328.666539578747
 20
1093.519383998528
 30
0.0
 11
1338.666539578747
 21
1103.519383998528
 31
0.0
  0
TEXT
  5
E7
330
22
100
AcDbEntity
  8
_2-A_MOJI
 62
     7
100
AcDbText
 10
1109.795740603608
 20
1203.808262618762
 30
0.0
 40
15.0
  1
塩ビシート 接着工法
100
AcDbText
  0
TEXT
  5
E8
330
22
100
AcDbEntity
  8
_2-A_MOJI
 62
     7
100
AcDbText
 10
1109.795740603608
 20
1228.808262618761
 30
0.0
 40
15.0
  1
プルーフシーラー
100
AcDbText
  0
LINE
  5
E9
330
22
100
AcDbEntity
  8
_2-A_MOJI
  6
Continuous
 62
     7
100
AcDbLine
 10
1099.795740603608
 20
1186.308262618761
 30
0.0
 11
1063.216928396551
 21
1186.308262618761
 31
0.0
  0
LINE
  5
EA
330
22
100
AcDbEntity
  8
_2-A_MOJI
  6
Continuous
 62
     7
100
AcDbLine
 10
1099.795740603608
 20
1211.308262618761
 30
0.0
 11
1077.650685126292
 21
1211.308262618761
 31
0.0
  0
LINE
  5
EB
330
22
100
AcDbEntity
  8
_2-A_MOJI
  6
Continuous
 62
     7
100
AcDbLine
 10
1002.735314282873
 20
1081.551034050096
 30
0.0
 11
1077.650685126292
 21
1211.308262618761
 31
0.0
  0
LINE
  5
EC
330
22
100
AcDbEntity
  8
_2-A_MOJI
  6
Continuous
 62
     7
100
AcDbLine
 10
1008.949022531139
 20
1261.308262618761
 30
0.0
 11
971.5932854436195
 21
1261.308262618761
 31
0.0
  0
TEXT
  5
ED
330
22
100
AcDbEntity
  8
_2-A_MOJI
 62
     7
100
AcDbText
 10
1018.949022531139
 20
1253.808262618761
 30
0.0
 40
15.0
  1
ＢＰ－Ｈ１５
100
AcDbText
  0
LINE
  5
EE
330
22
100
AcDbEntity
  8
_2-A_MOJI
  6
Continuous
 62
     7
100
AcDbLine
 10
1099.795740603608
 20
1161.308262618761
 30
0.0
 11
1048.78317166681
 21
1161.308262618761
 31
0.0
  0
LINE
  5
EF
330
22
100
AcDbEntity
  8
_2-A_MOJI
  6
Continuous
 62
     7
100
AcDbLine
 10
885.4013111852085
 20
1112.019383998527
 30
0.0
 11
971.5932854436195
 21
1261.308262618761
 31
0.0
  0
LINE
  5
F0
330
22
100
AcDbEntity
  8
_2-A_MOJI
  6
Continuous
 62
     7
100
AcDbLine
 10
961.9450138851924
 20
1116.674811026678
 30
0.0
 11
1031.015419365966
 21
1236.308262618761
 31
0.0
  0
LINE
  5
F1
330
22
100
AcDbEntity
  8
_2-A_MOJI
  6
Continuous
 62
     7
100
AcDbLine
 10
1099.795740603608
 20
1236.308262618761
 30
0.0
 11
1031.015419365966
 21
1236.308262618761
 31
0.0
  0
TEXT
  5
F2
330
22
100
AcDbEntity
  8
_2-A_MOJI
 62
     7
100
AcDbText
 10
1109.795740603608
 20
1153.808262618761
 30
0.0
 40
15.0
  1
断熱材
100
AcDbText
  0
TEXT
  5
F3
330
22
100
AcDbEntity
  8
_2-A_MOJI
 62
     7
100
AcDbText
 10
1109.795740603608
 20
1178.808262618761
 30
0.0
 40
15.0
  1
ＯＬパネル
100
AcDbText
  0
LINE
  5
F4
330
22
100
AcDbEntity
  8
_2-A_MOJI
  6
Continuous
 62
     7
100
AcDbLine
 10
1008.949022531139
 20
1311.308262618761
 30
0.0
 11
930.8196602984544
 21
1311.308262618761
 31
0.0
  0
TEXT
  5
F5
330
22
100
AcDbEntity
  8
_2-A_MOJI
 62
     7
100
AcDbText
 10
1018.949022531139
 20
1303.808262618761
 30
0.0
 40
15.0
  1
塩ビシート 接着工法
100
AcDbText
  0
LINE
  5
F6
330
22
100
AcDbEntity
  8
_2-A_MOJI
  6
Continuous
 62
     7
100
AcDbLine
 10
871.7114805369655
 20
1208.929892128949
 30
0.0
 11
930.8196602984544
 21
1311.308262618761
 31
0.0
  0
LINE
  5
F7
330
22
100
AcDbEntity
  8
_2-E_CON他
  6
Continuous
 62
     4
100
AcDbLine
 10
716.7114805369656
 20
488.6148423160039
 30
0.0
 11
866.7114805369656
 21
638.6148423160039
 31
0.0
  0
LINE
  5
F8
330
22
100
AcDbEntity
  8
_2-E_CON他
  6
Continuous
 62
     4
100
AcDbLine
 10
716.7114805369656
 20
295.6859101278707
 30
0.0
 11
866.7114805369656
 21
445.6859101278705
 31
0.0
  0
LINE
  5
F9
330
22
100
AcDbEntity
  8
_2-E_CON他
  6
Continuous
 62
     4
100
AcDbLine
 10
716.7114805369656
 20
288.614842316004
 30
0.0
 11
866.7114805369656
 21
438.6148423160039
 31
0.0
  0
LINE
  5
FA
330
22
100
AcDbEntity
  8
_2-E_CON他
  6
Continuous
 62
     4
100
AcDbLine
 10
1094.54495440762
 20
273.5193839985237
 30
0.0
 11
1244.54495440762
 21
423.5193839985237
 31
0.0
  0
LINE
  5
FB
330
22
100
AcDbEntity
  8
_2-E_CON他
  6
Continuous
 62
     4
100
AcDbLine
 10
1101.616022219485
 20
273.5193839985237
 30
0.0
 11
1251.616022219485
 21
423.5193839985237
 31
0.0
  0
LINE
  5
FC
330
22
100
AcDbEntity
  8
_2-E_CON他
  6
Continuous
 62
     4
100
AcDbLine
 10
1301.616022219485
 20
273.5193839985237
 30
0.0
 11
1366.711480536965
 21
338.614842316004
 31
0.0
  0
LINE
  5
FD
330
22
100
AcDbEntity
  8
_2-E_CON他
  6
Continuous
 62
     4
100
AcDbLine
 10
1294.544954407619
 20
273.5193839985237
 30
0.0
 11
1366.711480536965
 21
345.6859101278707
 31
0.0
  0
LINE
  5
FE
330
22
100
AcDbEntity
  8
_2-D_ハッチ他
  6
Continuous
 62
     4
100
AcDbLine
 10
1315.453749928359
 20
423.5193839985259
 30
0.0
 11
1345.453749928358
 21
453.5193839985237
 31
0.0
  0
LINE
  5
FF
330
22
100
AcDbEntity
  8
_2-D_ハッチ他
  6
Continuous
 62
     4
100
AcDbLine
 10
1287.169478680892
 20
423.5193839985237
 30
0.0
 11
1317.169478680892
 21
453.5193839985237
 31
0.0
  0
LINE
  5
100
330
22
100
AcDbEntity
  8
_2-D_ハッチ他
  6
Continuous
 62
     4
100
AcDbLine
 10
1258.885207433431
 20
423.5193839985215
 30
0.0
 11
1288.885207433433
 21
453.5193839985237
 31
0.0
  0
LINE
  5
101
330
22
100
AcDbEntity
  8
_2-D_ハッチ他
  6
Continuous
 62
     4
100
AcDbLine
 10
1230.600936185967
 20
423.5193839985237
 30
0.0
 11
1260.600936185967
 21
453.5193839985237
 31
0.0
  0
LINE
  5
102
330
22
100
AcDbEntity
  8
_2-D_ハッチ他
  6
Continuous
 62
     4
100
AcDbLine
 10
1202.316664938507
 20
423.5193839985215
 30
0.0
 11
1232.316664938511
 21
453.519383998526
 31
0.0
  0
LINE
  5
103
330
22
100
AcDbEntity
  8
_2-D_ハッチ他
  6
Continuous
 62
     4
100
AcDbLine
 10
1174.032393691043
 20
423.5193839985237
 30
0.0
 11
1204.032393691044
 21
453.519383998526
 31
0.0
  0
LINE
  5
104
330
22
100
AcDbEntity
  8
_2-D_ハッチ他
  6
Continuous
 62
     4
100
AcDbLine
 10
1145.748122443583
 20
423.5193839985215
 30
0.0
 11
1175.748122443584
 21
453.5193839985237
 31
0.0
  0
LINE
  5
105
330
22
100
AcDbEntity
  8
_2-D_ハッチ他
  6
Continuous
 62
     4
100
AcDbLine
 10
1117.46385119612
 20
423.5193839985259
 30
0.0
 11
1147.463851196119
 21
453.519383998526
 31
0.0
  0
LINE
  5
106
330
22
100
AcDbEntity
  8
_2-D_ハッチ他
  6
Continuous
 62
     4
100
AcDbLine
 10
1060.895308701196
 20
423.5193839985259
 30
0.0
 11
1090.895308701195
 21
453.519383998526
 31
0.0
  0
LINE
  5
107
330
22
100
AcDbEntity
  8
_2-D_ハッチ他
  6
Continuous
 62
     4
100
AcDbLine
 10
1032.611037453736
 20
423.5193839985237
 30
0.0
 11
1062.611037453737
 21
453.5193839985237
 31
0.0
  0
LINE
  5
108
330
22
100
AcDbEntity
  8
_2-D_ハッチ他
  6
Continuous
 62
     4
100
AcDbLine
 10
1004.326766206269
 20
423.5193839985237
 30
0.0
 11
1034.326766206267
 21
453.5193839985215
 31
0.0
  0
LINE
  5
109
330
22
100
AcDbEntity
  8
_2-D_ハッチ他
  6
Continuous
 62
     4
100
AcDbLine
 10
976.0424949588125
 20
423.5193839985237
 30
0.0
 11
1006.042494958812
 21
453.5193839985237
 31
0.0
  0
LINE
  5
10A
330
22
100
AcDbEntity
  8
_2-D_ハッチ他
  6
Continuous
 62
     4
100
AcDbLine
 10
891.1896812164217
 20
423.5193839985237
 30
0.0
 11
921.1896812164217
 21
453.5193839985237
 31
0.0
  0
LINE
  5
10B
330
22
100
AcDbEntity
  8
_2-D_ハッチ他
  6
Continuous
 62
     4
100
AcDbLine
 10
866.7114805369667
 20
427.3254545665265
 30
0.0
 11
892.9054099689638
 21
453.5193839985237
 31
0.0
  0
LINE
  5
10C
330
22
100
AcDbEntity
  8
_2-D_ハッチ他
  6
Continuous
 62
     4
100
AcDbLine
 10
866.7114805369633
 20
428.7900910269224
 30
0.0
 11
871.9821875653639
 21
423.5193839985215
 31
0.0
  0
LINE
  5
10D
330
22
100
AcDbEntity
  8
_2-D_ハッチ他
  6
Continuous
 62
     4
100
AcDbLine
 10
870.2664588128286
 20
453.5193839985237
 30
0.0
 11
900.2664588128297
 21
423.5193839985215
 31
0.0
  0
LINE
  5
10E
330
22
100
AcDbEntity
  8
_2-D_ハッチ他
  6
Continuous
 62
     4
100
AcDbLine
 10
898.5507300602884
 20
453.5193839985215
 30
0.0
 11
928.5507300602873
 21
423.5193839985215
 31
0.0
  0
LINE
  5
10F
330
22
100
AcDbEntity
  8
_2-D_ハッチ他
  6
Continuous
 62
     4
100
AcDbLine
 10
955.1192725552114
 20
453.5193839985215
 30
0.0
 11
985.1192725552126
 21
423.5193839985215
 31
0.0
  0
LINE
  5
110
330
22
100
AcDbEntity
  8
_2-D_ハッチ他
  6
Continuous
 62
     4
100
AcDbLine
 10
983.4035438026772
 20
453.5193839985237
 30
0.0
 11
1013.403543802679
 21
423.5193839985215
 31
0.0
  0
LINE
  5
111
330
22
100
AcDbEntity
  8
_2-D_ハッチ他
  6
Continuous
 62
     4
100
AcDbLine
 10
1011.687815050136
 20
453.5193839985215
 30
0.0
 11
1041.687815050136
 21
423.5193839985215
 31
0.0
  0
LINE
  5
112
330
22
100
AcDbEntity
  8
_2-D_ハッチ他
  6
Continuous
 62
     4
100
AcDbLine
 10
1039.9720862976
 20
453.5193839985237
 30
0.0
 11
1069.972086297602
 21
423.5193839985215
 31
0.0
  0
LINE
  5
113
330
22
100
AcDbEntity
  8
_2-D_ハッチ他
  6
Continuous
 62
     4
100
AcDbLine
 10
1068.25635754506
 20
453.5193839985215
 30
0.0
 11
1098.25635754506
 21
423.5193839985215
 31
0.0
  0
LINE
  5
114
330
22
100
AcDbEntity
  8
_2-D_ハッチ他
  6
Continuous
 62
     4
100
AcDbLine
 10
1124.824900039984
 20
453.5193839985215
 30
0.0
 11
1154.824900039984
 21
423.5193839985215
 31
0.0
  0
LINE
  5
115
330
22
100
AcDbEntity
  8
_2-D_ハッチ他
  6
Continuous
 62
     4
100
AcDbLine
 10
1153.109171287442
 20
453.5193839985215
 30
0.0
 11
1183.109171287442
 21
423.5193839985215
 31
0.0
  0
LINE
  5
116
330
22
100
AcDbEntity
  8
_2-D_ハッチ他
  6
Continuous
 62
     4
100
AcDbLine
 10
1181.393442534909
 20
453.5193839985215
 30
0.0
 11
1211.393442534908
 21
423.5193839985215
 31
0.0
  0
LINE
  5
117
330
22
100
AcDbEntity
  8
_2-D_ハッチ他
  6
Continuous
 62
     4
100
AcDbLine
 10
1209.677713782366
 20
453.5193839985215
 30
0.0
 11
1239.677713782366
 21
423.5193839985215
 31
0.0
  0
LINE
  5
118
330
22
100
AcDbEntity
  8
_2-D_ハッチ他
  6
Continuous
 62
     4
100
AcDbLine
 10
1237.961985029833
 20
453.5193839985215
 30
0.0
 11
1267.961985029832
 21
423.5193839985215
 31
0.0
  0
LINE
  5
119
330
22
100
AcDbEntity
  8
_2-D_ハッチ他
  6
Continuous
 62
     4
100
AcDbLine
 10
1266.246256277293
 20
453.5193839985192
 30
0.0
 11
1296.246256277292
 21
423.5193839985192
 31
0.0
  0
LINE
  5
11A
330
22
100
AcDbEntity
  8
_2-D_ハッチ他
  6
Continuous
 62
     4
100
AcDbLine
 10
1294.530527524757
 20
453.5193839985215
 30
0.0
 11
1324.530527524757
 21
423.5193839985215
 31
0.0
  0
LINE
  5
11B
330
22
100
AcDbEntity
  8
_2-D_ハッチ他
  6
Continuous
 62
     4
100
AcDbLine
 10
1322.814798772217
 20
453.5193839985192
 30
0.0
 11
1352.814798772216
 21
423.5193839985215
 31
0.0
  0
LINE
  5
11C
330
22
100
AcDbEntity
  8
_2-D_ハッチ他
  6
Continuous
 62
     4
100
AcDbLine
 10
1089.17957994866
 20
423.5193839985237
 30
0.0
 11
1119.17957994866
 21
453.5193839985237
 31
0.0
  0
LINE
  5
11D
330
22
100
AcDbEntity
  8
_2-D_ハッチ他
  6
Continuous
 62
     4
100
AcDbLine
 10
1096.540628792526
 20
453.5193839985215
 30
0.0
 11
1126.540628792526
 21
423.5193839985215
 31
0.0
  0
LINE
  5
11E
330
22
100
AcDbEntity
  8
_2-D_ハッチ他
  6
Continuous
 62
     4
100
AcDbLine
 10
1343.738021175815
 20
423.5193839985237
 30
0.0
 11
1366.711480536965
 21
446.4928433596748
 31
0.0
  0
LINE
  5
11F
330
22
100
AcDbEntity
  8
_2-D_ハッチ他
  6
Continuous
 62
     4
100
AcDbLine
 10
1351.099070019681
 20
453.5193839985215
 30
0.0
 11
1366.711480536965
 21
437.9069734812384
 31
0.0
  0
LINE
  5
120
330
22
100
AcDbEntity
  8
_2-D_ハッチ他
  6
Continuous
 62
     4
100
AcDbLine
 10
1314.524403955023
 20
453.519383998526
 30
0.0
 11
1324.524403955023
 21
463.519383998526
 31
0.0
  0
LINE
  5
121
330
22
100
AcDbEntity
  8
_2-D_ハッチ他
  6
Continuous
 62
     4
100
AcDbLine
 10
1300.382268331292
 20
453.519383998526
 30
0.0
 11
1310.382268331292
 21
463.519383998526
 31
0.0
  0
LINE
  5
122
330
22
100
AcDbEntity
  8
_2-D_ハッチ他
  6
Continuous
 62
     4
100
AcDbLine
 10
1286.240132707556
 20
453.519383998526
 30
0.0
 11
1296.240132707557
 21
463.519383998526
 31
0.0
  0
LINE
  5
123
330
22
100
AcDbEntity
  8
_2-D_ハッチ他
  6
Continuous
 62
     4
100
AcDbLine
 10
1272.097997083832
 20
453.5193839985237
 30
0.0
 11
1282.097997083832
 21
463.5193839985237
 31
0.0
  0
LINE
  5
124
330
22
100
AcDbEntity
  8
_2-D_ハッチ他
  6
Continuous
 62
     4
100
AcDbLine
 10
1257.955861460098
 20
453.519383998526
 30
0.0
 11
1267.955861460098
 21
463.519383998526
 31
0.0
  0
LINE
  5
125
330
22
100
AcDbEntity
  8
_2-D_ハッチ他
  6
Continuous
 62
     4
100
AcDbLine
 10
1243.813725836365
 20
453.5193839985237
 30
0.0
 11
1253.813725836367
 21
463.519383998526
 31
0.0
  0
LINE
  5
126
330
22
100
AcDbEntity
  8
_2-D_ハッチ他
  6
Continuous
 62
     4
100
AcDbLine
 10
1229.671590212632
 20
453.519383998526
 30
0.0
 11
1239.671590212632
 21
463.519383998526
 31
0.0
  0
LINE
  5
127
330
22
100
AcDbEntity
  8
_2-D_ハッチ他
  6
Continuous
 62
     4
100
AcDbLine
 10
1215.529454588908
 20
453.519383998526
 30
0.0
 11
1225.529454588908
 21
463.519383998526
 31
0.0
  0
LINE
  5
128
330
22
100
AcDbEntity
  8
_2-D_ハッチ他
  6
Continuous
 62
     4
100
AcDbLine
 10
1201.387318965175
 20
453.519383998526
 30
0.0
 11
1211.387318965175
 21
463.519383998526
 31
0.0
  0
LINE
  5
129
330
22
100
AcDbEntity
  8
_2-D_ハッチ他
  6
Continuous
 62
     4
100
AcDbLine
 10
1187.245183341441
 20
453.5193839985237
 30
0.0
 11
1197.245183341441
 21
463.5193839985237
 31
0.0
  0
LINE
  5
12A
330
22
100
AcDbEntity
  8
_2-D_ハッチ他
  6
Continuous
 62
     4
100
AcDbLine
 10
1173.103047717705
 20
453.5193839985237
 30
0.0
 11
1183.103047717706
 21
463.5193839985237
 31
0.0
  0
LINE
  5
12B
330
22
100
AcDbEntity
  8
_2-D_ハッチ他
  6
Continuous
 62
     4
100
AcDbLine
 10
1158.960912093983
 20
453.519383998526
 30
0.0
 11
1168.960912093983
 21
463.519383998526
 31
0.0
  0
LINE
  5
12C
330
22
100
AcDbEntity
  8
_2-D_ハッチ他
  6
Continuous
 62
     4
100
AcDbLine
 10
1144.818776470251
 20
453.519383998526
 30
0.0
 11
1154.818776470251
 21
463.519383998526
 31
0.0
  0
LINE
  5
12D
330
22
100
AcDbEntity
  8
_2-D_ハッチ他
  6
Continuous
 62
     4
100
AcDbLine
 10
1130.676640846516
 20
453.519383998526
 30
0.0
 11
1140.676640846516
 21
463.5193839985237
 31
0.0
  0
LINE
  5
12E
330
22
100
AcDbEntity
  8
_2-D_ハッチ他
  6
Continuous
 62
     4
100
AcDbLine
 10
1116.534505222791
 20
453.5193839985237
 30
0.0
 11
1126.534505222791
 21
463.5193839985237
 31
0.0
  0
LINE
  5
12F
330
22
100
AcDbEntity
  8
_2-D_ハッチ他
  6
Continuous
 62
     4
100
AcDbLine
 10
1102.392369599059
 20
453.519383998526
 30
0.0
 11
1112.392369599059
 21
463.519383998526
 31
0.0
  0
LINE
  5
130
330
22
100
AcDbEntity
  8
_2-D_ハッチ他
  6
Continuous
 62
     4
100
AcDbLine
 10
1088.250233975328
 20
453.519383998526
 30
0.0
 11
1098.250233975327
 21
463.519383998526
 31
0.0
  0
LINE
  5
131
330
22
100
AcDbEntity
  8
_2-D_ハッチ他
  6
Continuous
 62
     4
100
AcDbLine
 10
1074.108098351592
 20
453.519383998526
 30
0.0
 11
1084.108098351592
 21
463.519383998526
 31
0.0
  0
LINE
  5
132
330
22
100
AcDbEntity
  8
_2-D_ハッチ他
  6
Continuous
 62
     4
100
AcDbLine
 10
1045.823827104136
 20
453.519383998526
 30
0.0
 11
1055.823827104135
 21
463.519383998526
 31
0.0
  0
LINE
  5
133
330
22
100
AcDbEntity
  8
_2-D_ハッチ他
  6
Continuous
 62
     4
100
AcDbLine
 10
1031.681691480402
 20
453.519383998526
 30
0.0
 11
1041.681691480404
 21
463.519383998526
 31
0.0
  0
LINE
  5
134
330
22
100
AcDbEntity
  8
_2-D_ハッチ他
  6
Continuous
 62
     4
100
AcDbLine
 10
1017.539555856668
 20
453.519383998526
 30
0.0
 11
1027.539555856668
 21
463.519383998526
 31
0.0
  0
LINE
  5
135
330
22
100
AcDbEntity
  8
_2-D_ハッチ他
  6
Continuous
 62
     4
100
AcDbLine
 10
1003.397420232944
 20
453.5193839985237
 30
0.0
 11
1013.397420232944
 21
463.5193839985237
 31
0.0
  0
LINE
  5
136
330
22
100
AcDbEntity
  8
_2-D_ハッチ他
  6
Continuous
 62
     4
100
AcDbLine
 10
989.2552846092108
 20
453.519383998526
 30
0.0
 11
999.2552846092108
 21
463.519383998526
 31
0.0
  0
LINE
  5
137
330
22
100
AcDbEntity
  8
_2-D_ハッチ他
  6
Continuous
 62
     4
100
AcDbLine
 10
975.1131489854774
 20
453.5193839985237
 30
0.0
 11
985.1131489854795
 21
463.519383998526
 31
0.0
  0
LINE
  5
138
330
22
100
AcDbEntity
  8
_2-D_ハッチ他
  6
Continuous
 62
     4
100
AcDbLine
 10
960.9710133617438
 20
453.519383998526
 30
0.0
 11
970.9710133617438
 21
463.519383998526
 31
0.0
  0
LINE
  5
139
330
22
100
AcDbEntity
  8
_2-D_ハッチ他
  6
Continuous
 62
     4
100
AcDbLine
 10
932.6867421142875
 20
453.519383998526
 30
0.0
 11
942.6867421142874
 21
463.519383998526
 31
0.0
  0
LINE
  5
13A
330
22
100
AcDbEntity
  8
_2-D_ハッチ他
  6
Continuous
 62
     4
100
AcDbLine
 10
918.5446064905532
 20
453.5193839985237
 30
0.0
 11
928.5446064905533
 21
463.5193839985237
 31
0.0
  0
LINE
  5
13B
330
22
100
AcDbEntity
  8
_2-D_ハッチ他
  6
Continuous
 62
     4
100
AcDbLine
 10
904.4024708668207
 20
453.519383998526
 30
0.0
 11
914.4024708668199
 21
463.519383998526
 31
0.0
  0
LINE
  5
13C
330
22
100
AcDbEntity
  8
_2-D_ハッチ他
  6
Continuous
 62
     4
100
AcDbLine
 10
1059.965962727857
 20
453.5193839985237
 30
0.0
 11
1069.965962727857
 21
463.5193839985237
 31
0.0
  0
LINE
  5
13D
330
22
100
AcDbEntity
  8
_2-D_ハッチ他
  6
Continuous
 62
     4
100
AcDbLine
 10
876.1181996193634
 20
453.519383998526
 30
0.0
 11
886.1181996193634
 21
463.519383998526
 31
0.0
  0
LINE
  5
13E
330
22
100
AcDbEntity
  8
_2-D_ハッチ他
  6
Continuous
 62
     4
100
AcDbLine
 10
1356.950810826214
 20
453.519383998526
 30
0.0
 11
1366.950810826214
 21
463.519383998526
 31
0.0
  0
LINE
  5
13F
330
22
100
AcDbEntity
  8
_2-D_ハッチ他
  6
Continuous
 62
     4
100
AcDbLine
 10
1342.80867520248
 20
453.519383998526
 30
0.0
 11
1352.808675202483
 21
463.5193839985282
 31
0.0
  0
LINE
  5
140
330
22
100
AcDbEntity
  8
_2-D_ハッチ他
  6
Continuous
 62
     4
100
AcDbLine
 10
1328.666539578747
 20
453.519383998526
 30
0.0
 11
1338.666539578747
 21
463.519383998526
 31
0.0
  0
LINE
  5
141
330
22
100
AcDbEntity
  8
_2-A_MOJI
  6
Continuous
 62
     7
100
AcDbLine
 10
1008.949022531139
 20
671.3082626187615
 30
0.0
 11
930.8196602984544
 21
671.3082626187615
 31
0.0
  0
TEXT
  5
142
330
22
100
AcDbEntity
  8
_2-A_MOJI
 62
     7
100
AcDbText
 10
1018.949022531139
 20
663.8082626187615
 30
0.0
 40
15.0
  1
塩ビシート 接着工法
100
AcDbText
  0
LINE
  5
143
330
22
100
AcDbEntity
  8
_2-A_MOJI
  6
Continuous
 62
     7
100
AcDbLine
 10
871.7114805369655
 20
568.9298921289497
 30
0.0
 11
930.8196602984544
 21
671.3082626187615
 31
0.0
  0
ARC
  5
144
330
22
100
AcDbEntity
  8
_2-4_OUT_LINE
  6
Continuous
 62
     2
100
AcDbCircle
 10
880.8138165369651
 20
482.5985159985231
 30
0.0
 40
5.597374000000001
100
AcDbArc
 50
183.5740969999999
 51
266.6376570000001
  0
LINE
  5
145
330
22
100
AcDbEntity
  8
_2-B_DIM
  6
Continuous
 62
     7
100
AcDbLine
 10
1016.074985031619
 20
436.3674752199091
 30
0.0
 11
1016.074985031619
 21
396.3371055069893
 31
0.0
  0
POINT
  5
146
330
22
100
AcDbEntity
  8
_2-B_DIM
 62
     1
100
AcDbPoint
 10
1016.074985031619
 20
396.3371055069893
 30
0.0
  0
LINE
  5
147
330
22
100
AcDbEntity
  8
_2-B_DIM
  6
Continuous
 62
     7
100
AcDbLine
 10
972.1371628581149
 20
396.3371055069893
 30
0.0
 11
1016.074985031619
 21
396.3371055069893
 31
0.0
  0
POINT
  5
148
330
22
100
AcDbEntity
  8
_2-B_DIM
 62
     1
100
AcDbPoint
 10
972.1371628581149
 20
396.3371055069893
 30
0.0
  0
LINE
  5
149
330
22
100
AcDbEntity
  8
_2-B_DIM
  6
Continuous
 62
     7
100
AcDbLine
 10
972.1371628581149
 20
436.3674752199091
 30
0.0
 11
972.1371628581149
 21
396.3371055069893
 31
0.0
  0
LINE
  5
14A
330
22
100
AcDbEntity
  8
_2-D_ハッチ他
  6
Continuous
 62
     4
100
AcDbLine
 10
866.7114805369656
 20
458.2548005398625
 30
0.0
 11
871.9760639956289
 21
463.5193839985237
 31
0.0
  0
LINE
  5
14B
330
22
100
AcDbEntity
  8
_2-D_ハッチ他
  6
Continuous
 62
     4
100
AcDbLine
 10
890.2603352430944
 20
453.5193839985237
 30
0.0
 11
900.2603352430956
 21
463.519383998526
 31
0.0
  0
LINE
  5
14C
330
22
100
AcDbEntity
  8
_2-4_OUT_LINE
  6
Continuous
 62
     2
100
AcDbLine
 10
1016.074985031619
 20
468.5193839985237
 30
0.0
 11
1366.711480536965
 21
468.5193839985237
 31
0.0
  0
LINE
  5
14D
330
22
100
AcDbEntity
  8
_2-4_OUT_LINE
  6
Continuous
 62
     2
100
AcDbLine
 10
1016.074985031619
 20
468.5193839985237
 30
0.0
 11
1016.074985031619
 21
473.5193839985237
 31
0.0
  0
TEXT
  5
14E
330
22
100
AcDbEntity
  8
_2-A_MOJI
 62
     7
100
AcDbText
 10
1165.169592799705
 20
563.8082626187615
 30
0.0
 40
15.0
  1
塩ビシート 接着工法
100
AcDbText
  0
TEXT
  5
14F
330
22
100
AcDbEntity
  8
_2-A_MOJI
 62
     7
100
AcDbText
 10
1165.169592799705
 20
588.8082626187615
 30
0.0
 40
15.0
  1
プルーフシーラー
100
AcDbText
  0
LINE
  5
150
330
22
100
AcDbEntity
  8
_2-A_MOJI
  6
Continuous
 62
     7
100
AcDbLine
 10
1155.169592799705
 20
546.3082626187616
 30
0.0
 11
1118.590780592649
 21
546.3082626187616
 31
0.0
  0
LINE
  5
151
330
22
100
AcDbEntity
  8
_2-A_MOJI
  6
Continuous
 62
     7
100
AcDbLine
 10
1155.169592799705
 20
571.3082626187615
 30
0.0
 11
1133.024537322389
 21
571.3082626187615
 31
0.0
  0
LINE
  5
152
330
22
100
AcDbEntity
  8
_2-A_MOJI
  6
Continuous
 62
     7
100
AcDbLine
 10
1155.169592799705
 20
521.3082626187616
 30
0.0
 11
1104.157023862908
 21
521.3082626187616
 31
0.0
  0
LINE
  5
153
330
22
100
AcDbEntity
  8
_2-A_MOJI
  6
Continuous
 62
     7
100
AcDbLine
 10
1155.169592799705
 20
596.3082626187615
 30
0.0
 11
1086.389271562063
 21
596.3082626187615
 31
0.0
  0
TEXT
  5
154
330
22
100
AcDbEntity
  8
_2-A_MOJI
 62
     7
100
AcDbText
 10
1165.169592799705
 20
513.8082626187617
 30
0.0
 40
15.0
  1
断熱材
100
AcDbText
  0
TEXT
  5
155
330
22
100
AcDbEntity
  8
_2-A_MOJI
 62
     7
100
AcDbText
 10
1165.169592799705
 20
538.8082626187617
 30
0.0
 40
15.0
  1
ＯＬパネル
100
AcDbText
  0
LINE
  5
156
330
22
100
AcDbEntity
  8
_2-A_MOJI
  6
Continuous
 62
     7
100
AcDbLine
 10
1058.109166478971
 20
441.5510340500969
 30
0.0
 11
1133.024537322389
 21
571.3082626187615
 31
0.0
  0
LINE
  5
157
330
22
100
AcDbEntity
  8
_2-A_MOJI
  6
Continuous
 62
     7
100
AcDbLine
 10
1017.318866081289
 20
476.6748110266785
 30
0.0
 11
1086.389271562063
 21
596.3082626187615
 31
0.0
  0
LINE
  5
158
330
22
100
AcDbEntity
  8
_2-A_MOJI
  6
Continuous
 62
     7
100
AcDbLine
 10
1064.322874727237
 20
621.3082626187615
 30
0.0
 11
1015.086157858178
 21
621.3082626187615
 31
0.0
  0
LINE
  5
159
330
22
100
AcDbEntity
  8
_2-A_MOJI
  6
Continuous
 62
     7
100
AcDbLine
 10
928.894183599767
 20
472.0193839985251
 30
0.0
 11
1015.086157858178
 21
621.3082626187615
 31
0.0
  0
TEXT
  5
15A
330
22
100
AcDbEntity
  8
_2-A_MOJI
 62
     7
100
AcDbText
 10
1074.322874727236
 20
613.8082626187615
 30
0.0
 40
15.0
  1
ＢＰ－Ｈ１８
100
AcDbText
  0
LINE
  5
15B
330
22
100
AcDbEntity
  8
_2-3_
  6
Continuous
 62
     3
100
AcDbLine
 10
1016.711480536965
 20
913.5193839985236
 30
0.0
 11
1366.711480536965
 21
913.5193839985236
 31
0.0
  0
LINE
  5
15C
330
22
100
AcDbEntity
  8
_2-3_
  6
Continuous
 62
     3
100
AcDbLine
 10
1016.711480536965
 20
913.5193839985236
 30
0.0
 11
1016.711480536965
 21
863.5193839985236
 31
0.0
  0
LINE
  5
15D
330
22
100
AcDbEntity
  8
_2-3_
  6
Continuous
 62
     3
100
AcDbLine
 10
716.7114805369656
 20
1313.519383998523
 30
0.0
 11
716.7114805369656
 21
863.5193839985236
 31
0.0
  0
LINE
  5
15E
330
22
100
AcDbEntity
  8
_2-3_
  6
Continuous
 62
     3
100
AcDbLine
 10
716.7114805369656
 20
673.5193839985235
 30
0.0
 11
716.7114805369656
 21
223.5193839985237
 31
0.0
  0
LINE
  5
15F
330
22
100
AcDbEntity
  8
_2-A_MOJI
  6
Continuous
 62
     7
100
AcDbLine
 10
934.3982310002568
 20
992.580559888684
 30
0.0
 11
907.7056213590331
 21
992.580559888684
 31
0.0
  0
LINE
  5
160
330
22
100
AcDbEntity
  8
_2-A_MOJI
  6
Continuous
 62
     7
100
AcDbLine
 10
891.2652206536231
 20
1021.056169207245
 30
0.0
 11
907.7056213590331
 21
992.580559888684
 31
0.0
  0
LINE
  5
161
330
22
100
AcDbEntity
  8
_2-A_MOJI
  6
Continuous
 62
     7
100
AcDbLine
 10
991.2630414671896
 20
351.7814053795911
 30
0.0
 11
964.5704318259662
 21
351.7814053795911
 31
0.0
  0
LINE
  5
162
330
22
100
AcDbEntity
  8
_2-A_MOJI
  6
Continuous
 62
     7
100
AcDbLine
 10
948.130031120556
 20
380.2570146981526
 30
0.0
 11
964.5704318259662
 21
351.7814053795911
 31
0.0
  0
LINE
  5
163
330
22
100
AcDbEntity
  8
_2-3_
  6
Continuous
 62
     3
100
AcDbLine
 10
866.7114805369656
 20
273.5193839985237
 30
0.0
 11
1366.711480536965
 21
273.5193839985237
 31
0.0
  0
LINE
  5
164
330
22
100
AcDbEntity
  8
_2-E_CON他
  6
Continuous
 62
     4
100
AcDbLine
 10
844.5449544076197
 20
223.5193839985237
 30
0.0
 11
866.7114805369656
 21
245.6859101278684
 31
0.0
  0
LINE
  5
165
330
22
100
AcDbEntity
  8
_2-E_CON他
  6
Continuous
 62
     4
100
AcDbLine
 10
851.6160222194853
 20
223.5193839985237
 30
0.0
 11
866.7114805369656
 21
238.614842316004
 31
0.0
  0
LINE
  5
166
330
22
100
AcDbEntity
  8
_2-E_CON他
  6
Continuous
 62
     4
100
AcDbLine
 10
858.6870900313485
 20
863.5193839985236
 30
0.0
 11
977.2415841485084
 21
982.0738781156848
 31
0.0
  0
LINE
  5
167
330
22
100
AcDbEntity
  8
_2-E_CON他
  6
Continuous
 62
     4
100
AcDbLine
 10
999.259287749456
 20
1004.091581716632
 30
0.0
 11
1058.68709003135
 21
1063.519383998523
 31
0.0
  0
LINE
  5
168
330
22
100
AcDbEntity
  8
_2-E_CON他
  6
Continuous
 62
     4
100
AcDbLine
 10
844.5449544076197
 20
863.5193839985236
 30
0.0
 11
963.0994485247795
 21
982.0738781156848
 31
0.0
  0
LINE
  5
169
330
22
100
AcDbEntity
  8
_2-E_CON他
  6
Continuous
 62
     4
100
AcDbLine
 10
985.1171521257272
 20
1004.091581716632
 30
0.0
 11
1044.544954407619
 21
1063.519383998523
 31
0.0
  0
LINE
  5
16A
330
22
100
AcDbEntity
  8
_2-E_CON他
  6
Continuous
 62
     4
100
AcDbLine
 10
851.6160222194853
 20
863.5193839985236
 30
0.0
 11
970.170516336644
 21
982.0738781156848
 31
0.0
  0
LINE
  5
16B
330
22
100
AcDbEntity
  8
_2-E_CON他
  6
Continuous
 62
     4
100
AcDbLine
 10
992.1882199375929
 20
1004.091581716632
 30
0.0
 11
1051.616022219485
 21
1063.519383998523
 31
0.0
  0
LINE
  5
16C
330
22
100
AcDbEntity
  8
_2-2_IN_LINE
  6
Continuous
 62
     7
100
AcDbLine
 10
866.7114805369656
 20
1313.519383998523
 30
0.0
 11
866.7114805369656
 21
1063.519383998523
 31
0.0
  0
LINE
  5
16D
330
22
100
AcDbEntity
  8
_2-2_IN_LINE
  6
Continuous
 62
     7
100
AcDbLine
 10
866.7114805369656
 20
1063.519383998523
 30
0.0
 11
1366.711480536965
 21
1063.519383998523
 31
0.0
  0
ARC
  5
16E
330
22
100
AcDbEntity
  8
_2-2_IN_LINE
  6
Continuous
 62
     7
100
AcDbCircle
 10
874.7114805369651
 20
1120.019383998529
 30
0.0
 40
8.0
100
AcDbArc
 50
180.0
 51
270.0
  0
LINE
  5
16F
330
22
100
AcDbEntity
  8
_2-2_IN_LINE
  6
Continuous
 62
     7
100
AcDbLine
 10
956.714348470026
 20
1113.519383998523
 30
0.0
 11
956.7325672575485
 21
1113.650288945205
 31
0.0
  0
LINE
  5
170
330
22
100
AcDbEntity
  8
_2-2_IN_LINE
  6
Continuous
 62
     7
100
AcDbLine
 10
956.7325672575485
 20
1113.650288945205
 30
0.0
 11
956.7656340372094
 21
1113.875362880224
 31
0.0
  0
LINE
  5
171
330
22
100
AcDbEntity
  8
_2-2_IN_LINE
  6
Continuous
 62
     7
100
AcDbLine
 10
956.7656340372094
 20
1113.875362880224
 30
0.0
 11
956.8032982530755
 21
1114.098702790482
 31
0.0
  0
LINE
  5
172
330
22
100
AcDbEntity
  8
_2-2_IN_LINE
  6
Continuous
 62
     7
100
AcDbLine
 10
956.8032982530755
 20
1114.098702790482
 30
0.0
 11
956.8484696748994
 21
1114.319211191953
 31
0.0
  0
LINE
  5
173
330
22
100
AcDbEntity
  8
_2-2_IN_LINE
  6
Continuous
 62
     7
100
AcDbLine
 10
956.8484696748994
 20
1114.319211191953
 30
0.0
 11
956.9040580724296
 21
1114.535790600612
 31
0.0
  0
LINE
  5
174
330
22
100
AcDbEntity
  8
_2-2_IN_LINE
  6
Continuous
 62
     7
100
AcDbLine
 10
956.9040580724296
 20
1114.535790600612
 30
0.0
 11
956.9729732154188
 21
1114.747343532431
 31
0.0
  0
LINE
  5
175
330
22
100
AcDbEntity
  8
_2-2_IN_LINE
  6
Continuous
 62
     7
100
AcDbLine
 10
956.9729732154188
 20
1114.747343532431
 30
0.0
 11
957.0201969137119
 21
1114.867308635424
 31
0.0
  0
LINE
  5
176
330
22
100
AcDbEntity
  8
_2-2_IN_LINE
  6
Continuous
 62
     7
100
AcDbLine
 10
957.0201969137119
 20
1114.867308635424
 30
0.0
 11
957.0611379749754
 21
1114.959425475013
 31
0.0
  0
LINE
  5
177
330
22
100
AcDbEntity
  8
_2-2_IN_LINE
  6
Continuous
 62
     7
100
AcDbLine
 10
957.0611379749754
 20
1114.959425475013
 30
0.0
 11
957.1395531476566
 21
1115.115139778027
 31
0.0
  0
LINE
  5
178
330
22
100
AcDbEntity
  8
_2-2_IN_LINE
  6
Continuous
 62
     7
100
AcDbLine
 10
957.1395531476566
 20
1115.115139778027
 30
0.0
 11
957.2266601619832
 21
1115.267143380906
 31
0.0
  0
LINE
  5
179
330
22
100
AcDbEntity
  8
_2-2_IN_LINE
  6
Continuous
 62
     7
100
AcDbLine
 10
957.2266601619832
 20
1115.267143380906
 30
0.0
 11
957.3210451511315
 21
1115.415695896706
 31
0.0
  0
LINE
  5
17A
330
22
100
AcDbEntity
  8
_2-2_IN_LINE
  6
Continuous
 62
     7
100
AcDbLine
 10
957.3210451511315
 20
1115.415695896706
 30
0.0
 11
957.4212942482754
 21
1115.56105693848
 31
0.0
  0
LINE
  5
17B
330
22
100
AcDbEntity
  8
_2-2_IN_LINE
  6
Continuous
 62
     7
100
AcDbLine
 10
957.4212942482754
 20
1115.56105693848
 30
0.0
 11
957.5259935865924
 21
1115.703486119276
 31
0.0
  0
LINE
  5
17C
330
22
100
AcDbEntity
  8
_2-2_IN_LINE
  6
Continuous
 62
     7
100
AcDbLine
 10
957.5259935865924
 20
1115.703486119276
 30
0.0
 11
957.5882011662711
 21
1115.784853966479
 31
0.0
  0
LINE
  5
17D
330
22
100
AcDbEntity
  8
_2-2_IN_LINE
  6
Continuous
 62
     7
100
AcDbLine
 10
957.5882011662711
 20
1115.784853966479
 30
0.0
 11
957.6624174402068
 21
1115.879537559283
 31
0.0
  0
LINE
  5
17E
330
22
100
AcDbEntity
  8
_2-2_IN_LINE
  6
Continuous
 62
     7
100
AcDbLine
 10
957.6624174402068
 20
1115.879537559283
 30
0.0
 11
957.7926423803113
 21
1116.040256353144
 31
0.0
  0
LINE
  5
17F
330
22
100
AcDbEntity
  8
_2-2_IN_LINE
  6
Continuous
 62
     7
100
AcDbLine
 10
957.7926423803113
 20
1116.040256353144
 30
0.0
 11
957.9254941995314
 21
1116.198123115535
 31
0.0
  0
LINE
  5
180
330
22
100
AcDbEntity
  8
_2-2_IN_LINE
  6
Continuous
 62
     7
100
AcDbLine
 10
957.9254941995314
 20
1116.198123115535
 30
0.0
 11
958.0606923376601
 21
1116.353543609
 31
0.0
  0
LINE
  5
181
330
22
100
AcDbEntity
  8
_2-2_IN_LINE
  6
Continuous
 62
     7
100
AcDbLine
 10
958.0606923376601
 20
1116.353543609
 30
0.0
 11
958.1979562344836
 21
1116.506923596089
 31
0.0
  0
LINE
  5
182
330
22
100
AcDbEntity
  8
_2-2_IN_LINE
  6
Continuous
 62
     7
100
AcDbLine
 10
958.1979562344836
 20
1116.506923596089
 30
0.0
 11
958.3370053297914
 21
1116.658668839343
 31
0.0
  0
LINE
  5
183
330
22
100
AcDbEntity
  8
_2-2_IN_LINE
  6
Continuous
 62
     7
100
AcDbLine
 10
958.3370053297914
 20
1116.658668839343
 30
0.0
 11
958.4183612277042
 21
1116.746091932351
 31
0.0
  0
LINE
  5
184
330
22
100
AcDbEntity
  8
_2-2_IN_LINE
  6
Continuous
 62
     7
100
AcDbLine
 10
958.4183612277042
 20
1116.746091932351
 30
0.0
 11
958.5039963011181
 21
1116.837162106749
 31
0.0
  0
LINE
  5
185
330
22
100
AcDbEntity
  8
_2-2_IN_LINE
  6
Continuous
 62
     7
100
AcDbLine
 10
958.5039963011181
 20
1116.837162106749
 30
0.0
 11
958.6531936594257
 21
1116.992863855583
 31
0.0
  0
LINE
  5
186
330
22
100
AcDbEntity
  8
_2-2_IN_LINE
  6
Continuous
 62
     7
100
AcDbLine
 10
958.6531936594257
 20
1116.992863855583
 30
0.0
 11
958.8049438729965
 21
1117.146209833982
 31
0.0
  0
LINE
  5
187
330
22
100
AcDbEntity
  8
_2-2_IN_LINE
  6
Continuous
 62
     7
100
AcDbLine
 10
958.8049438729965
 20
1117.146209833982
 30
0.0
 11
958.9599329524988
 21
1117.296397472901
 31
0.0
  0
LINE
  5
188
330
22
100
AcDbEntity
  8
_2-2_IN_LINE
  6
Continuous
 62
     7
100
AcDbLine
 10
958.9599329524988
 20
1117.296397472901
 30
0.0
 11
959.1188469086056
 21
1117.4426242033
 31
0.0
  0
LINE
  5
189
330
22
100
AcDbEntity
  8
_2-2_IN_LINE
  6
Continuous
 62
     7
100
AcDbLine
 10
959.1188469086056
 20
1117.4426242033
 30
0.0
 11
959.2823717519875
 21
1117.584087456128
 31
0.0
  0
LINE
  5
18A
330
22
100
AcDbEntity
  8
_2-2_IN_LINE
  6
Continuous
 62
     7
100
AcDbLine
 10
959.2823717519875
 20
1117.584087456128
 30
0.0
 11
959.3795991935744
 21
1117.663637263409
 31
0.0
  0
LINE
  5
18B
330
22
100
AcDbEntity
  8
_2-2_IN_LINE
  6
Continuous
 62
     7
100
AcDbLine
 10
959.3795991935744
 20
1117.663637263409
 30
0.0
 11
959.4672528931161
 21
1117.732362615905
 31
0.0
  0
LINE
  5
18C
330
22
100
AcDbEntity
  8
_2-2_IN_LINE
  6
Continuous
 62
     7
100
AcDbLine
 10
959.4672528931161
 20
1117.732362615905
 30
0.0
 11
959.6218659930364
 21
1117.846575383703
 31
0.0
  0
LINE
  5
18D
330
22
100
AcDbEntity
  8
_2-2_IN_LINE
  6
Continuous
 62
     7
100
AcDbLine
 10
959.6218659930364
 20
1117.846575383703
 30
0.0
 11
959.7808311362266
 21
1117.954548072635
 31
0.0
  0
LINE
  5
18E
330
22
100
AcDbEntity
  8
_2-2_IN_LINE
  6
Continuous
 62
     7
100
AcDbLine
 10
959.7808311362266
 20
1117.954548072635
 30
0.0
 11
959.9440777934532
 21
1118.055323304061
 31
0.0
  0
LINE
  5
18F
330
22
100
AcDbEntity
  8
_2-2_IN_LINE
  6
Continuous
 62
     7
100
AcDbLine
 10
959.9440777934532
 20
1118.055323304061
 30
0.0
 11
960.1115354354837
 21
1118.147943699348
 31
0.0
  0
LINE
  5
190
330
22
100
AcDbEntity
  8
_2-2_IN_LINE
  6
Continuous
 62
     7
100
AcDbLine
 10
960.1115354354837
 20
1118.147943699348
 30
0.0
 11
960.2831335330881
 21
1118.231451879858
 31
0.0
  0
LINE
  5
191
330
22
100
AcDbEntity
  8
_2-2_IN_LINE
  6
Continuous
 62
     7
100
AcDbLine
 10
960.2831335330881
 20
1118.231451879858
 30
0.0
 11
960.3845297942562
 21
1118.275334150781
 31
0.0
  0
LINE
  5
192
330
22
100
AcDbEntity
  8
_2-2_IN_LINE
  6
Continuous
 62
     7
100
AcDbLine
 10
960.3845297942562
 20
1118.275334150781
 30
0.0
 11
960.498435286996
 21
1118.319862864044
 31
0.0
  0
LINE
  5
193
330
22
100
AcDbEntity
  8
_2-2_IN_LINE
  6
Continuous
 62
     7
100
AcDbLine
 10
960.498435286996
 20
1118.319862864044
 30
0.0
 11
960.6983237448501
 21
1118.387173492456
 31
0.0
  0
LINE
  5
194
330
22
100
AcDbEntity
  8
_2-2_IN_LINE
  6
Continuous
 62
     7
100
AcDbLine
 10
960.6983237448501
 20
1118.387173492456
 30
0.0
 11
960.9020258437087
 21
1118.443777043956
 31
0.0
  0
LINE
  5
195
330
22
100
AcDbEntity
  8
_2-2_IN_LINE
  6
Continuous
 62
     7
100
AcDbLine
 10
960.9020258437087
 20
1118.443777043956
 30
0.0
 11
961.1088249205167
 21
1118.491151917686
 31
0.0
  0
LINE
  5
196
330
22
100
AcDbEntity
  8
_2-2_IN_LINE
  6
Continuous
 62
     7
100
AcDbLine
 10
961.1088249205167
 20
1118.491151917686
 30
0.0
 11
961.3180043122255
 21
1118.530776512796
 31
0.0
  0
LINE
  5
197
330
22
100
AcDbEntity
  8
_2-2_IN_LINE
  6
Continuous
 62
     7
100
AcDbLine
 10
961.3180043122255
 20
1118.530776512796
 30
0.0
 11
961.5288473557823
 21
1118.56412922843
 31
0.0
  0
LINE
  5
198
330
22
100
AcDbEntity
  8
_2-2_IN_LINE
  6
Continuous
 62
     7
100
AcDbLine
 10
961.5288473557823
 20
1118.56412922843
 30
0.0
 11
961.651616203812
 21
1118.581182594464
 31
0.0
  0
LINE
  5
199
330
22
100
AcDbEntity
  8
_2-2_IN_LINE
  6
Continuous
 62
     7
100
AcDbLine
 10
961.651616203812
 20
1118.581182594464
 30
0.0
 11
961.8000731738945
 21
1118.599899593733
 31
0.0
  0
LINE
  5
19A
330
22
100
AcDbEntity
  8
_2-2_IN_LINE
  6
Continuous
 62
     7
100
AcDbLine
 10
961.8000731738945
 20
1118.599899593733
 30
0.0
 11
962.0563934391801
 21
1118.626806354821
 31
0.0
  0
LINE
  5
19B
330
22
100
AcDbEntity
  8
_2-2_IN_LINE
  6
Continuous
 62
     7
100
AcDbLine
 10
962.0563934391801
 20
1118.626806354821
 30
0.0
 11
962.3127887677616
 21
1118.64566460212
 31
0.0
  0
LINE
  5
19C
330
22
100
AcDbEntity
  8
_2-2_IN_LINE
  6
Continuous
 62
     7
100
AcDbLine
 10
962.3127887677616
 20
1118.64566460212
 30
0.0
 11
962.5688166043923
 21
1118.655010693308
 31
0.0
  0
LINE
  5
19D
330
22
100
AcDbEntity
  8
_2-2_IN_LINE
  6
Continuous
 62
     7
100
AcDbLine
 10
962.5688166043923
 20
1118.655010693308
 30
0.0
 11
962.8240343938259
 21
1118.653380986061
 31
0.0
  0
LINE
  5
19E
330
22
100
AcDbEntity
  8
_2-2_IN_LINE
  6
Continuous
 62
     7
100
AcDbLine
 10
962.8240343938259
 20
1118.653380986061
 30
0.0
 11
963.0779995808175
 21
1118.639311838058
 31
0.0
  0
LINE
  5
19F
330
22
100
AcDbEntity
  8
_2-2_IN_LINE
  6
Continuous
 62
     7
100
AcDbLine
 10
963.0779995808175
 20
1118.639311838058
 30
0.0
 11
963.224551057053
 21
1118.624875229278
 31
0.0
  0
LINE
  5
1A0
330
22
100
AcDbEntity
  8
_2-2_IN_LINE
  6
Continuous
 62
     7
100
AcDbLine
 10
963.224551057053
 20
1118.624875229278
 30
0.0
 11
963.3318952486204
 21
1118.611185443192
 31
0.0
  0
LINE
  5
1A1
330
22
100
AcDbEntity
  8
_2-2_IN_LINE
  6
Continuous
 62
     7
100
AcDbLine
 10
963.3318952486204
 20
1118.611185443192
 30
0.0
 11
963.5163453093896
 21
1118.582225811952
 31
0.0
  0
LINE
  5
1A2
330
22
100
AcDbEntity
  8
_2-2_IN_LINE
  6
Continuous
 62
     7
100
AcDbLine
 10
963.5163453093896
 20
1118.582225811952
 30
0.0
 11
963.7003161668301
 21
1118.547910330413
 31
0.0
  0
LINE
  5
1A3
330
22
100
AcDbEntity
  8
_2-2_IN_LINE
  6
Continuous
 62
     7
100
AcDbLine
 10
963.7003161668301
 20
1118.547910330413
 30
0.0
 11
963.884172202688
 21
1118.509895504385
 31
0.0
  0
LINE
  5
1A4
330
22
100
AcDbEntity
  8
_2-2_IN_LINE
  6
Continuous
 62
     7
100
AcDbLine
 10
963.884172202688
 20
1118.509895504385
 30
0.0
 11
964.0682777987089
 21
1118.46983783968
 31
0.0
  0
LINE
  5
1A5
330
22
100
AcDbEntity
  8
_2-2_IN_LINE
  6
Continuous
 62
     7
100
AcDbLine
 10
964.0682777987089
 20
1118.46983783968
 30
0.0
 11
964.2529973366364
 21
1118.429393842103
 31
0.0
  0
LINE
  5
1A6
330
22
100
AcDbEntity
  8
_2-2_IN_LINE
  6
Continuous
 62
     7
100
AcDbLine
 10
964.2529973366364
 20
1118.429393842103
 30
0.0
 11
964.3605595621725
 21
1118.406412055217
 31
0.0
  0
LINE
  5
1A7
330
22
100
AcDbEntity
  8
_2-2_IN_LINE
  6
Continuous
 62
     7
100
AcDbLine
 10
964.3605595621725
 20
1118.406412055217
 30
0.0
 11
964.4826707935008
 21
1118.381138333718
 31
0.0
  0
LINE
  5
1A8
330
22
100
AcDbEntity
  8
_2-2_IN_LINE
  6
Continuous
 62
     7
100
AcDbLine
 10
964.4826707935008
 20
1118.381138333718
 30
0.0
 11
964.693468817064
 21
1118.337788817483
 31
0.0
  0
LINE
  5
1A9
330
22
100
AcDbEntity
  8
_2-2_IN_LINE
  6
Continuous
 62
     7
100
AcDbLine
 10
964.693468817064
 20
1118.337788817483
 30
0.0
 11
964.9031740409018
 21
1118.291655659334
 31
0.0
  0
LINE
  5
1AA
330
22
100
AcDbEntity
  8
_2-2_IN_LINE
  6
Continuous
 62
     7
100
AcDbLine
 10
964.9031740409018
 20
1118.291655659334
 30
0.0
 11
965.1101309901696
 21
1118.239169617632
 31
0.0
  0
LINE
  5
1AB
330
22
100
AcDbEntity
  8
_2-2_IN_LINE
  6
Continuous
 62
     7
100
AcDbLine
 10
965.1101309901696
 20
1118.239169617632
 30
0.0
 11
965.3126841900244
 21
1118.176761450732
 31
0.0
  0
LINE
  5
1AC
330
22
100
AcDbEntity
  8
_2-2_IN_LINE
  6
Continuous
 62
     7
100
AcDbLine
 10
965.3126841900244
 20
1118.176761450732
 30
0.0
 11
965.509178165624
 21
1118.100861916999
 31
0.0
  0
LINE
  5
1AD
330
22
100
AcDbEntity
  8
_2-2_IN_LINE
  6
Continuous
 62
     7
100
AcDbLine
 10
965.509178165624
 20
1118.100861916999
 30
0.0
 11
965.6197159917446
 21
1118.049251976342
 31
0.0
  0
LINE
  5
1AE
330
22
100
AcDbEntity
  8
_2-2_IN_LINE
  6
Continuous
 62
     7
100
AcDbLine
 10
965.6197159917446
 20
1118.049251976342
 30
0.0
 11
965.7190382229234
 21
1117.996166504418
 31
0.0
  0
LINE
  5
1AF
330
22
100
AcDbEntity
  8
_2-2_IN_LINE
  6
Continuous
 62
     7
100
AcDbLine
 10
965.7190382229234
 20
1117.996166504418
 30
0.0
 11
965.8844621381149
 21
1117.892880223319
 31
0.0
  0
LINE
  5
1B0
330
22
100
AcDbEntity
  8
_2-2_IN_LINE
  6
Continuous
 62
     7
100
AcDbLine
 10
965.8844621381149
 20
1117.892880223319
 30
0.0
 11
966.0425137094735
 21
1117.776330591587
 31
0.0
  0
LINE
  5
1B1
330
22
100
AcDbEntity
  8
_2-2_IN_LINE
  6
Continuous
 62
     7
100
AcDbLine
 10
966.0425137094735
 20
1117.776330591587
 30
0.0
 11
966.193188755891
 21
1117.648403918272
 31
0.0
  0
LINE
  5
1B2
330
22
100
AcDbEntity
  8
_2-2_IN_LINE
  6
Continuous
 62
     7
100
AcDbLine
 10
966.193188755891
 20
1117.648403918272
 30
0.0
 11
966.336483096256
 21
1117.510986512425
 31
0.0
  0
LINE
  5
1B3
330
22
100
AcDbEntity
  8
_2-2_IN_LINE
  6
Continuous
 62
     7
100
AcDbLine
 10
966.336483096256
 20
1117.510986512425
 30
0.0
 11
966.4723925494611
 21
1117.365964683097
 31
0.0
  0
LINE
  5
1B4
330
22
100
AcDbEntity
  8
_2-2_IN_LINE
  6
Continuous
 62
     7
100
AcDbLine
 10
966.4723925494611
 20
1117.365964683097
 30
0.0
 11
966.5478346294467
 21
1117.279110979098
 31
0.0
  0
LINE
  5
1B5
330
22
100
AcDbEntity
  8
_2-2_IN_LINE
  6
Continuous
 62
     7
100
AcDbLine
 10
966.5478346294467
 20
1117.279110979098
 30
0.0
 11
966.6321296538178
 21
1117.176543591108
 31
0.0
  0
LINE
  5
1B6
330
22
100
AcDbEntity
  8
_2-2_IN_LINE
  6
Continuous
 62
     7
100
AcDbLine
 10
966.6321296538178
 20
1117.176543591108
 30
0.0
 11
966.7703015130866
 21
1116.995258581371
 31
0.0
  0
LINE
  5
1B7
330
22
100
AcDbEntity
  8
_2-2_IN_LINE
  6
Continuous
 62
     7
100
AcDbLine
 10
966.7703015130866
 20
1116.995258581371
 30
0.0
 11
966.9004117801057
 21
1116.809033906752
 31
0.0
  0
LINE
  5
1B8
330
22
100
AcDbEntity
  8
_2-2_IN_LINE
  6
Continuous
 62
     7
100
AcDbLine
 10
966.9004117801057
 20
1116.809033906752
 30
0.0
 11
967.0236316820918
 21
1116.618667845662
 31
0.0
  0
LINE
  5
1B9
330
22
100
AcDbEntity
  8
_2-2_IN_LINE
  6
Continuous
 62
     7
100
AcDbLine
 10
967.0236316820918
 20
1116.618667845662
 30
0.0
 11
967.1411324462621
 21
1116.424958676519
 31
0.0
  0
LINE
  5
1BA
330
22
100
AcDbEntity
  8
_2-2_IN_LINE
  6
Continuous
 62
     7
100
AcDbLine
 10
967.1411324462621
 20
1116.424958676519
 30
0.0
 11
967.2540852998302
 21
1116.228704677735
 31
0.0
  0
LINE
  5
1BB
330
22
100
AcDbEntity
  8
_2-2_IN_LINE
  6
Continuous
 62
     7
100
AcDbLine
 10
967.2540852998302
 20
1116.228704677735
 30
0.0
 11
967.3179756266902
 21
1116.114025880706
 31
0.0
  0
LINE
  5
1BC
330
22
100
AcDbEntity
  8
_2-2_IN_LINE
  6
Continuous
 62
     7
100
AcDbLine
 10
967.3179756266902
 20
1116.114025880706
 30
0.0
 11
967.3852429941959
 21
1115.99095928857
 31
0.0
  0
LINE
  5
1BD
330
22
100
AcDbEntity
  8
_2-2_IN_LINE
  6
Continuous
 62
     7
100
AcDbLine
 10
967.3852429941959
 20
1115.99095928857
 30
0.0
 11
967.4992242354035
 21
1115.777752532201
 31
0.0
  0
LINE
  5
1BE
330
22
100
AcDbEntity
  8
_2-2_IN_LINE
  6
Continuous
 62
     7
100
AcDbLine
 10
967.4992242354035
 20
1115.777752532201
 30
0.0
 11
967.6113387837684
 21
1115.563455532665
 31
0.0
  0
LINE
  5
1BF
330
22
100
AcDbEntity
  8
_2-2_IN_LINE
  6
Continuous
 62
     7
100
AcDbLine
 10
967.6113387837684
 20
1115.563455532665
 30
0.0
 11
967.722355393016
 21
1115.348306271592
 31
0.0
  0
LINE
  5
1C0
330
22
100
AcDbEntity
  8
_2-2_IN_LINE
  6
Continuous
 62
     7
100
AcDbLine
 10
967.722355393016
 20
1115.348306271592
 30
0.0
 11
967.8330428168736
 21
1115.13254273061
 31
0.0
  0
LINE
  5
1C1
330
22
100
AcDbEntity
  8
_2-2_IN_LINE
  6
Continuous
 62
     7
100
AcDbLine
 10
967.8330428168736
 20
1115.13254273061
 30
0.0
 11
967.9441698090712
 21
1114.916402891354
 31
0.0
  0
LINE
  5
1C2
330
22
100
AcDbEntity
  8
_2-2_IN_LINE
  6
Continuous
 62
     7
100
AcDbLine
 10
967.9441698090712
 20
1114.916402891354
 30
0.0
 11
968.0091278037023
 21
1114.790963141855
 31
0.0
  0
LINE
  5
1C3
330
22
100
AcDbEntity
  8
_2-2_IN_LINE
  6
Continuous
 62
     7
100
AcDbLine
 10
968.0091278037023
 20
1114.790963141855
 30
0.0
 11
968.0975412578776
 21
1114.622134958848
 31
0.0
  0
LINE
  5
1C4
330
22
100
AcDbEntity
  8
_2-2_IN_LINE
  6
Continuous
 62
     7
100
AcDbLine
 10
968.0975412578776
 20
1114.622134958848
 30
0.0
 11
968.2540460738081
 21
1114.33273919296
 31
0.0
  0
LINE
  5
1C5
330
22
100
AcDbEntity
  8
_2-2_IN_LINE
  6
Continuous
 62
     7
100
AcDbLine
 10
968.2540460738081
 20
1114.33273919296
 30
0.0
 11
968.4182676670353
 21
1114.04803101671
 31
0.0
  0
LINE
  5
1C6
330
22
100
AcDbEntity
  8
_2-2_IN_LINE
  6
Continuous
 62
     7
100
AcDbLine
 10
968.4182676670353
 20
1114.04803101671
 30
0.0
 11
968.5931916544207
 21
1113.77097758869
 31
0.0
  0
LINE
  5
1C7
330
22
100
AcDbEntity
  8
_2-2_IN_LINE
  6
Continuous
 62
     7
100
AcDbLine
 10
968.5931916544207
 20
1113.77097758869
 30
0.0
 11
968.7818036528208
 21
1113.504546067504
 31
0.0
  0
LINE
  5
1C8
330
22
100
AcDbEntity
  8
_2-2_IN_LINE
  6
Continuous
 62
     7
100
AcDbLine
 10
968.7818036528208
 20
1113.504546067504
 30
0.0
 11
968.987089279096
 21
1113.251703611748
 31
0.0
  0
LINE
  5
1C9
330
22
100
AcDbEntity
  8
_2-2_IN_LINE
  6
Continuous
 62
     7
100
AcDbLine
 10
968.987089279096
 20
1113.251703611748
 30
0.0
 11
969.1149712869229
 21
1113.112450711967
 31
0.0
  0
LINE
  5
1CA
330
22
100
AcDbEntity
  8
_2-2_IN_LINE
  6
Continuous
 62
     7
100
AcDbLine
 10
969.1149712869229
 20
1113.112450711967
 30
0.0
 11
969.1611864592275
 21
1113.065345706057
 31
0.0
  0
LINE
  5
1CB
330
22
100
AcDbEntity
  8
_2-2_IN_LINE
  6
Continuous
 62
     7
100
AcDbLine
 10
969.1611864592275
 20
1113.065345706057
 30
0.0
 11
969.2428857207673
 21
1112.98600061102
 31
0.0
  0
LINE
  5
1CC
330
22
100
AcDbEntity
  8
_2-2_IN_LINE
  6
Continuous
 62
     7
100
AcDbLine
 10
969.2428857207673
 20
1112.98600061102
 30
0.0
 11
969.3270881130978
 21
1112.909200501579
 31
0.0
  0
LINE
  5
1CD
330
22
100
AcDbEntity
  8
_2-2_IN_LINE
  6
Continuous
 62
     7
100
AcDbLine
 10
969.3270881130978
 20
1112.909200501579
 30
0.0
 11
969.4137340885934
 21
1112.835151598254
 31
0.0
  0
LINE
  5
1CE
330
22
100
AcDbEntity
  8
_2-2_IN_LINE
  6
Continuous
 62
     7
100
AcDbLine
 10
969.4137340885934
 20
1112.835151598254
 30
0.0
 11
969.5027640996292
 21
1112.764060121563
 31
0.0
  0
LINE
  5
1CF
330
22
100
AcDbEntity
  8
_2-2_IN_LINE
  6
Continuous
 62
     7
100
AcDbLine
 10
969.5027640996292
 20
1112.764060121563
 30
0.0
 11
969.5941185985802
 21
1112.696132292033
 31
0.0
  0
LINE
  5
1D0
330
22
100
AcDbEntity
  8
_2-2_IN_LINE
  6
Continuous
 62
     7
100
AcDbLine
 10
969.5941185985802
 20
1112.696132292033
 30
0.0
 11
969.6481458234755
 21
1112.658264995644
 31
0.0
  0
LINE
  5
1D1
330
22
100
AcDbEntity
  8
_2-2_IN_LINE
  6
Continuous
 62
     7
100
AcDbLine
 10
969.6481458234755
 20
1112.658264995644
 30
0.0
 11
969.7377472345632
 21
1112.598972305266
 31
0.0
  0
LINE
  5
1D2
330
22
100
AcDbEntity
  8
_2-2_IN_LINE
  6
Continuous
 62
     7
100
AcDbLine
 10
969.7377472345632
 20
1112.598972305266
 30
0.0
 11
969.8959386787336
 21
1112.50255904107
 31
0.0
  0
LINE
  5
1D3
330
22
100
AcDbEntity
  8
_2-2_IN_LINE
  6
Continuous
 62
     7
100
AcDbLine
 10
969.8959386787336
 20
1112.50255904107
 30
0.0
 11
970.0573499657661
 21
1112.411230631999
 31
0.0
  0
LINE
  5
1D4
330
22
100
AcDbEntity
  8
_2-2_IN_LINE
  6
Continuous
 62
     7
100
AcDbLine
 10
970.0573499657661
 20
1112.411230631999
 30
0.0
 11
970.2202699140592
 21
1112.322339923549
 31
0.0
  0
LINE
  5
1D5
330
22
100
AcDbEntity
  8
_2-2_IN_LINE
  6
Continuous
 62
     7
100
AcDbLine
 10
970.2202699140592
 20
1112.322339923549
 30
0.0
 11
970.382987342012
 21
1112.233239761213
 31
0.0
  0
LINE
  5
1D6
330
22
100
AcDbEntity
  8
_2-2_IN_LINE
  6
Continuous
 62
     7
100
AcDbLine
 10
970.382987342012
 20
1112.233239761213
 30
0.0
 11
970.5437910680243
 21
1112.141282990488
 31
0.0
  0
LINE
  5
1D7
330
22
100
AcDbEntity
  8
_2-2_IN_LINE
  6
Continuous
 62
     7
100
AcDbLine
 10
970.5437910680243
 20
1112.141282990488
 30
0.0
 11
970.6355060763504
 21
1112.085596048976
 31
0.0
  0
LINE
  5
1D8
330
22
100
AcDbEntity
  8
_2-2_IN_LINE
  6
Continuous
 62
     7
100
AcDbLine
 10
970.6355060763504
 20
1112.085596048976
 30
0.0
 11
970.7279170687487
 21
1112.026231279104
 31
0.0
  0
LINE
  5
1D9
330
22
100
AcDbEntity
  8
_2-2_IN_LINE
  6
Continuous
 62
     7
100
AcDbLine
 10
970.7279170687487
 20
1112.026231279104
 30
0.0
 11
970.8838600709027
 21
1111.918729517336
 31
0.0
  0
LINE
  5
1DA
330
22
100
AcDbEntity
  8
_2-2_IN_LINE
  6
Continuous
 62
     7
100
AcDbLine
 10
970.8838600709027
 20
1111.918729517336
 30
0.0
 11
971.0361826131245
 21
1111.805746327368
 31
0.0
  0
LINE
  5
1DB
330
22
100
AcDbEntity
  8
_2-2_IN_LINE
  6
Continuous
 62
     7
100
AcDbLine
 10
971.0361826131245
 20
1111.805746327368
 30
0.0
 11
971.1856591018602
 21
1111.688486274973
 31
0.0
  0
LINE
  5
1DC
330
22
100
AcDbEntity
  8
_2-2_IN_LINE
  6
Continuous
 62
     7
100
AcDbLine
 10
971.1856591018602
 20
1111.688486274973
 30
0.0
 11
971.3330639435536
 21
1111.568153925923
 31
0.0
  0
LINE
  5
1DD
330
22
100
AcDbEntity
  8
_2-2_IN_LINE
  6
Continuous
 62
     7
100
AcDbLine
 10
971.3330639435536
 20
1111.568153925923
 30
0.0
 11
971.4791715446491
 21
1111.445953845999
 31
0.0
  0
LINE
  5
1DE
330
22
100
AcDbEntity
  8
_2-2_IN_LINE
  6
Continuous
 62
     7
100
AcDbLine
 10
971.4791715446491
 20
1111.445953845999
 30
0.0
 11
971.5636247140524
 21
1111.374696666906
 31
0.0
  0
LINE
  5
1DF
330
22
100
AcDbEntity
  8
_2-2_IN_LINE
  6
Continuous
 62
     7
100
AcDbLine
 10
971.5636247140524
 20
1111.374696666906
 30
0.0
 11
971.6694665776703
 21
1111.285216083006
 31
0.0
  0
LINE
  5
1E0
330
22
100
AcDbEntity
  8
_2-2_IN_LINE
  6
Continuous
 62
     7
100
AcDbLine
 10
971.6694665776703
 20
1111.285216083006
 30
0.0
 11
971.851039355981
 21
1111.13013302921
 31
0.0
  0
LINE
  5
1E1
330
22
100
AcDbEntity
  8
_2-2_IN_LINE
  6
Continuous
 62
     7
100
AcDbLine
 10
971.851039355981
 20
1111.13013302921
 30
0.0
 11
972.030214008606
 21
1110.972743860969
 31
0.0
  0
LINE
  5
1E2
330
22
100
AcDbEntity
  8
_2-2_IN_LINE
  6
Continuous
 62
     7
100
AcDbLine
 10
972.030214008606
 20
1110.972743860969
 30
0.0
 11
972.2055461348302
 21
1110.811553663044
 31
0.0
  0
LINE
  5
1E3
330
22
100
AcDbEntity
  8
_2-2_IN_LINE
  6
Continuous
 62
     7
100
AcDbLine
 10
972.2055461348302
 20
1110.811553663044
 30
0.0
 11
972.3755913339399
 21
1110.645067520193
 31
0.0
  0
LINE
  5
1E4
330
22
100
AcDbEntity
  8
_2-2_IN_LINE
  6
Continuous
 62
     7
100
AcDbLine
 10
972.3755913339399
 20
1110.645067520193
 30
0.0
 11
972.5389052052181
 21
1110.471790517183
 31
0.0
  0
LINE
  5
1E5
330
22
100
AcDbEntity
  8
_2-2_IN_LINE
  6
Continuous
 62
     7
100
AcDbLine
 10
972.5389052052181
 20
1110.471790517183
 30
0.0
 11
972.6299737871576
 21
1110.367589208973
 31
0.0
  0
LINE
  5
1E6
330
22
100
AcDbEntity
  8
_2-2_IN_LINE
  6
Continuous
 62
     7
100
AcDbLine
 10
972.6299737871576
 20
1110.367589208973
 30
0.0
 11
972.6816330597941
 21
1110.305501933452
 31
0.0
  0
LINE
  5
1E7
330
22
100
AcDbEntity
  8
_2-2_IN_LINE
  6
Continuous
 62
     7
100
AcDbLine
 10
972.6816330597941
 20
1110.305501933452
 30
0.0
 11
972.7679581700995
 21
1110.196029193612
 31
0.0
  0
LINE
  5
1E8
330
22
100
AcDbEntity
  8
_2-2_IN_LINE
  6
Continuous
 62
     7
100
AcDbLine
 10
972.7679581700995
 20
1110.196029193612
 30
0.0
 11
972.8503180422329
 21
1110.083527935854
 31
0.0
  0
LINE
  5
1E9
330
22
100
AcDbEntity
  8
_2-2_IN_LINE
  6
Continuous
 62
     7
100
AcDbLine
 10
972.8503180422329
 20
1110.083527935854
 30
0.0
 11
972.9281387329773
 21
1109.968047003142
 31
0.0
  0
LINE
  5
1EA
330
22
100
AcDbEntity
  8
_2-2_IN_LINE
  6
Continuous
 62
     7
100
AcDbLine
 10
972.9281387329773
 20
1109.968047003142
 30
0.0
 11
973.0008462991222
 21
1109.84963523845
 31
0.0
  0
LINE
  5
1EB
330
22
100
AcDbEntity
  8
_2-2_IN_LINE
  6
Continuous
 62
     7
100
AcDbLine
 10
973.0008462991222
 20
1109.84963523845
 30
0.0
 11
973.0678667974503
 21
1109.728341484745
 31
0.0
  0
LINE
  5
1EC
330
22
100
AcDbEntity
  8
_2-2_IN_LINE
  6
Continuous
 62
     7
100
AcDbLine
 10
973.0678667974503
 20
1109.728341484745
 30
0.0
 11
973.1039067085383
 21
1109.656689826905
 31
0.0
  0
LINE
  5
1ED
330
22
100
AcDbEntity
  8
_2-2_IN_LINE
  6
Continuous
 62
     7
100
AcDbLine
 10
973.1039067085383
 20
1109.656689826905
 30
0.0
 11
973.1505585618956
 21
1109.555213935853
 31
0.0
  0
LINE
  5
1EE
330
22
100
AcDbEntity
  8
_2-2_IN_LINE
  6
Continuous
 62
     7
100
AcDbLine
 10
973.1505585618956
 20
1109.555213935853
 30
0.0
 11
973.2220453202465
 21
1109.376449556803
 31
0.0
  0
LINE
  5
1EF
330
22
100
AcDbEntity
  8
_2-2_IN_LINE
  6
Continuous
 62
     7
100
AcDbLine
 10
973.2220453202465
 20
1109.376449556803
 30
0.0
 11
973.2839966588697
 21
1109.193629138654
 31
0.0
  0
LINE
  5
1F0
330
22
100
AcDbEntity
  8
_2-2_IN_LINE
  6
Continuous
 62
     7
100
AcDbLine
 10
973.2839966588697
 20
1109.193629138654
 30
0.0
 11
973.3384945471387
 21
1109.007638279464
 31
0.0
  0
LINE
  5
1F1
330
22
100
AcDbEntity
  8
_2-2_IN_LINE
  6
Continuous
 62
     7
100
AcDbLine
 10
973.3384945471387
 20
1109.007638279464
 30
0.0
 11
973.3876209544256
 21
1108.81936257729
 31
0.0
  0
LINE
  5
1F2
330
22
100
AcDbEntity
  8
_2-2_IN_LINE
  6
Continuous
 62
     7
100
AcDbLine
 10
973.3876209544256
 20
1108.81936257729
 30
0.0
 11
973.4334578501032
 21
1108.629687630185
 31
0.0
  0
LINE
  5
1F3
330
22
100
AcDbEntity
  8
_2-2_IN_LINE
  6
Continuous
 62
     7
100
AcDbLine
 10
973.4334578501032
 20
1108.629687630185
 30
0.0
 11
973.459356399573
 21
1108.519383998523
 31
0.0
  0
LINE
  5
1F4
330
22
100
AcDbEntity
  8
_2-2_IN_LINE
  6
Continuous
 62
     7
100
AcDbLine
 10
866.7114805369656
 20
423.5193839985237
 30
0.0
 11
1366.711480536965
 21
423.5193839985237
 31
0.0
  0
LINE
  5
1F5
330
22
100
AcDbEntity
  8
_2-2_IN_LINE
  6
Continuous
 62
     7
100
AcDbLine
 10
1010.077852964687
 20
473.5193839985237
 30
0.0
 11
1010.09607175221
 21
473.6502889452055
 31
0.0
  0
LINE
  5
1F6
330
22
100
AcDbEntity
  8
_2-2_IN_LINE
  6
Continuous
 62
     7
100
AcDbLine
 10
1010.09607175221
 20
473.6502889452055
 30
0.0
 11
1010.12913853187
 21
473.8753628802243
 31
0.0
  0
LINE
  5
1F7
330
22
100
AcDbEntity
  8
_2-2_IN_LINE
  6
Continuous
 62
     7
100
AcDbLine
 10
1010.12913853187
 20
473.8753628802243
 30
0.0
 11
1010.166802747738
 21
474.0987027904822
 31
0.0
  0
LINE
  5
1F8
330
22
100
AcDbEntity
  8
_2-2_IN_LINE
  6
Continuous
 62
     7
100
AcDbLine
 10
1010.166802747738
 20
474.0987027904822
 30
0.0
 11
1010.211974169561
 21
474.3192111919535
 31
0.0
  0
LINE
  5
1F9
330
22
100
AcDbEntity
  8
_2-2_IN_LINE
  6
Continuous
 62
     7
100
AcDbLine
 10
1010.211974169561
 20
474.3192111919535
 30
0.0
 11
1010.267562567093
 21
474.5357906006126
 31
0.0
  0
LINE
  5
1FA
330
22
100
AcDbEntity
  8
_2-2_IN_LINE
  6
Continuous
 62
     7
100
AcDbLine
 10
1010.267562567093
 20
474.5357906006126
 30
0.0
 11
1010.33647771008
 21
474.7473435324315
 31
0.0
  0
LINE
  5
1FB
330
22
100
AcDbEntity
  8
_2-2_IN_LINE
  6
Continuous
 62
     7
100
AcDbLine
 10
1010.33647771008
 20
474.7473435324315
 30
0.0
 11
1010.383701408374
 21
474.8673086354239
 31
0.0
  0
LINE
  5
1FC
330
22
100
AcDbEntity
  8
_2-2_IN_LINE
  6
Continuous
 62
     7
100
AcDbLine
 10
1010.383701408374
 20
474.8673086354239
 30
0.0
 11
1010.424642469637
 21
474.9594254750133
 31
0.0
  0
LINE
  5
1FD
330
22
100
AcDbEntity
  8
_2-2_IN_LINE
  6
Continuous
 62
     7
100
AcDbLine
 10
1010.424642469637
 20
474.9594254750133
 30
0.0
 11
1010.503057642319
 21
475.1151397780273
 31
0.0
  0
LINE
  5
1FE
330
22
100
AcDbEntity
  8
_2-2_IN_LINE
  6
Continuous
 62
     7
100
AcDbLine
 10
1010.503057642319
 20
475.1151397780273
 30
0.0
 11
1010.590164656645
 21
475.2671433809068
 31
0.0
  0
LINE
  5
1FF
330
22
100
AcDbEntity
  8
_2-2_IN_LINE
  6
Continuous
 62
     7
100
AcDbLine
 10
1010.590164656645
 20
475.2671433809068
 30
0.0
 11
1010.684549645794
 21
475.4156958967071
 31
0.0
  0
LINE
  5
200
330
22
100
AcDbEntity
  8
_2-2_IN_LINE
  6
Continuous
 62
     7
100
AcDbLine
 10
1010.684549645794
 20
475.4156958967071
 30
0.0
 11
1010.784798742937
 21
475.56105693848
 31
0.0
  0
LINE
  5
201
330
22
100
AcDbEntity
  8
_2-2_IN_LINE
  6
Continuous
 62
     7
100
AcDbLine
 10
1010.784798742937
 20
475.56105693848
 30
0.0
 11
1010.889498081254
 21
475.7034861192762
 31
0.0
  0
LINE
  5
202
330
22
100
AcDbEntity
  8
_2-2_IN_LINE
  6
Continuous
 62
     7
100
AcDbLine
 10
1010.889498081254
 20
475.7034861192762
 30
0.0
 11
1010.951705660933
 21
475.7848539664797
 31
0.0
  0
LINE
  5
203
330
22
100
AcDbEntity
  8
_2-2_IN_LINE
  6
Continuous
 62
     7
100
AcDbLine
 10
1010.951705660933
 20
475.7848539664797
 30
0.0
 11
1011.025921934868
 21
475.8795375592836
 31
0.0
  0
LINE
  5
204
330
22
100
AcDbEntity
  8
_2-2_IN_LINE
  6
Continuous
 62
     7
100
AcDbLine
 10
1011.025921934868
 20
475.8795375592836
 30
0.0
 11
1011.156146874974
 21
476.0402563531449
 31
0.0
  0
LINE
  5
205
330
22
100
AcDbEntity
  8
_2-2_IN_LINE
  6
Continuous
 62
     7
100
AcDbLine
 10
1011.156146874974
 20
476.0402563531449
 30
0.0
 11
1011.288998694193
 21
476.1981231155352
 31
0.0
  0
LINE
  5
206
330
22
100
AcDbEntity
  8
_2-2_IN_LINE
  6
Continuous
 62
     7
100
AcDbLine
 10
1011.288998694193
 20
476.1981231155352
 30
0.0
 11
1011.424196832323
 21
476.3535436090007
 31
0.0
  0
LINE
  5
207
330
22
100
AcDbEntity
  8
_2-2_IN_LINE
  6
Continuous
 62
     7
100
AcDbLine
 10
1011.424196832323
 20
476.3535436090007
 30
0.0
 11
1011.561460729145
 21
476.5069235960897
 31
0.0
  0
LINE
  5
208
330
22
100
AcDbEntity
  8
_2-2_IN_LINE
  6
Continuous
 62
     7
100
AcDbLine
 10
1011.561460729145
 20
476.5069235960897
 30
0.0
 11
1011.700509824453
 21
476.6586688393437
 31
0.0
  0
LINE
  5
209
330
22
100
AcDbEntity
  8
_2-2_IN_LINE
  6
Continuous
 62
     7
100
AcDbLine
 10
1011.700509824453
 20
476.6586688393437
 30
0.0
 11
1011.781865722367
 21
476.7460919323508
 31
0.0
  0
LINE
  5
20A
330
22
100
AcDbEntity
  8
_2-2_IN_LINE
  6
Continuous
 62
     7
100
AcDbLine
 10
1011.781865722367
 20
476.7460919323508
 30
0.0
 11
1011.86750079578
 21
476.8371621067496
 31
0.0
  0
LINE
  5
20B
330
22
100
AcDbEntity
  8
_2-2_IN_LINE
  6
Continuous
 62
     7
100
AcDbLine
 10
1011.86750079578
 20
476.8371621067496
 30
0.0
 11
1012.016698154087
 21
476.9928638555831
 31
0.0
  0
LINE
  5
20C
330
22
100
AcDbEntity
  8
_2-2_IN_LINE
  6
Continuous
 62
     7
100
AcDbLine
 10
1012.016698154087
 20
476.9928638555831
 30
0.0
 11
1012.168448367659
 21
477.1462098339821
 31
0.0
  0
LINE
  5
20D
330
22
100
AcDbEntity
  8
_2-2_IN_LINE
  6
Continuous
 62
     7
100
AcDbLine
 10
1012.168448367659
 20
477.1462098339821
 30
0.0
 11
1012.323437447161
 21
477.2963974729015
 31
0.0
  0
LINE
  5
20E
330
22
100
AcDbEntity
  8
_2-2_IN_LINE
  6
Continuous
 62
     7
100
AcDbLine
 10
1012.323437447161
 20
477.2963974729015
 30
0.0
 11
1012.482351403267
 21
477.4426242033001
 31
0.0
  0
LINE
  5
20F
330
22
100
AcDbEntity
  8
_2-2_IN_LINE
  6
Continuous
 62
     7
100
AcDbLine
 10
1012.482351403267
 20
477.4426242033001
 30
0.0
 11
1012.64587624665
 21
477.5840874561282
 31
0.0
  0
LINE
  5
210
330
22
100
AcDbEntity
  8
_2-2_IN_LINE
  6
Continuous
 62
     7
100
AcDbLine
 10
1012.64587624665
 20
477.5840874561282
 30
0.0
 11
1012.743103688236
 21
477.6636372634089
 31
0.0
  0
LINE
  5
211
330
22
100
AcDbEntity
  8
_2-2_IN_LINE
  6
Continuous
 62
     7
100
AcDbLine
 10
1012.743103688236
 20
477.6636372634089
 30
0.0
 11
1012.830757387779
 21
477.7323626159051
 31
0.0
  0
LINE
  5
212
330
22
100
AcDbEntity
  8
_2-2_IN_LINE
  6
Continuous
 62
     7
100
AcDbLine
 10
1012.830757387779
 20
477.7323626159051
 30
0.0
 11
1012.985370487698
 21
477.8465753837036
 31
0.0
  0
LINE
  5
213
330
22
100
AcDbEntity
  8
_2-2_IN_LINE
  6
Continuous
 62
     7
100
AcDbLine
 10
1012.985370487698
 20
477.8465753837036
 30
0.0
 11
1013.144335630889
 21
477.9545480726352
 31
0.0
  0
LINE
  5
214
330
22
100
AcDbEntity
  8
_2-2_IN_LINE
  6
Continuous
 62
     7
100
AcDbLine
 10
1013.144335630889
 20
477.9545480726352
 30
0.0
 11
1013.307582288115
 21
478.0553233040615
 31
0.0
  0
LINE
  5
215
330
22
100
AcDbEntity
  8
_2-2_IN_LINE
  6
Continuous
 62
     7
100
AcDbLine
 10
1013.307582288115
 20
478.0553233040615
 30
0.0
 11
1013.475039930145
 21
478.1479436993487
 31
0.0
  0
LINE
  5
216
330
22
100
AcDbEntity
  8
_2-2_IN_LINE
  6
Continuous
 62
     7
100
AcDbLine
 10
1013.475039930145
 20
478.1479436993487
 30
0.0
 11
1013.64663802775
 21
478.2314518798584
 31
0.0
  0
LINE
  5
217
330
22
100
AcDbEntity
  8
_2-2_IN_LINE
  6
Continuous
 62
     7
100
AcDbLine
 10
1013.64663802775
 20
478.2314518798584
 30
0.0
 11
1013.748034288918
 21
478.275334150781
 31
0.0
  0
LINE
  5
218
330
22
100
AcDbEntity
  8
_2-2_IN_LINE
  6
Continuous
 62
     7
100
AcDbLine
 10
1013.748034288918
 20
478.275334150781
 30
0.0
 11
1013.861939781658
 21
478.319862864044
 31
0.0
  0
LINE
  5
219
330
22
100
AcDbEntity
  8
_2-2_IN_LINE
  6
Continuous
 62
     7
100
AcDbLine
 10
1013.861939781658
 20
478.319862864044
 30
0.0
 11
1014.061828239513
 21
478.3871734924566
 31
0.0
  0
LINE
  5
21A
330
22
100
AcDbEntity
  8
_2-2_IN_LINE
  6
Continuous
 62
     7
100
AcDbLine
 10
1014.061828239513
 20
478.3871734924566
 30
0.0
 11
1014.265530338371
 21
478.4437770439564
 31
0.0
  0
LINE
  5
21B
330
22
100
AcDbEntity
  8
_2-2_IN_LINE
  6
Continuous
 62
     7
100
AcDbLine
 10
1014.265530338371
 20
478.4437770439564
 30
0.0
 11
1014.472329415178
 21
478.4911519176858
 31
0.0
  0
LINE
  5
21C
330
22
100
AcDbEntity
  8
_2-2_IN_LINE
  6
Continuous
 62
     7
100
AcDbLine
 10
1014.472329415178
 20
478.4911519176858
 30
0.0
 11
1014.681508806887
 21
478.5307765127964
 31
0.0
  0
LINE
  5
21D
330
22
100
AcDbEntity
  8
_2-2_IN_LINE
  6
Continuous
 62
     7
100
AcDbLine
 10
1014.681508806887
 20
478.5307765127964
 30
0.0
 11
1014.892351850445
 21
478.5641292284305
 31
0.0
  0
LINE
  5
21E
330
22
100
AcDbEntity
  8
_2-2_IN_LINE
  6
Continuous
 62
     7
100
AcDbLine
 10
1014.892351850445
 20
478.5641292284305
 30
0.0
 11
1015.015120698475
 21
478.5811825944648
 31
0.0
  0
LINE
  5
21F
330
22
100
AcDbEntity
  8
_2-2_IN_LINE
  6
Continuous
 62
     7
100
AcDbLine
 10
1015.015120698475
 20
478.5811825944648
 30
0.0
 11
1015.163577668557
 21
478.5998995937331
 31
0.0
  0
LINE
  5
220
330
22
100
AcDbEntity
  8
_2-2_IN_LINE
  6
Continuous
 62
     7
100
AcDbLine
 10
1015.163577668557
 20
478.5998995937331
 30
0.0
 11
1015.419897933842
 21
478.6268063548215
 31
0.0
  0
LINE
  5
221
330
22
100
AcDbEntity
  8
_2-2_IN_LINE
  6
Continuous
 62
     7
100
AcDbLine
 10
1015.419897933842
 20
478.6268063548215
 30
0.0
 11
1015.676293262423
 21
478.6456646021208
 31
0.0
  0
LINE
  5
222
330
22
100
AcDbEntity
  8
_2-2_IN_LINE
  6
Continuous
 62
     7
100
AcDbLine
 10
1015.676293262423
 20
478.6456646021208
 30
0.0
 11
1015.932321099054
 21
478.6550106933083
 31
0.0
  0
LINE
  5
223
330
22
100
AcDbEntity
  8
_2-2_IN_LINE
  6
Continuous
 62
     7
100
AcDbLine
 10
1015.932321099054
 20
478.6550106933083
 30
0.0
 11
1016.187538888488
 21
478.6533809860617
 31
0.0
  0
LINE
  5
224
330
22
100
AcDbEntity
  8
_2-2_IN_LINE
  6
Continuous
 62
     7
100
AcDbLine
 10
1016.187538888488
 20
478.6533809860617
 30
0.0
 11
1016.441504075479
 21
478.6393118380584
 31
0.0
  0
LINE
  5
225
330
22
100
AcDbEntity
  8
_2-2_IN_LINE
  6
Continuous
 62
     7
100
AcDbLine
 10
1016.441504075479
 20
478.6393118380584
 30
0.0
 11
1016.588055551716
 21
478.6248752292777
 31
0.0
  0
LINE
  5
226
330
22
100
AcDbEntity
  8
_2-2_IN_LINE
  6
Continuous
 62
     7
100
AcDbLine
 10
1016.588055551716
 20
478.6248752292777
 30
0.0
 11
1016.695399743283
 21
478.6111854431925
 31
0.0
  0
LINE
  5
227
330
22
100
AcDbEntity
  8
_2-2_IN_LINE
  6
Continuous
 62
     7
100
AcDbLine
 10
1016.695399743283
 20
478.6111854431925
 30
0.0
 11
1016.879849804052
 21
478.582225811952
 31
0.0
  0
LINE
  5
228
330
22
100
AcDbEntity
  8
_2-2_IN_LINE
  6
Continuous
 62
     7
100
AcDbLine
 10
1016.879849804052
 20
478.582225811952
 30
0.0
 11
1017.063820661493
 21
478.5479103304129
 31
0.0
  0
LINE
  5
229
330
22
100
AcDbEntity
  8
_2-2_IN_LINE
  6
Continuous
 62
     7
100
AcDbLine
 10
1017.063820661493
 20
478.5479103304129
 30
0.0
 11
1017.247676697351
 21
478.5098955043856
 31
0.0
  0
LINE
  5
22A
330
22
100
AcDbEntity
  8
_2-2_IN_LINE
  6
Continuous
 62
     7
100
AcDbLine
 10
1017.247676697351
 20
478.5098955043856
 30
0.0
 11
1017.431782293371
 21
478.4698378396802
 31
0.0
  0
LINE
  5
22B
330
22
100
AcDbEntity
  8
_2-2_IN_LINE
  6
Continuous
 62
     7
100
AcDbLine
 10
1017.431782293371
 20
478.4698378396802
 30
0.0
 11
1017.616501831299
 21
478.4293938421029
 31
0.0
  0
LINE
  5
22C
330
22
100
AcDbEntity
  8
_2-2_IN_LINE
  6
Continuous
 62
     7
100
AcDbLine
 10
1017.616501831299
 20
478.4293938421029
 30
0.0
 11
1017.724064056834
 21
478.4064120552176
 31
0.0
  0
LINE
  5
22D
330
22
100
AcDbEntity
  8
_2-2_IN_LINE
  6
Continuous
 62
     7
100
AcDbLine
 10
1017.724064056834
 20
478.4064120552176
 30
0.0
 11
1017.846175288163
 21
478.3811383337188
 31
0.0
  0
LINE
  5
22E
330
22
100
AcDbEntity
  8
_2-2_IN_LINE
  6
Continuous
 62
     7
100
AcDbLine
 10
1017.846175288163
 20
478.3811383337188
 30
0.0
 11
1018.056973311726
 21
478.3377888174829
 31
0.0
  0
LINE
  5
22F
330
22
100
AcDbEntity
  8
_2-2_IN_LINE
  6
Continuous
 62
     7
100
AcDbLine
 10
1018.056973311726
 20
478.3377888174829
 30
0.0
 11
1018.266678535563
 21
478.2916556593346
 31
0.0
  0
LINE
  5
230
330
22
100
AcDbEntity
  8
_2-2_IN_LINE
  6
Continuous
 62
     7
100
AcDbLine
 10
1018.266678535563
 20
478.2916556593346
 30
0.0
 11
1018.473635484832
 21
478.2391696176325
 31
0.0
  0
LINE
  5
231
330
22
100
AcDbEntity
  8
_2-2_IN_LINE
  6
Continuous
 62
     7
100
AcDbLine
 10
1018.473635484832
 20
478.2391696176325
 30
0.0
 11
1018.676188684686
 21
478.1767614507322
 31
0.0
  0
LINE
  5
232
330
22
100
AcDbEntity
  8
_2-2_IN_LINE
  6
Continuous
 62
     7
100
AcDbLine
 10
1018.676188684686
 20
478.1767614507322
 30
0.0
 11
1018.872682660286
 21
478.1008619169988
 31
0.0
  0
LINE
  5
233
330
22
100
AcDbEntity
  8
_2-2_IN_LINE
  6
Continuous
 62
     7
100
AcDbLine
 10
1018.872682660286
 20
478.1008619169988
 30
0.0
 11
1018.983220486407
 21
478.0492519763431
 31
0.0
  0
LINE
  5
234
330
22
100
AcDbEntity
  8
_2-2_IN_LINE
  6
Continuous
 62
     7
100
AcDbLine
 10
1018.983220486407
 20
478.0492519763431
 30
0.0
 11
1019.082542717586
 21
477.996166504418
 31
0.0
  0
LINE
  5
235
330
22
100
AcDbEntity
  8
_2-2_IN_LINE
  6
Continuous
 62
     7
100
AcDbLine
 10
1019.082542717586
 20
477.996166504418
 30
0.0
 11
1019.247966632777
 21
477.8928802233196
 31
0.0
  0
LINE
  5
236
330
22
100
AcDbEntity
  8
_2-2_IN_LINE
  6
Continuous
 62
     7
100
AcDbLine
 10
1019.247966632777
 20
477.8928802233196
 30
0.0
 11
1019.406018204136
 21
477.7763305915875
 31
0.0
  0
LINE
  5
237
330
22
100
AcDbEntity
  8
_2-2_IN_LINE
  6
Continuous
 62
     7
100
AcDbLine
 10
1019.406018204136
 20
477.7763305915875
 30
0.0
 11
1019.556693250552
 21
477.6484039182725
 31
0.0
  0
LINE
  5
238
330
22
100
AcDbEntity
  8
_2-2_IN_LINE
  6
Continuous
 62
     7
100
AcDbLine
 10
1019.556693250552
 20
477.6484039182725
 30
0.0
 11
1019.699987590919
 21
477.5109865124256
 31
0.0
  0
LINE
  5
239
330
22
100
AcDbEntity
  8
_2-2_IN_LINE
  6
Continuous
 62
     7
100
AcDbLine
 10
1019.699987590919
 20
477.5109865124256
 30
0.0
 11
1019.835897044123
 21
477.3659646830976
 31
0.0
  0
LINE
  5
23A
330
22
100
AcDbEntity
  8
_2-2_IN_LINE
  6
Continuous
 62
     7
100
AcDbLine
 10
1019.835897044123
 20
477.3659646830976
 30
0.0
 11
1019.911339124108
 21
477.2791109790983
 31
0.0
  0
LINE
  5
23B
330
22
100
AcDbEntity
  8
_2-2_IN_LINE
  6
Continuous
 62
     7
100
AcDbLine
 10
1019.911339124108
 20
477.2791109790983
 30
0.0
 11
1019.99563414848
 21
477.1765435911089
 31
0.0
  0
LINE
  5
23C
330
22
100
AcDbEntity
  8
_2-2_IN_LINE
  6
Continuous
 62
     7
100
AcDbLine
 10
1019.99563414848
 20
477.1765435911089
 30
0.0
 11
1020.133806007748
 21
476.9952585813718
 31
0.0
  0
LINE
  5
23D
330
22
100
AcDbEntity
  8
_2-2_IN_LINE
  6
Continuous
 62
     7
100
AcDbLine
 10
1020.133806007748
 20
476.9952585813718
 30
0.0
 11
1020.263916274767
 21
476.8090339067527
 31
0.0
  0
LINE
  5
23E
330
22
100
AcDbEntity
  8
_2-2_IN_LINE
  6
Continuous
 62
     7
100
AcDbLine
 10
1020.263916274767
 20
476.8090339067527
 30
0.0
 11
1020.387136176753
 21
476.6186678456625
 31
0.0
  0
LINE
  5
23F
330
22
100
AcDbEntity
  8
_2-2_IN_LINE
  6
Continuous
 62
     7
100
AcDbLine
 10
1020.387136176753
 20
476.6186678456625
 30
0.0
 11
1020.504636940924
 21
476.4249586765191
 31
0.0
  0
LINE
  5
240
330
22
100
AcDbEntity
  8
_2-2_IN_LINE
  6
Continuous
 62
     7
100
AcDbLine
 10
1020.504636940924
 20
476.4249586765191
 30
0.0
 11
1020.617589794493
 21
476.2287046777356
 31
0.0
  0
LINE
  5
241
330
22
100
AcDbEntity
  8
_2-2_IN_LINE
  6
Continuous
 62
     7
100
AcDbLine
 10
1020.617589794493
 20
476.2287046777356
 30
0.0
 11
1020.681480121353
 21
476.1140258807069
 31
0.0
  0
LINE
  5
242
330
22
100
AcDbEntity
  8
_2-2_IN_LINE
  6
Continuous
 62
     7
100
AcDbLine
 10
1020.681480121353
 20
476.1140258807069
 30
0.0
 11
1020.748747488859
 21
475.9909592885703
 31
0.0
  0
LINE
  5
243
330
22
100
AcDbEntity
  8
_2-2_IN_LINE
  6
Continuous
 62
     7
100
AcDbLine
 10
1020.748747488859
 20
475.9909592885703
 30
0.0
 11
1020.862728730065
 21
475.7777525322017
 31
0.0
  0
LINE
  5
244
330
22
100
AcDbEntity
  8
_2-2_IN_LINE
  6
Continuous
 62
     7
100
AcDbLine
 10
1020.862728730065
 20
475.7777525322017
 30
0.0
 11
1020.97484327843
 21
475.5634555326657
 31
0.0
  0
LINE
  5
245
330
22
100
AcDbEntity
  8
_2-2_IN_LINE
  6
Continuous
 62
     7
100
AcDbLine
 10
1020.97484327843
 20
475.5634555326657
 30
0.0
 11
1021.085859887678
 21
475.3483062715924
 31
0.0
  0
LINE
  5
246
330
22
100
AcDbEntity
  8
_2-2_IN_LINE
  6
Continuous
 62
     7
100
AcDbLine
 10
1021.085859887678
 20
475.3483062715924
 30
0.0
 11
1021.196547311536
 21
475.1325427306102
 31
0.0
  0
LINE
  5
247
330
22
100
AcDbEntity
  8
_2-2_IN_LINE
  6
Continuous
 62
     7
100
AcDbLine
 10
1021.196547311536
 20
475.1325427306102
 30
0.0
 11
1021.307674303733
 21
474.9164028913543
 31
0.0
  0
LINE
  5
248
330
22
100
AcDbEntity
  8
_2-2_IN_LINE
  6
Continuous
 62
     7
100
AcDbLine
 10
1021.307674303733
 20
474.9164028913543
 30
0.0
 11
1021.372632298365
 21
474.7909631418547
 31
0.0
  0
LINE
  5
249
330
22
100
AcDbEntity
  8
_2-2_IN_LINE
  6
Continuous
 62
     7
100
AcDbLine
 10
1021.372632298365
 20
474.7909631418547
 30
0.0
 11
1021.46104575254
 21
474.6221349588478
 31
0.0
  0
LINE
  5
24A
330
22
100
AcDbEntity
  8
_2-2_IN_LINE
  6
Continuous
 62
     7
100
AcDbLine
 10
1021.46104575254
 20
474.6221349588478
 30
0.0
 11
1021.61755056847
 21
474.3327391929603
 31
0.0
  0
LINE
  5
24B
330
22
100
AcDbEntity
  8
_2-2_IN_LINE
  6
Continuous
 62
     7
100
AcDbLine
 10
1021.61755056847
 20
474.3327391929603
 30
0.0
 11
1021.781772161697
 21
474.04803101671
 31
0.0
  0
LINE
  5
24C
330
22
100
AcDbEntity
  8
_2-2_IN_LINE
  6
Continuous
 62
     7
100
AcDbLine
 10
1021.781772161697
 20
474.04803101671
 30
0.0
 11
1021.956696149082
 21
473.7709775886907
 31
0.0
  0
LINE
  5
24D
330
22
100
AcDbEntity
  8
_2-2_IN_LINE
  6
Continuous
 62
     7
100
AcDbLine
 10
1021.956696149082
 20
473.7709775886907
 30
0.0
 11
1022.145308147484
 21
473.5045460675047
 31
0.0
  0
LINE
  5
24E
330
22
100
AcDbEntity
  8
_2-2_IN_LINE
  6
Continuous
 62
     7
100
AcDbLine
 10
1022.145308147484
 20
473.5045460675047
 30
0.0
 11
1022.350593773759
 21
473.251703611748
 31
0.0
  0
LINE
  5
24F
330
22
100
AcDbEntity
  8
_2-2_IN_LINE
  6
Continuous
 62
     7
100
AcDbLine
 10
1022.350593773759
 20
473.251703611748
 30
0.0
 11
1022.478475781585
 21
473.1124507119677
 31
0.0
  0
LINE
  5
250
330
22
100
AcDbEntity
  8
_2-2_IN_LINE
  6
Continuous
 62
     7
100
AcDbLine
 10
1022.478475781585
 20
473.1124507119677
 30
0.0
 11
1022.52469095389
 21
473.0653457060571
 31
0.0
  0
LINE
  5
251
330
22
100
AcDbEntity
  8
_2-2_IN_LINE
  6
Continuous
 62
     7
100
AcDbLine
 10
1022.52469095389
 20
473.0653457060571
 30
0.0
 11
1022.606390215429
 21
472.9860006110203
 31
0.0
  0
LINE
  5
252
330
22
100
AcDbEntity
  8
_2-2_IN_LINE
  6
Continuous
 62
     7
100
AcDbLine
 10
1022.606390215429
 20
472.9860006110203
 30
0.0
 11
1022.69059260776
 21
472.9092005015792
 31
0.0
  0
LINE
  5
253
330
22
100
AcDbEntity
  8
_2-2_IN_LINE
  6
Continuous
 62
     7
100
AcDbLine
 10
1022.69059260776
 20
472.9092005015792
 30
0.0
 11
1022.777238583256
 21
472.8351515982541
 31
0.0
  0
LINE
  5
254
330
22
100
AcDbEntity
  8
_2-2_IN_LINE
  6
Continuous
 62
     7
100
AcDbLine
 10
1022.777238583256
 20
472.8351515982541
 30
0.0
 11
1022.866268594292
 21
472.7640601215632
 31
0.0
  0
LINE
  5
255
330
22
100
AcDbEntity
  8
_2-2_IN_LINE
  6
Continuous
 62
     7
100
AcDbLine
 10
1022.866268594292
 20
472.7640601215632
 30
0.0
 11
1022.957623093242
 21
472.6961322920334
 31
0.0
  0
LINE
  5
256
330
22
100
AcDbEntity
  8
_2-2_IN_LINE
  6
Continuous
 62
     7
100
AcDbLine
 10
1022.957623093242
 20
472.6961322920334
 30
0.0
 11
1023.011650318138
 21
472.658264995644
 31
0.0
  0
LINE
  5
257
330
22
100
AcDbEntity
  8
_2-2_IN_LINE
  6
Continuous
 62
     7
100
AcDbLine
 10
1023.011650318138
 20
472.658264995644
 30
0.0
 11
1023.101251729225
 21
472.5989723052663
 31
0.0
  0
LINE
  5
258
330
22
100
AcDbEntity
  8
_2-2_IN_LINE
  6
Continuous
 62
     7
100
AcDbLine
 10
1023.101251729225
 20
472.5989723052663
 30
0.0
 11
1023.259443173395
 21
472.5025590410705
 31
0.0
  0
LINE
  5
259
330
22
100
AcDbEntity
  8
_2-2_IN_LINE
  6
Continuous
 62
     7
100
AcDbLine
 10
1023.259443173395
 20
472.5025590410705
 30
0.0
 11
1023.420854460429
 21
472.4112306319995
 31
0.0
  0
LINE
  5
25A
330
22
100
AcDbEntity
  8
_2-2_IN_LINE
  6
Continuous
 62
     7
100
AcDbLine
 10
1023.420854460429
 20
472.4112306319995
 30
0.0
 11
1023.583774408722
 21
472.322339923549
 31
0.0
  0
LINE
  5
25B
330
22
100
AcDbEntity
  8
_2-2_IN_LINE
  6
Continuous
 62
     7
100
AcDbLine
 10
1023.583774408722
 20
472.322339923549
 30
0.0
 11
1023.746491836674
 21
472.2332397612131
 31
0.0
  0
LINE
  5
25C
330
22
100
AcDbEntity
  8
_2-2_IN_LINE
  6
Continuous
 62
     7
100
AcDbLine
 10
1023.746491836674
 20
472.2332397612131
 30
0.0
 11
1023.907295562686
 21
472.141282990488
 31
0.0
  0
LINE
  5
25D
330
22
100
AcDbEntity
  8
_2-2_IN_LINE
  6
Continuous
 62
     7
100
AcDbLine
 10
1023.907295562686
 20
472.141282990488
 30
0.0
 11
1023.999010571013
 21
472.0855960489763
 31
0.0
  0
LINE
  5
25E
330
22
100
AcDbEntity
  8
_2-2_IN_LINE
  6
Continuous
 62
     7
100
AcDbLine
 10
1023.999010571013
 20
472.0855960489763
 30
0.0
 11
1024.091421563411
 21
472.0262312791039
 31
0.0
  0
LINE
  5
25F
330
22
100
AcDbEntity
  8
_2-2_IN_LINE
  6
Continuous
 62
     7
100
AcDbLine
 10
1024.091421563411
 20
472.0262312791039
 30
0.0
 11
1024.247364565566
 21
471.9187295173361
 31
0.0
  0
LINE
  5
260
330
22
100
AcDbEntity
  8
_2-2_IN_LINE
  6
Continuous
 62
     7
100
AcDbLine
 10
1024.247364565566
 20
471.9187295173361
 30
0.0
 11
1024.399687107788
 21
471.8057463273686
 31
0.0
  0
LINE
  5
261
330
22
100
AcDbEntity
  8
_2-2_IN_LINE
  6
Continuous
 62
     7
100
AcDbLine
 10
1024.399687107788
 20
471.8057463273686
 30
0.0
 11
1024.549163596522
 21
471.6884862749731
 31
0.0
  0
LINE
  5
262
330
22
100
AcDbEntity
  8
_2-2_IN_LINE
  6
Continuous
 62
     7
100
AcDbLine
 10
1024.549163596522
 20
471.6884862749731
 30
0.0
 11
1024.696568438215
 21
471.5681539259237
 31
0.0
  0
LINE
  5
263
330
22
100
AcDbEntity
  8
_2-2_IN_LINE
  6
Continuous
 62
     7
100
AcDbLine
 10
1024.696568438215
 20
471.5681539259237
 30
0.0
 11
1024.842676039312
 21
471.4459538459988
 31
0.0
  0
LINE
  5
264
330
22
100
AcDbEntity
  8
_2-2_IN_LINE
  6
Continuous
 62
     7
100
AcDbLine
 10
1024.842676039312
 20
471.4459538459988
 30
0.0
 11
1024.927129208714
 21
471.374696666906
 31
0.0
  0
LINE
  5
265
330
22
100
AcDbEntity
  8
_2-2_IN_LINE
  6
Continuous
 62
     7
100
AcDbLine
 10
1024.927129208714
 20
471.374696666906
 30
0.0
 11
1025.032971072333
 21
471.2852160830067
 31
0.0
  0
LINE
  5
266
330
22
100
AcDbEntity
  8
_2-2_IN_LINE
  6
Continuous
 62
     7
100
AcDbLine
 10
1025.032971072333
 20
471.2852160830067
 30
0.0
 11
1025.214543850644
 21
471.1301330292105
 31
0.0
  0
LINE
  5
267
330
22
100
AcDbEntity
  8
_2-2_IN_LINE
  6
Continuous
 62
     7
100
AcDbLine
 10
1025.214543850644
 20
471.1301330292105
 30
0.0
 11
1025.393718503267
 21
470.9727438609689
 31
0.0
  0
LINE
  5
268
330
22
100
AcDbEntity
  8
_2-2_IN_LINE
  6
Continuous
 62
     7
100
AcDbLine
 10
1025.393718503267
 20
470.9727438609689
 30
0.0
 11
1025.569050629493
 21
470.8115536630436
 31
0.0
  0
LINE
  5
269
330
22
100
AcDbEntity
  8
_2-2_IN_LINE
  6
Continuous
 62
     7
100
AcDbLine
 10
1025.569050629493
 20
470.8115536630436
 30
0.0
 11
1025.739095828602
 21
470.6450675201932
 31
0.0
  0
LINE
  5
26A
330
22
100
AcDbEntity
  8
_2-2_IN_LINE
  6
Continuous
 62
     7
100
AcDbLine
 10
1025.739095828602
 20
470.6450675201932
 30
0.0
 11
1025.90240969988
 21
470.4717905171839
 31
0.0
  0
LINE
  5
26B
330
22
100
AcDbEntity
  8
_2-2_IN_LINE
  6
Continuous
 62
     7
100
AcDbLine
 10
1025.90240969988
 20
470.4717905171839
 30
0.0
 11
1025.993478281819
 21
470.3675892089727
 31
0.0
  0
LINE
  5
26C
330
22
100
AcDbEntity
  8
_2-2_IN_LINE
  6
Continuous
 62
     7
100
AcDbLine
 10
1025.993478281819
 20
470.3675892089727
 30
0.0
 11
1026.045137554457
 21
470.3055019334517
 31
0.0
  0
LINE
  5
26D
330
22
100
AcDbEntity
  8
_2-2_IN_LINE
  6
Continuous
 62
     7
100
AcDbLine
 10
1026.045137554457
 20
470.3055019334517
 30
0.0
 11
1026.131462664762
 21
470.1960291936126
 31
0.0
  0
LINE
  5
26E
330
22
100
AcDbEntity
  8
_2-2_IN_LINE
  6
Continuous
 62
     7
100
AcDbLine
 10
1026.131462664762
 20
470.1960291936126
 30
0.0
 11
1026.213822536895
 21
470.083527935854
 31
0.0
  0
LINE
  5
26F
330
22
100
AcDbEntity
  8
_2-2_IN_LINE
  6
Continuous
 62
     7
100
AcDbLine
 10
1026.213822536895
 20
470.083527935854
 30
0.0
 11
1026.29164322764
 21
469.9680470031427
 31
0.0
  0
LINE
  5
270
330
22
100
AcDbEntity
  8
_2-2_IN_LINE
  6
Continuous
 62
     7
100
AcDbLine
 10
1026.29164322764
 20
469.9680470031427
 30
0.0
 11
1026.364350793784
 21
469.8496352384501
 31
0.0
  0
LINE
  5
271
330
22
100
AcDbEntity
  8
_2-2_IN_LINE
  6
Continuous
 62
     7
100
AcDbLine
 10
1026.364350793784
 20
469.8496352384501
 30
0.0
 11
1026.431371292114
 21
469.7283414847452
 31
0.0
  0
LINE
  5
272
330
22
100
AcDbEntity
  8
_2-2_IN_LINE
  6
Continuous
 62
     7
100
AcDbLine
 10
1026.431371292114
 20
469.7283414847452
 30
0.0
 11
1026.467411203201
 21
469.6566898269049
 31
0.0
  0
LINE
  5
273
330
22
100
AcDbEntity
  8
_2-2_IN_LINE
  6
Continuous
 62
     7
100
AcDbLine
 10
1026.467411203201
 20
469.6566898269049
 30
0.0
 11
1026.514063056557
 21
469.5552139358534
 31
0.0
  0
LINE
  5
274
330
22
100
AcDbEntity
  8
_2-2_IN_LINE
  6
Continuous
 62
     7
100
AcDbLine
 10
1026.514063056557
 20
469.5552139358534
 30
0.0
 11
1026.585549814909
 21
469.3764495568036
 31
0.0
  0
LINE
  5
275
330
22
100
AcDbEntity
  8
_2-2_IN_LINE
  6
Continuous
 62
     7
100
AcDbLine
 10
1026.585549814909
 20
469.3764495568036
 30
0.0
 11
1026.647501153532
 21
469.1936291386543
 31
0.0
  0
LINE
  5
276
330
22
100
AcDbEntity
  8
_2-2_IN_LINE
  6
Continuous
 62
     7
100
AcDbLine
 10
1026.647501153532
 20
469.1936291386543
 30
0.0
 11
1026.7019990418
 21
469.0076382794637
 31
0.0
  0
LINE
  5
277
330
22
100
AcDbEntity
  8
_2-2_IN_LINE
  6
Continuous
 62
     7
100
AcDbLine
 10
1026.7019990418
 20
469.0076382794637
 30
0.0
 11
1026.751125449087
 21
468.8193625772902
 31
0.0
  0
LINE
  5
278
330
22
100
AcDbEntity
  8
_2-2_IN_LINE
  6
Continuous
 62
     7
100
AcDbLine
 10
1026.751125449087
 20
468.8193625772902
 30
0.0
 11
1026.796962344766
 21
468.629687630185
 31
0.0
  0
LINE
  5
279
330
22
100
AcDbEntity
  8
_2-2_IN_LINE
  6
Continuous
 62
     7
100
AcDbLine
 10
1026.796962344766
 20
468.629687630185
 30
0.0
 11
1026.822860894236
 21
468.5193839985237
 31
0.0
  0
LINE
  5
27A
330
22
100
AcDbEntity
  8
_2-2_IN_LINE
  6
Continuous
 62
     7
100
AcDbLine
 10
866.7114805369656
 20
468.5193839985237
 30
0.0
 11
1016.074985031619
 21
468.5193839985237
 31
0.0
  0
LINE
  5
27B
330
22
100
AcDbEntity
  8
_2-2_IN_LINE
  6
Continuous
 62
     7
100
AcDbLine
 10
866.7114805369656
 20
673.5193839985235
 30
0.0
 11
866.7114805369656
 21
273.5193839985237
 31
0.0
  0
TEXT
  5
27C
330
22
100
AcDbEntity
  8
_2-A_MOJI
 62
     7
100
AcDbText
 10
944.3982310002567
 20
985.0805598886841
 30
0.0
 40
15.0
  1
ＥＬ-2001注入
100
AcDbText
  0
TEXT
  5
27D
330
22
100
AcDbEntity
  8
_2-A_MOJI
 62
     7
100
AcDbText
 10
1001.26304146719
 20
344.2814053795911
 30
0.0
 40
15.0
  1
ＥＬ-2001注入
100
AcDbText
  0
TEXT
  5
27E
330
22
100
AcDbEntity
  8
_2-B_DIM
 62
     7
100
AcDbText
 10
920.8021622214799
 20
1038.837105506991
 30
0.0
 40
15.0
  1
40以上
100
AcDbText
  0
TEXT
  5
27F
330
22
100
AcDbEntity
  8
_2-B_DIM
 62
     7
100
AcDbText
 10
974.1656667161427
 20
398.8371055069894
 30
0.0
 40
15.0
  1
40以上
100
AcDbText
  0
LINE
  5
280
330
22
100
AcDbEntity
  8
_2-7_ビス
  6
Continuous
 62
     7
100
AcDbLine
 10
892.8364813617655
 20
1108.519383998523
 30
0.0
 11
888.5864797121664
 21
1108.519383998523
 31
0.0
  0
LINE
  5
281
330
22
100
AcDbEntity
  8
_2-7_ビス
  6
Continuous
 62
     7
100
AcDbLine
 10
885.7114764129697
 20
1111.394387297721
 30
0.0
 11
888.5864797121664
 21
1108.519383998523
 31
0.0
  0
LINE
  5
282
330
22
100
AcDbEntity
  8
_2-7_ビス
  6
Continuous
 62
     7
100
AcDbLine
 10
895.7114846609634
 20
1111.394387297721
 30
0.0
 11
885.7114764129697
 21
1111.394387297721
 31
0.0
  0
LINE
  5
283
330
22
100
AcDbEntity
  8
_2-7_ビス
  6
Continuous
 62
     7
100
AcDbLine
 10
885.7114764129697
 20
1111.894413691302
 30
0.0
 11
885.7114764129697
 21
1111.394387297721
 31
0.0
  0
LINE
  5
284
330
22
100
AcDbEntity
  8
_2-7_ビス
  6
Continuous
 62
     7
100
AcDbLine
 10
895.7114846609634
 20
1111.394387297721
 30
0.0
 11
895.7114846609634
 21
1111.894413691302
 31
0.0
  0
LINE
  5
285
330
22
100
AcDbEntity
  8
_2-7_ビス
  6
Continuous
 62
     7
100
AcDbLine
 10
895.7114846609634
 20
1111.894413691302
 30
0.0
 11
885.7114764129697
 21
1111.894413691302
 31
0.0
  0
LINE
  5
286
330
22
100
AcDbEntity
  8
_2-7_ビス
  6
Continuous
 62
     7
100
AcDbLine
 10
895.7114846609634
 20
1111.394387297721
 30
0.0
 11
892.8364813617655
 21
1108.519383998523
 31
0.0
  0
ARC
  5
287
330
22
100
AcDbEntity
  8
_2-7_ビス
  6
DASHED3
 62
     7
100
AcDbCircle
 10
890.7114805369666
 20
1110.629946709673
 30
0.0
 40
1.840317539266638
100
AcDbArc
 50
217.1175079345703
 51
322.8824768066406
  0
LINE
  5
288
330
22
100
AcDbEntity
  8
_2-7_ビス
  6
DASHED3
 62
     7
100
AcDbLine
 10
893.2614963731154
 20
1111.394387297721
 30
0.0
 11
892.1789718930687
 21
1109.51936255374
 31
0.0
  0
LINE
  5
289
330
22
100
AcDbEntity
  8
_2-7_ビス
  6
DASHED3
 62
     7
100
AcDbLine
 10
888.1615018167915
 20
1111.394387297721
 30
0.0
 11
889.2440262968372
 21
1109.51936255374
 31
0.0
  0
LINE
  5
28A
330
22
100
AcDbEntity
  8
_2-7_ビス
  6
DASHED3
 62
     7
100
AcDbLine
 10
888.1615018167915
 20
1111.394387297721
 30
0.0
 11
888.1615018167915
 21
1111.894413691302
 31
0.0
  0
LINE
  5
28B
330
22
100
AcDbEntity
  8
_2-7_ビス
  6
DASHED3
 62
     7
100
AcDbLine
 10
893.2614963731154
 20
1111.394387297721
 30
0.0
 11
893.2614963731154
 21
1111.894413691302
 31
0.0
  0
LINE
  5
28C
330
22
100
AcDbEntity
  8
_2-7_ビス
  6
Continuous
 62
     7
100
AcDbLine
 10
892.7114805369658
 20
1108.519383998523
 30
0.0
 11
892.7114805369658
 21
1063.519383998523
 31
0.0
  0
LINE
  5
28D
330
22
100
AcDbEntity
  8
_2-7_ビス
  6
Continuous
 62
     7
100
AcDbLine
 10
888.7114805369661
 20
1108.519383998523
 30
0.0
 11
888.7114805369661
 21
1063.519383998523
 31
0.0
  0
LINE
  5
28E
330
22
100
AcDbEntity
  8
_2-7_ビス
  6
Continuous
 62
     7
100
AcDbLine
 10
893.7114805369672
 20
1059.423898825611
 30
0.0
 11
893.7114805369672
 21
1063.519383998523
 31
0.0
  0
LINE
  5
28F
330
22
100
AcDbEntity
  8
_2-7_ビス
  6
Continuous
 62
     7
100
AcDbLine
 10
893.7114805369672
 20
1063.519383998523
 30
0.0
 11
890.7114805369666
 21
1063.519383998523
 31
0.0
  0
LINE
  5
290
330
22
100
AcDbEntity
  8
_2-7_ビス
  6
Continuous
 62
     7
100
AcDbLine
 10
893.7114805369672
 20
1059.423898825611
 30
0.0
 11
894.4614805369665
 21
1058.599337905407
 31
0.0
  0
LINE
  5
291
330
22
100
AcDbEntity
  8
_2-7_ビス
  6
Continuous
 62
     7
100
AcDbLine
 10
894.4614805369665
 20
1058.599337905407
 30
0.0
 11
894.4614805369665
 21
1056.500732178292
 31
0.0
  0
LINE
  5
292
330
22
100
AcDbEntity
  8
_2-7_ビス
  6
Continuous
 62
     7
100
AcDbLine
 10
894.4614805369665
 20
1056.500732178292
 30
0.0
 11
893.9132612869659
 21
1052.383138865043
 31
0.0
  0
LINE
  5
293
330
22
100
AcDbEntity
  8
_2-7_ビス
  6
Continuous
 62
     7
100
AcDbLine
 10
893.9132612869659
 20
1052.383138865043
 30
0.0
 11
893.6713375369661
 21
1051.975524356523
 31
0.0
  0
LINE
  5
294
330
22
100
AcDbEntity
  8
_2-7_ビス
  6
Continuous
 62
     7
100
AcDbLine
 10
893.6713375369661
 20
1051.975524356523
 30
0.0
 11
893.7114805369672
 21
1051.975524356523
 31
0.0
  0
LINE
  5
295
330
22
100
AcDbEntity
  8
_2-7_ビス
  6
Continuous
 62
     7
100
AcDbLine
 10
893.7114805369672
 20
1051.975524356523
 30
0.0
 11
893.7114805369672
 21
1050.161489269923
 31
0.0
  0
LINE
  5
296
330
22
100
AcDbEntity
  8
_2-7_ビス
  6
Continuous
 62
     7
100
AcDbLine
 10
893.7114805369672
 20
1050.161489269923
 30
0.0
 11
893.2784679763992
 21
1049.336927866923
 31
0.0
  0
LINE
  5
297
330
22
100
AcDbEntity
  8
_2-7_ビス
  6
Continuous
 62
     7
100
AcDbLine
 10
893.4083717869665
 20
1049.089559446022
 30
0.0
 11
894.3864805369662
 21
1049.089559446022
 31
0.0
  0
LINE
  5
298
330
22
100
AcDbEntity
  8
_2-7_ビス
  6
Continuous
 62
     7
100
AcDbLine
 10
894.3864805369662
 20
1049.089559446022
 30
0.0
 11
894.3864805369662
 21
1044.856168852143
 31
0.0
  0
LINE
  5
299
330
22
100
AcDbEntity
  8
_2-7_ビス
  6
Continuous
 62
     7
100
AcDbLine
 10
894.3864805369662
 20
1044.856168852143
 30
0.0
 11
893.8850110369662
 21
1043.894822607123
 31
0.0
  0
LINE
  5
29A
330
22
100
AcDbEntity
  8
_2-7_ビス
  6
Continuous
 62
     7
100
AcDbLine
 10
893.8850110369662
 20
1043.894822607123
 30
0.0
 11
893.8802305369662
 21
1043.894822607123
 31
0.0
  0
LINE
  5
29B
330
22
100
AcDbEntity
  8
_2-7_ビス
  6
Continuous
 62
     7
100
AcDbLine
 10
893.8802263636818
 20
1043.894822960905
 30
0.0
 11
893.8802305369662
 21
1043.894822607123
 31
0.0
  0
LINE
  5
29C
330
22
100
AcDbEntity
  8
_2-7_ビス
  6
Continuous
 62
     7
100
AcDbLine
 10
893.8802263636818
 20
1043.894822960905
 30
0.0
 11
893.8802305369662
 21
1043.894822607123
 31
0.0
  0
LINE
  5
29D
330
22
100
AcDbEntity
  8
_2-7_ビス
  6
Continuous
 62
     7
100
AcDbLine
 10
893.8476392869661
 20
1042.822892783224
 30
0.0
 11
894.3864805369662
 21
1042.822892783224
 31
0.0
  0
LINE
  5
29E
330
22
100
AcDbEntity
  8
_2-7_ビス
  6
Continuous
 62
     7
100
AcDbLine
 10
894.3864805369662
 20
1042.822892783224
 30
0.0
 11
894.3864805369662
 21
1037.025659646449
 31
0.0
  0
LINE
  5
29F
330
22
100
AcDbEntity
  8
_2-7_ビス
  6
Continuous
 62
     7
100
AcDbLine
 10
894.3864805369662
 20
1037.025659646449
 30
0.0
 11
893.8802333499062
 21
1036.061508276684
 31
0.0
  0
LINE
  5
2A0
330
22
100
AcDbEntity
  8
_2-7_ビス
  6
Continuous
 62
     7
100
AcDbLine
 10
893.8802305369662
 20
1036.061489278623
 30
0.0
 11
893.8766389066104
 21
1036.538940675863
 31
0.0
  0
LINE
  5
2A1
330
22
100
AcDbEntity
  8
_2-7_ビス
  6
Continuous
 62
     7
100
AcDbLine
 10
893.8766389066104
 20
1036.538940675863
 30
0.0
 11
893.5559588989869
 21
1036.556226120423
 31
0.0
  0
LINE
  5
2A2
330
22
100
AcDbEntity
  8
_2-7_ビス
  6
Continuous
 62
     7
100
AcDbLine
 10
893.3972968588189
 20
1036.803594541323
 30
0.0
 11
893.8476392869661
 21
1037.628155944323
 31
0.0
  0
LINE
  5
2A3
330
22
100
AcDbEntity
  8
_2-7_ビス
  6
Continuous
 62
     7
100
AcDbLine
 10
893.8476392869661
 20
1037.628155944323
 30
0.0
 11
893.8476394390896
 21
1038.105607413318
 31
0.0
  0
LINE
  5
2A4
330
22
100
AcDbEntity
  8
_2-7_ビス
  6
Continuous
 62
     7
100
AcDbLine
 10
893.8476394390896
 20
1038.105607413318
 30
0.0
 11
893.4996070369672
 21
1038.122892786123
 31
0.0
  0
LINE
  5
2A5
330
22
100
AcDbEntity
  8
_2-7_ビス
  6
Continuous
 62
     7
100
AcDbLine
 10
893.340017287246
 20
1038.370261207023
 30
0.0
 11
893.8476392869661
 21
1039.194822610023
 31
0.0
  0
LINE
  5
2A6
330
22
100
AcDbEntity
  8
_2-7_ビス
  6
Continuous
 62
     7
100
AcDbLine
 10
893.8476392869661
 20
1039.194822610023
 30
0.0
 11
893.8476392869661
 21
1039.672274171132
 31
0.0
  0
LINE
  5
2A7
330
22
100
AcDbEntity
  8
_2-7_ビス
  6
Continuous
 62
     7
100
AcDbLine
 10
893.8476392869661
 20
1039.672274171132
 30
0.0
 11
893.4996070369672
 21
1039.689559451823
 31
0.0
  0
LINE
  5
2A8
330
22
100
AcDbEntity
  8
_2-7_ビス
  6
Continuous
 62
     7
100
AcDbLine
 10
893.340017287246
 20
1039.936927872723
 30
0.0
 11
893.8476392869661
 21
1040.761489275723
 31
0.0
  0
LINE
  5
2A9
330
22
100
AcDbEntity
  8
_2-7_ビス
  6
Continuous
 62
     7
100
AcDbLine
 10
893.8476392869661
 20
1040.761489275723
 30
0.0
 11
893.8476392869661
 21
1041.238940836832
 31
0.0
  0
LINE
  5
2AA
330
22
100
AcDbEntity
  8
_2-7_ビス
  6
Continuous
 62
     7
100
AcDbLine
 10
893.8476392869661
 20
1041.238940836832
 30
0.0
 11
893.4996070369672
 21
1041.256226117523
 31
0.0
  0
LINE
  5
2AB
330
22
100
AcDbEntity
  8
_2-7_ビス
  6
Continuous
 62
     7
100
AcDbLine
 10
893.340017287246
 20
1041.503594538423
 30
0.0
 11
893.8476394390896
 21
1042.328155941423
 31
0.0
  0
LINE
  5
2AC
330
22
100
AcDbEntity
  8
_2-7_ビス
  6
Continuous
 62
     7
100
AcDbLine
 10
893.8476394390896
 20
1042.328155941423
 30
0.0
 11
893.8476392869661
 21
1042.822892783224
 31
0.0
  0
LINE
  5
2AD
330
22
100
AcDbEntity
  8
_2-7_ビス
  6
Continuous
 62
     7
100
AcDbLine
 10
893.8802263636818
 20
1043.894822960905
 30
0.0
 11
893.8765411624361
 21
1044.372274429899
 31
0.0
  0
LINE
  5
2AE
330
22
100
AcDbEntity
  8
_2-7_ビス
  6
Continuous
 62
     7
100
AcDbLine
 10
893.8765411624361
 20
1044.372274429899
 30
0.0
 11
893.5590962869669
 21
1044.389559448923
 31
0.0
  0
LINE
  5
2AF
330
22
100
AcDbEntity
  8
_2-7_ビス
  6
Continuous
 62
     7
100
AcDbLine
 10
893.3970041466464
 20
1044.636927869823
 30
0.0
 11
893.8476394390896
 21
1045.461489272823
 31
0.0
  0
LINE
  5
2B0
330
22
100
AcDbEntity
  8
_2-7_ビス
  6
Continuous
 62
     7
100
AcDbLine
 10
893.8476394390896
 20
1045.461489272823
 30
0.0
 11
893.8476394390896
 21
1045.938940741817
 31
0.0
  0
LINE
  5
2B1
330
22
100
AcDbEntity
  8
_2-7_ビス
  6
Continuous
 62
     7
100
AcDbLine
 10
893.8476394390896
 20
1045.938940741817
 30
0.0
 11
893.4996070369672
 21
1045.956226114624
 31
0.0
  0
LINE
  5
2B2
330
22
100
AcDbEntity
  8
_2-7_ビス
  6
Continuous
 62
     7
100
AcDbLine
 10
893.340017287246
 20
1046.203594535523
 30
0.0
 11
893.8476392869661
 21
1047.028155938523
 31
0.0
  0
LINE
  5
2B3
330
22
100
AcDbEntity
  8
_2-7_ビス
  6
Continuous
 62
     7
100
AcDbLine
 10
893.8476392869661
 20
1047.028155938523
 30
0.0
 11
893.8476394390896
 21
1047.505607407517
 31
0.0
  0
LINE
  5
2B4
330
22
100
AcDbEntity
  8
_2-7_ビス
  6
Continuous
 62
     7
100
AcDbLine
 10
893.8476394390896
 20
1047.505607407517
 30
0.0
 11
893.4987209444782
 21
1047.523124361483
 31
0.0
  0
LINE
  5
2B5
330
22
100
AcDbEntity
  8
_2-7_ビス
  6
Continuous
 62
     7
100
AcDbLine
 10
893.340017287246
 20
1047.770261201223
 30
0.0
 11
893.8476394390896
 21
1048.594822604223
 31
0.0
  0
LINE
  5
2B6
330
22
100
AcDbEntity
  8
_2-7_ビス
  6
Continuous
 62
     7
100
AcDbLine
 10
893.8476394390896
 20
1048.594822604223
 30
0.0
 11
893.8476392814592
 21
1049.089559446022
 31
0.0
  0
LINE
  5
2B7
330
22
100
AcDbEntity
  8
_2-7_ビス
  6
Continuous
 62
     7
100
AcDbLine
 10
893.8476392869661
 20
1034.989559454723
 30
0.0
 11
894.3864805369662
 21
1034.989559454723
 31
0.0
  0
LINE
  5
2B8
330
22
100
AcDbEntity
  8
_2-7_ビス
  6
Continuous
 62
     7
100
AcDbLine
 10
894.3864805369662
 20
1034.989559454723
 30
0.0
 11
894.3864805369662
 21
1031.741317719886
 31
0.0
  0
LINE
  5
2B9
330
22
100
AcDbEntity
  8
_2-7_ビス
  6
Continuous
 62
     7
100
AcDbLine
 10
894.3864805369662
 20
1031.741317719886
 30
0.0
 11
893.8806947869666
 21
1028.228155950123
 31
0.0
  0
LINE
  5
2BA
330
22
100
AcDbEntity
  8
_2-7_ビス
  6
Continuous
 62
     7
100
AcDbLine
 10
893.8806947869666
 20
1028.228155950123
 30
0.0
 11
893.8799602693029
 21
1028.705607034264
 31
0.0
  0
LINE
  5
2BB
330
22
100
AcDbEntity
  8
_2-7_ビス
  6
Continuous
 62
     7
100
AcDbLine
 10
893.8799602693029
 20
1028.705607034264
 30
0.0
 11
893.5712717869657
 21
1028.722892791923
 31
0.0
  0
LINE
  5
2BC
330
22
100
AcDbEntity
  8
_2-7_ビス
  6
Continuous
 62
     7
100
AcDbLine
 10
893.8806947869666
 20
1028.228155950123
 30
0.0
 11
893.4472179763995
 21
1027.403594547123
 31
0.0
  0
LINE
  5
2BD
330
22
100
AcDbEntity
  8
_2-7_ビス
  6
Continuous
 62
     7
100
AcDbLine
 10
893.4267152221783
 20
1028.970261212823
 30
0.0
 11
893.8773175556386
 21
1029.794822615823
 31
0.0
  0
LINE
  5
2BE
330
22
100
AcDbEntity
  8
_2-7_ビス
  6
Continuous
 62
     7
100
AcDbLine
 10
893.8773175556386
 20
1029.794822615823
 30
0.0
 11
893.8752326513768
 21
1030.272273699963
 31
0.0
  0
LINE
  5
2BF
330
22
100
AcDbEntity
  8
_2-7_ビス
  6
Continuous
 62
     7
100
AcDbLine
 10
893.8752326513768
 20
1030.272273699963
 30
0.0
 11
893.5529057869665
 21
1030.289559457624
 31
0.0
  0
LINE
  5
2C0
330
22
100
AcDbEntity
  8
_2-7_ビス
  6
Continuous
 62
     7
100
AcDbLine
 10
893.4044002911489
 20
1030.536927878523
 30
0.0
 11
893.8682681504722
 21
1031.361488896669
 31
0.0
  0
LINE
  5
2C1
330
22
100
AcDbEntity
  8
_2-7_ビス
  6
Continuous
 62
     7
100
AcDbLine
 10
893.8682681504722
 20
1031.361488896669
 30
0.0
 11
893.8642053097757
 21
1031.838940365664
 31
0.0
  0
LINE
  5
2C2
330
22
100
AcDbEntity
  8
_2-7_ビス
  6
Continuous
 62
     7
100
AcDbLine
 10
893.8642053097757
 20
1031.838940365664
 30
0.0
 11
893.5295519545078
 21
1031.856226123323
 31
0.0
  0
LINE
  5
2C3
330
22
100
AcDbEntity
  8
_2-7_ビス
  6
Continuous
 62
     7
100
AcDbLine
 10
893.3722973383394
 20
1032.103594544223
 30
0.0
 11
893.852499962545
 21
1032.928155562369
 31
0.0
  0
LINE
  5
2C4
330
22
100
AcDbEntity
  8
_2-7_ビス
  6
Continuous
 62
     7
100
AcDbLine
 10
893.852499962545
 20
1032.928155562369
 30
0.0
 11
893.8476392869661
 21
1033.405607508331
 31
0.0
  0
LINE
  5
2C5
330
22
100
AcDbEntity
  8
_2-7_ビス
  6
Continuous
 62
     7
100
AcDbLine
 10
893.8476392869661
 20
1033.405607508331
 30
0.0
 11
893.4996070369672
 21
1033.422892789023
 31
0.0
  0
LINE
  5
2C6
330
22
100
AcDbEntity
  8
_2-7_ビス
  6
Continuous
 62
     7
100
AcDbLine
 10
893.340017287246
 20
1033.670261209923
 30
0.0
 11
893.8476394390896
 21
1034.494822612923
 31
0.0
  0
LINE
  5
2C7
330
22
100
AcDbEntity
  8
_2-7_ビス
  6
Continuous
 62
     7
100
AcDbLine
 10
893.8476394390896
 20
1034.494822612923
 30
0.0
 11
893.8476392869661
 21
1034.989559454723
 31
0.0
  0
LINE
  5
2C8
330
22
100
AcDbEntity
  8
_2-7_ビス
  6
Continuous
 62
     7
100
AcDbLine
 10
893.5771217869659
 20
1027.156226126223
 30
0.0
 11
893.7114805369672
 21
1027.156226126223
 31
0.0
  0
LINE
  5
2C9
330
22
100
AcDbEntity
  8
_2-7_ビス
  6
Continuous
 62
     7
100
AcDbLine
 10
893.7114805369672
 20
1027.156226126223
 30
0.0
 11
893.7114805369672
 21
1026.372892793372
 31
0.0
  0
LINE
  5
2CA
330
22
100
AcDbEntity
  8
_2-7_ビス
  6
Continuous
 62
     7
100
AcDbLine
 10
893.7114805369672
 20
1026.372892793372
 30
0.0
 11
893.5614805369661
 21
1026.372892793372
 31
0.0
  0
LINE
  5
2CB
330
22
100
AcDbEntity
  8
_2-7_ビス
  6
Continuous
 62
     7
100
AcDbLine
 10
893.5614805369661
 20
1026.372892793372
 30
0.0
 11
893.5614805369661
 21
1024.764998057523
 31
0.0
  0
LINE
  5
2CC
330
22
100
AcDbEntity
  8
_2-7_ビス
  6
Continuous
 62
     7
100
AcDbLine
 10
893.5614805369661
 20
1024.764998057523
 30
0.0
 11
893.5550137261655
 21
1024.764998057523
 31
0.0
  0
LINE
  5
2CD
330
22
100
AcDbEntity
  8
_2-7_ビス
  6
Continuous
 62
     7
100
AcDbLine
 10
893.5047385369669
 20
1024.435173496323
 30
0.0
 11
893.5047383904278
 21
1018.484731903503
 31
0.0
  0
LINE
  5
2CE
330
22
100
AcDbEntity
  8
_2-7_ビス
  6
Continuous
 62
     7
100
AcDbLine
 10
893.5047383904278
 20
1018.484731903503
 30
0.0
 11
893.0643010369667
 21
1017.833311079344
 31
0.0
  0
LINE
  5
2CF
330
22
100
AcDbEntity
  8
_2-7_ビス
  6
Continuous
 62
     7
100
AcDbLine
 10
893.0643010369667
 20
1017.833311079344
 30
0.0
 11
892.0614805369664
 21
1016.519384027523
 31
0.0
  0
LINE
  5
2D0
330
22
100
AcDbEntity
  8
_2-7_ビス
  6
Continuous
 62
     7
100
AcDbLine
 10
892.0614805369664
 20
1016.519384027523
 30
0.0
 11
891.9121020574719
 21
1016.519384027523
 31
0.0
  0
LINE
  5
2D1
330
22
100
AcDbEntity
  8
_2-7_ビス
  6
Continuous
 62
     7
100
AcDbLine
 10
891.9121020574719
 20
1016.519384027523
 30
0.0
 11
892.9971961667861
 21
1018.484731903503
 31
0.0
  0
LINE
  5
2D2
330
22
100
AcDbEntity
  8
_2-7_ビス
  6
Continuous
 62
     7
100
AcDbLine
 10
892.9971961667861
 20
1018.484731903503
 30
0.0
 11
892.997196286967
 21
1022.456226129123
 31
0.0
  0
LINE
  5
2D3
330
22
100
AcDbEntity
  8
_2-7_ビス
  6
Continuous
 62
     7
100
AcDbLine
 10
892.413832786967
 20
1022.456226129123
 30
0.0
 11
892.4138330603987
 21
1018.484732056202
 31
0.0
  0
LINE
  5
2D4
330
22
100
AcDbEntity
  8
_2-7_ビス
  6
Continuous
 62
     7
100
AcDbLine
 10
892.4138330603987
 20
1018.484732056202
 30
0.0
 11
891.3287386951662
 21
1016.519384027523
 31
0.0
  0
LINE
  5
2D5
330
22
100
AcDbEntity
  8
_2-7_ビス
  6
Continuous
 62
     7
100
AcDbLine
 10
891.3287386951662
 20
1016.519384027523
 30
0.0
 11
890.7114805369666
 21
1016.519384027523
 31
0.0
  0
LINE
  5
2D6
330
22
100
AcDbEntity
  8
_2-7_ビス
  6
Continuous
 62
     7
100
AcDbLine
 10
893.2891806420498
 20
1049.357327279589
 30
0.0
 11
893.2891806420498
 21
1049.357327279589
 31
0.0
  0
LINE
  5
2D7
330
22
100
AcDbEntity
  8
_2-7_ビス
  6
Continuous
 62
     7
100
AcDbLine
 10
893.2891806420498
 20
1049.357327279589
 30
0.0
 11
893.2759825166947
 21
1049.331067924212
 31
0.0
  0
LINE
  5
2D8
330
22
100
AcDbEntity
  8
_2-7_ビス
  6
Continuous
 62
     7
100
AcDbLine
 10
893.2759825166947
 20
1049.331067924212
 30
0.0
 11
893.2671324593234
 21
1049.302687834243
 31
0.0
  0
LINE
  5
2D9
330
22
100
AcDbEntity
  8
_2-7_ビス
  6
Continuous
 62
     7
100
AcDbLine
 10
893.2671324593234
 20
1049.302687834243
 30
0.0
 11
893.2628993744501
 21
1049.273049324355
 31
0.0
  0
LINE
  5
2DA
330
22
100
AcDbEntity
  8
_2-7_ビス
  6
Continuous
 62
     7
100
AcDbLine
 10
893.2628993744501
 20
1049.273049324355
 30
0.0
 11
893.2634118822177
 21
1049.243052945672
 31
0.0
  0
LINE
  5
2DB
330
22
100
AcDbEntity
  8
_2-7_ビス
  6
Continuous
 62
     7
100
AcDbLine
 10
893.2634118822177
 20
1049.243052945672
 30
0.0
 11
893.2686544103356
 21
1049.213610122982
 31
0.0
  0
LINE
  5
2DC
330
22
100
AcDbEntity
  8
_2-7_ビス
  6
Continuous
 62
     7
100
AcDbLine
 10
893.2686544103356
 20
1049.213610122982
 30
0.0
 11
893.278467667241
 21
1049.185615461554
 31
0.0
  0
LINE
  5
2DD
330
22
100
AcDbEntity
  8
_2-7_ビス
  6
Continuous
 62
     7
100
AcDbLine
 10
893.278467667241
 20
1049.185615461554
 30
0.0
 11
893.2925534820876
 21
1049.159919565008
 31
0.0
  0
LINE
  5
2DE
330
22
100
AcDbEntity
  8
_2-7_ビス
  6
Continuous
 62
     7
100
AcDbLine
 10
893.2925534820876
 20
1049.159919565008
 30
0.0
 11
893.3104838645199
 21
1049.13730319016
 31
0.0
  0
LINE
  5
2DF
330
22
100
AcDbEntity
  8
_2-7_ビス
  6
Continuous
 62
     7
100
AcDbLine
 10
893.3104838645199
 20
1049.13730319016
 30
0.0
 11
893.3317140089405
 21
1049.118453524114
 31
0.0
  0
LINE
  5
2E0
330
22
100
AcDbEntity
  8
_2-7_ビス
  6
Continuous
 62
     7
100
AcDbLine
 10
893.3317140089405
 20
1049.118453524114
 30
0.0
 11
893.3555988481542
 21
1049.103943304434
 31
0.0
  0
LINE
  5
2E1
330
22
100
AcDbEntity
  8
_2-7_ビス
  6
Continuous
 62
     7
100
AcDbLine
 10
893.3555988481542
 20
1049.103943304434
 30
0.0
 11
893.381412653408
 21
1049.094213416804
 31
0.0
  0
LINE
  5
2E2
330
22
100
AcDbEntity
  8
_2-7_ビス
  6
Continuous
 62
     7
100
AcDbLine
 10
893.381412653408
 20
1049.094213416804
 30
0.0
 11
893.408371085291
 21
1049.089559498934
 31
0.0
  0
LINE
  5
2E3
330
22
100
AcDbEntity
  8
_2-7_ビス
  6
Continuous
 62
     7
100
AcDbLine
 10
893.408371085291
 20
1049.089559498934
 30
0.0
 11
893.4083717869665
 21
1049.089559446023
 31
0.0
  0
LINE
  5
2E4
330
22
100
AcDbEntity
  8
_2-7_ビス
  6
Continuous
 62
     7
100
AcDbLine
 10
893.3400172872451
 20
1047.770261201223
 30
0.0
 11
893.3400172872451
 21
1047.770261201223
 31
0.0
  0
LINE
  5
2E5
330
22
100
AcDbEntity
  8
_2-7_ビス
  6
Continuous
 62
     7
100
AcDbLine
 10
893.3400172872451
 20
1047.770261201223
 30
0.0
 11
893.3393461816582
 21
1047.730303047235
 31
0.0
  0
LINE
  5
2E6
330
22
100
AcDbEntity
  8
_2-7_ビス
  6
Continuous
 62
     7
100
AcDbLine
 10
893.3393461816582
 20
1047.730303047235
 30
0.0
 11
893.3449965002223
 21
1047.690823825652
 31
0.0
  0
LINE
  5
2E7
330
22
100
AcDbEntity
  8
_2-7_ビス
  6
Continuous
 62
     7
100
AcDbLine
 10
893.3449965002223
 20
1047.690823825652
 30
0.0
 11
893.356796560867
 21
1047.653023092647
 31
0.0
  0
LINE
  5
2E8
330
22
100
AcDbEntity
  8
_2-7_ビス
  6
Continuous
 62
     7
100
AcDbLine
 10
893.356796560867
 20
1047.653023092647
 30
0.0
 11
893.3743878247211
 21
1047.618049404361
 31
0.0
  0
LINE
  5
2E9
330
22
100
AcDbEntity
  8
_2-7_ビス
  6
Continuous
 62
     7
100
AcDbLine
 10
893.3743878247211
 20
1047.618049404361
 30
0.0
 11
893.3972357901335
 21
1047.586965418618
 31
0.0
  0
LINE
  5
2EA
330
22
100
AcDbEntity
  8
_2-7_ビス
  6
Continuous
 62
     7
100
AcDbLine
 10
893.3972357901335
 20
1047.586965418618
 30
0.0
 11
893.4246462332371
 21
1047.560715606594
 31
0.0
  0
LINE
  5
2EB
330
22
100
AcDbEntity
  8
_2-7_ビス
  6
Continuous
 62
     7
100
AcDbLine
 10
893.4246462332371
 20
1047.560715606594
 30
0.0
 11
893.4557863015886
 21
1047.540097555544
 31
0.0
  0
LINE
  5
2EC
330
22
100
AcDbEntity
  8
_2-7_ビス
  6
Continuous
 62
     7
100
AcDbLine
 10
893.4557863015886
 20
1047.540097555544
 30
0.0
 11
893.4897098199686
 21
1047.525737734517
 31
0.0
  0
LINE
  5
2ED
330
22
100
AcDbEntity
  8
_2-7_ビス
  6
Continuous
 62
     7
100
AcDbLine
 10
893.4897098199686
 20
1047.525737734517
 30
0.0
 11
893.499607036966
 21
1047.522892780323
 31
0.0
  0
LINE
  5
2EE
330
22
100
AcDbEntity
  8
_2-7_ビス
  6
Continuous
 62
     7
100
AcDbLine
 10
893.3400172872451
 20
1046.203594535523
 30
0.0
 11
893.3400172872451
 21
1046.203594535523
 31
0.0
  0
LINE
  5
2EF
330
22
100
AcDbEntity
  8
_2-7_ビス
  6
Continuous
 62
     7
100
AcDbLine
 10
893.3400172872451
 20
1046.203594535523
 30
0.0
 11
893.3393461816582
 21
1046.163636381534
 31
0.0
  0
LINE
  5
2F0
330
22
100
AcDbEntity
  8
_2-7_ビス
  6
Continuous
 62
     7
100
AcDbLine
 10
893.3393461816582
 20
1046.163636381534
 30
0.0
 11
893.3449965002223
 21
1046.124157159953
 31
0.0
  0
LINE
  5
2F1
330
22
100
AcDbEntity
  8
_2-7_ビス
  6
Continuous
 62
     7
100
AcDbLine
 10
893.3449965002223
 20
1046.124157159953
 30
0.0
 11
893.356796560867
 21
1046.086356426946
 31
0.0
  0
LINE
  5
2F2
330
22
100
AcDbEntity
  8
_2-7_ビス
  6
Continuous
 62
     7
100
AcDbLine
 10
893.356796560867
 20
1046.086356426946
 30
0.0
 11
893.3743878247211
 21
1046.051382738661
 31
0.0
  0
LINE
  5
2F3
330
22
100
AcDbEntity
  8
_2-7_ビス
  6
Continuous
 62
     7
100
AcDbLine
 10
893.3743878247211
 20
1046.051382738661
 30
0.0
 11
893.3972357901335
 21
1046.020298752918
 31
0.0
  0
LINE
  5
2F4
330
22
100
AcDbEntity
  8
_2-7_ビス
  6
Continuous
 62
     7
100
AcDbLine
 10
893.3972357901335
 20
1046.020298752918
 30
0.0
 11
893.4246462332371
 21
1045.994048940893
 31
0.0
  0
LINE
  5
2F5
330
22
100
AcDbEntity
  8
_2-7_ビス
  6
Continuous
 62
     7
100
AcDbLine
 10
893.4246462332371
 20
1045.994048940893
 30
0.0
 11
893.4557863015886
 21
1045.973430889844
 31
0.0
  0
LINE
  5
2F6
330
22
100
AcDbEntity
  8
_2-7_ビス
  6
Continuous
 62
     7
100
AcDbLine
 10
893.4557863015886
 20
1045.973430889844
 30
0.0
 11
893.4897098199686
 21
1045.959071068816
 31
0.0
  0
LINE
  5
2F7
330
22
100
AcDbEntity
  8
_2-7_ビス
  6
Continuous
 62
     7
100
AcDbLine
 10
893.4897098199686
 20
1045.959071068816
 30
0.0
 11
893.499607036966
 21
1045.956226114623
 31
0.0
  0
LINE
  5
2F8
330
22
100
AcDbEntity
  8
_2-7_ビス
  6
Continuous
 62
     7
100
AcDbLine
 10
893.3970041466468
 20
1044.636927869823
 30
0.0
 11
893.3970041466468
 21
1044.636927869823
 31
0.0
  0
LINE
  5
2F9
330
22
100
AcDbEntity
  8
_2-7_ビス
  6
Continuous
 62
     7
100
AcDbLine
 10
893.3970041466468
 20
1044.636927869823
 30
0.0
 11
893.3963330410596
 21
1044.596969715834
 31
0.0
  0
LINE
  5
2FA
330
22
100
AcDbEntity
  8
_2-7_ビス
  6
Continuous
 62
     7
100
AcDbLine
 10
893.3963330410596
 20
1044.596969715834
 30
0.0
 11
893.4019833596238
 21
1044.557490494252
 31
0.0
  0
LINE
  5
2FB
330
22
100
AcDbEntity
  8
_2-7_ビス
  6
Continuous
 62
     7
100
AcDbLine
 10
893.4019833596238
 20
1044.557490494252
 30
0.0
 11
893.4137834202685
 21
1044.519689761246
 31
0.0
  0
LINE
  5
2FC
330
22
100
AcDbEntity
  8
_2-7_ビス
  6
Continuous
 62
     7
100
AcDbLine
 10
893.4137834202685
 20
1044.519689761246
 30
0.0
 11
893.4313746841224
 21
1044.484716072961
 31
0.0
  0
LINE
  5
2FD
330
22
100
AcDbEntity
  8
_2-7_ビス
  6
Continuous
 62
     7
100
AcDbLine
 10
893.4313746841224
 20
1044.484716072961
 30
0.0
 11
893.454222649535
 21
1044.453632087217
 31
0.0
  0
LINE
  5
2FE
330
22
100
AcDbEntity
  8
_2-7_ビス
  6
Continuous
 62
     7
100
AcDbLine
 10
893.454222649535
 20
1044.453632087217
 30
0.0
 11
893.4816330926388
 21
1044.427382275193
 31
0.0
  0
LINE
  5
2FF
330
22
100
AcDbEntity
  8
_2-7_ビス
  6
Continuous
 62
     7
100
AcDbLine
 10
893.4816330926388
 20
1044.427382275193
 30
0.0
 11
893.5127731609902
 21
1044.406764224143
 31
0.0
  0
LINE
  5
300
330
22
100
AcDbEntity
  8
_2-7_ビス
  6
Continuous
 62
     7
100
AcDbLine
 10
893.5127731609902
 20
1044.406764224143
 30
0.0
 11
893.5466966793702
 21
1044.392404403116
 31
0.0
  0
LINE
  5
301
330
22
100
AcDbEntity
  8
_2-7_ビス
  6
Continuous
 62
     7
100
AcDbLine
 10
893.5466966793702
 20
1044.392404403116
 30
0.0
 11
893.5565938963675
 21
1044.389559448922
 31
0.0
  0
LINE
  5
302
330
22
100
AcDbEntity
  8
_2-7_ビス
  6
Continuous
 62
     7
100
AcDbLine
 10
893.3400172872451
 20
1041.503594538423
 30
0.0
 11
893.3400172872451
 21
1041.503594538423
 31
0.0
  0
LINE
  5
303
330
22
100
AcDbEntity
  8
_2-7_ビス
  6
Continuous
 62
     7
100
AcDbLine
 10
893.3400172872451
 20
1041.503594538423
 30
0.0
 11
893.3393461816582
 21
1041.463636384434
 31
0.0
  0
LINE
  5
304
330
22
100
AcDbEntity
  8
_2-7_ビス
  6
Continuous
 62
     7
100
AcDbLine
 10
893.3393461816582
 20
1041.463636384434
 30
0.0
 11
893.3449965002223
 21
1041.424157162852
 31
0.0
  0
LINE
  5
305
330
22
100
AcDbEntity
  8
_2-7_ビス
  6
Continuous
 62
     7
100
AcDbLine
 10
893.3449965002223
 20
1041.424157162852
 30
0.0
 11
893.356796560867
 21
1041.386356429846
 31
0.0
  0
LINE
  5
306
330
22
100
AcDbEntity
  8
_2-7_ビス
  6
Continuous
 62
     7
100
AcDbLine
 10
893.356796560867
 20
1041.386356429846
 30
0.0
 11
893.3743878247211
 21
1041.351382741561
 31
0.0
  0
LINE
  5
307
330
22
100
AcDbEntity
  8
_2-7_ビス
  6
Continuous
 62
     7
100
AcDbLine
 10
893.3743878247211
 20
1041.351382741561
 30
0.0
 11
893.3972357901335
 21
1041.320298755817
 31
0.0
  0
LINE
  5
308
330
22
100
AcDbEntity
  8
_2-7_ビス
  6
Continuous
 62
     7
100
AcDbLine
 10
893.3972357901335
 20
1041.320298755817
 30
0.0
 11
893.4246462332371
 21
1041.294048943793
 31
0.0
  0
LINE
  5
309
330
22
100
AcDbEntity
  8
_2-7_ビス
  6
Continuous
 62
     7
100
AcDbLine
 10
893.4246462332371
 20
1041.294048943793
 30
0.0
 11
893.4557863015886
 21
1041.273430892744
 31
0.0
  0
LINE
  5
30A
330
22
100
AcDbEntity
  8
_2-7_ビス
  6
Continuous
 62
     7
100
AcDbLine
 10
893.4557863015886
 20
1041.273430892744
 30
0.0
 11
893.4897098199686
 21
1041.259071071716
 31
0.0
  0
LINE
  5
30B
330
22
100
AcDbEntity
  8
_2-7_ビス
  6
Continuous
 62
     7
100
AcDbLine
 10
893.4897098199686
 20
1041.259071071716
 30
0.0
 11
893.499607036966
 21
1041.256226117523
 31
0.0
  0
LINE
  5
30C
330
22
100
AcDbEntity
  8
_2-7_ビス
  6
Continuous
 62
     7
100
AcDbLine
 10
893.3400172872451
 20
1039.936927872723
 30
0.0
 11
893.3400172872451
 21
1039.936927872723
 31
0.0
  0
LINE
  5
30D
330
22
100
AcDbEntity
  8
_2-7_ビス
  6
Continuous
 62
     7
100
AcDbLine
 10
893.3400172872451
 20
1039.936927872723
 30
0.0
 11
893.3393461816582
 21
1039.896969718735
 31
0.0
  0
LINE
  5
30E
330
22
100
AcDbEntity
  8
_2-7_ビス
  6
Continuous
 62
     7
100
AcDbLine
 10
893.3393461816582
 20
1039.896969718735
 30
0.0
 11
893.3449965002223
 21
1039.857490497152
 31
0.0
  0
LINE
  5
30F
330
22
100
AcDbEntity
  8
_2-7_ビス
  6
Continuous
 62
     7
100
AcDbLine
 10
893.3449965002223
 20
1039.857490497152
 30
0.0
 11
893.356796560867
 21
1039.819689764146
 31
0.0
  0
LINE
  5
310
330
22
100
AcDbEntity
  8
_2-7_ビス
  6
Continuous
 62
     7
100
AcDbLine
 10
893.356796560867
 20
1039.819689764146
 30
0.0
 11
893.3743878247211
 21
1039.784716075861
 31
0.0
  0
LINE
  5
311
330
22
100
AcDbEntity
  8
_2-7_ビス
  6
Continuous
 62
     7
100
AcDbLine
 10
893.3743878247211
 20
1039.784716075861
 30
0.0
 11
893.3972357901335
 21
1039.753632090118
 31
0.0
  0
LINE
  5
312
330
22
100
AcDbEntity
  8
_2-7_ビス
  6
Continuous
 62
     7
100
AcDbLine
 10
893.3972357901335
 20
1039.753632090118
 30
0.0
 11
893.4246462332371
 21
1039.727382278093
 31
0.0
  0
LINE
  5
313
330
22
100
AcDbEntity
  8
_2-7_ビス
  6
Continuous
 62
     7
100
AcDbLine
 10
893.4246462332371
 20
1039.727382278093
 30
0.0
 11
893.4557863015886
 21
1039.706764227044
 31
0.0
  0
LINE
  5
314
330
22
100
AcDbEntity
  8
_2-7_ビス
  6
Continuous
 62
     7
100
AcDbLine
 10
893.4557863015886
 20
1039.706764227044
 30
0.0
 11
893.4897098199686
 21
1039.692404406016
 31
0.0
  0
LINE
  5
315
330
22
100
AcDbEntity
  8
_2-7_ビス
  6
Continuous
 62
     7
100
AcDbLine
 10
893.4897098199686
 20
1039.692404406016
 30
0.0
 11
893.499607036966
 21
1039.689559451823
 31
0.0
  0
LINE
  5
316
330
22
100
AcDbEntity
  8
_2-7_ビス
  6
Continuous
 62
     7
100
AcDbLine
 10
893.3400172872451
 20
1038.370261207022
 30
0.0
 11
893.3400172872451
 21
1038.370261207022
 31
0.0
  0
LINE
  5
317
330
22
100
AcDbEntity
  8
_2-7_ビス
  6
Continuous
 62
     7
100
AcDbLine
 10
893.3400172872451
 20
1038.370261207022
 30
0.0
 11
893.3393461816582
 21
1038.330303053034
 31
0.0
  0
LINE
  5
318
330
22
100
AcDbEntity
  8
_2-7_ビス
  6
Continuous
 62
     7
100
AcDbLine
 10
893.3393461816582
 20
1038.330303053034
 30
0.0
 11
893.3449965002223
 21
1038.290823831452
 31
0.0
  0
LINE
  5
319
330
22
100
AcDbEntity
  8
_2-7_ビス
  6
Continuous
 62
     7
100
AcDbLine
 10
893.3449965002223
 20
1038.290823831452
 30
0.0
 11
893.356796560867
 21
1038.253023098446
 31
0.0
  0
LINE
  5
31A
330
22
100
AcDbEntity
  8
_2-7_ビス
  6
Continuous
 62
     7
100
AcDbLine
 10
893.356796560867
 20
1038.253023098446
 30
0.0
 11
893.3743878247211
 21
1038.218049410161
 31
0.0
  0
LINE
  5
31B
330
22
100
AcDbEntity
  8
_2-7_ビス
  6
Continuous
 62
     7
100
AcDbLine
 10
893.3743878247211
 20
1038.218049410161
 30
0.0
 11
893.3972357901335
 21
1038.186965424418
 31
0.0
  0
LINE
  5
31C
330
22
100
AcDbEntity
  8
_2-7_ビス
  6
Continuous
 62
     7
100
AcDbLine
 10
893.3972357901335
 20
1038.186965424418
 30
0.0
 11
893.4246462332371
 21
1038.160715612393
 31
0.0
  0
LINE
  5
31D
330
22
100
AcDbEntity
  8
_2-7_ビス
  6
Continuous
 62
     7
100
AcDbLine
 10
893.4246462332371
 20
1038.160715612393
 30
0.0
 11
893.4557863015886
 21
1038.140097561344
 31
0.0
  0
LINE
  5
31E
330
22
100
AcDbEntity
  8
_2-7_ビス
  6
Continuous
 62
     7
100
AcDbLine
 10
893.4557863015886
 20
1038.140097561344
 30
0.0
 11
893.4897098199686
 21
1038.125737740316
 31
0.0
  0
LINE
  5
31F
330
22
100
AcDbEntity
  8
_2-7_ビス
  6
Continuous
 62
     7
100
AcDbLine
 10
893.4897098199686
 20
1038.125737740316
 30
0.0
 11
893.499607036966
 21
1038.122892786123
 31
0.0
  0
LINE
  5
320
330
22
100
AcDbEntity
  8
_2-7_ビス
  6
Continuous
 62
     7
100
AcDbLine
 10
893.3972968588195
 20
1036.803594541323
 30
0.0
 11
893.3972968588195
 21
1036.803594541323
 31
0.0
  0
LINE
  5
321
330
22
100
AcDbEntity
  8
_2-7_ビス
  6
Continuous
 62
     7
100
AcDbLine
 10
893.3972968588195
 20
1036.803594541323
 30
0.0
 11
893.3966257532324
 21
1036.763636387334
 31
0.0
  0
LINE
  5
322
330
22
100
AcDbEntity
  8
_2-7_ビス
  6
Continuous
 62
     7
100
AcDbLine
 10
893.3966257532324
 20
1036.763636387334
 30
0.0
 11
893.4022760717965
 21
1036.724157165752
 31
0.0
  0
LINE
  5
323
330
22
100
AcDbEntity
  8
_2-7_ビス
  6
Continuous
 62
     7
100
AcDbLine
 10
893.4022760717965
 20
1036.724157165752
 30
0.0
 11
893.4140761324412
 21
1036.686356432746
 31
0.0
  0
LINE
  5
324
330
22
100
AcDbEntity
  8
_2-7_ビス
  6
Continuous
 62
     7
100
AcDbLine
 10
893.4140761324412
 20
1036.686356432746
 30
0.0
 11
893.4316673962953
 21
1036.651382744461
 31
0.0
  0
LINE
  5
325
330
22
100
AcDbEntity
  8
_2-7_ビス
  6
Continuous
 62
     7
100
AcDbLine
 10
893.4316673962953
 20
1036.651382744461
 30
0.0
 11
893.4545153617076
 21
1036.620298758718
 31
0.0
  0
LINE
  5
326
330
22
100
AcDbEntity
  8
_2-7_ビス
  6
Continuous
 62
     7
100
AcDbLine
 10
893.4545153617076
 20
1036.620298758718
 30
0.0
 11
893.4819258048115
 21
1036.594048946693
 31
0.0
  0
LINE
  5
327
330
22
100
AcDbEntity
  8
_2-7_ビス
  6
Continuous
 62
     7
100
AcDbLine
 10
893.4819258048115
 20
1036.594048946693
 30
0.0
 11
893.513065873163
 21
1036.573430895644
 31
0.0
  0
LINE
  5
328
330
22
100
AcDbEntity
  8
_2-7_ビス
  6
Continuous
 62
     7
100
AcDbLine
 10
893.513065873163
 20
1036.573430895644
 30
0.0
 11
893.5469893915433
 21
1036.559071074616
 31
0.0
  0
LINE
  5
329
330
22
100
AcDbEntity
  8
_2-7_ビス
  6
Continuous
 62
     7
100
AcDbLine
 10
893.5469893915433
 20
1036.559071074616
 30
0.0
 11
893.5568866085402
 21
1036.556226120423
 31
0.0
  0
LINE
  5
32A
330
22
100
AcDbEntity
  8
_2-7_ビス
  6
Continuous
 62
     7
100
AcDbLine
 10
893.3400172872451
 20
1033.670261209923
 30
0.0
 11
893.3400172872451
 21
1033.670261209923
 31
0.0
  0
LINE
  5
32B
330
22
100
AcDbEntity
  8
_2-7_ビス
  6
Continuous
 62
     7
100
AcDbLine
 10
893.3400172872451
 20
1033.670261209923
 30
0.0
 11
893.3393461816582
 21
1033.630303055934
 31
0.0
  0
LINE
  5
32C
330
22
100
AcDbEntity
  8
_2-7_ビス
  6
Continuous
 62
     7
100
AcDbLine
 10
893.3393461816582
 20
1033.630303055934
 30
0.0
 11
893.3449965002223
 21
1033.590823834352
 31
0.0
  0
LINE
  5
32D
330
22
100
AcDbEntity
  8
_2-7_ビス
  6
Continuous
 62
     7
100
AcDbLine
 10
893.3449965002223
 20
1033.590823834352
 30
0.0
 11
893.356796560867
 21
1033.553023101346
 31
0.0
  0
LINE
  5
32E
330
22
100
AcDbEntity
  8
_2-7_ビス
  6
Continuous
 62
     7
100
AcDbLine
 10
893.356796560867
 20
1033.553023101346
 30
0.0
 11
893.3743878247211
 21
1033.518049413061
 31
0.0
  0
LINE
  5
32F
330
22
100
AcDbEntity
  8
_2-7_ビス
  6
Continuous
 62
     7
100
AcDbLine
 10
893.3743878247211
 20
1033.518049413061
 30
0.0
 11
893.3972357901335
 21
1033.486965427317
 31
0.0
  0
LINE
  5
330
330
22
100
AcDbEntity
  8
_2-7_ビス
  6
Continuous
 62
     7
100
AcDbLine
 10
893.3972357901335
 20
1033.486965427317
 30
0.0
 11
893.4246462332371
 21
1033.460715615293
 31
0.0
  0
LINE
  5
331
330
22
100
AcDbEntity
  8
_2-7_ビス
  6
Continuous
 62
     7
100
AcDbLine
 10
893.4246462332371
 20
1033.460715615293
 30
0.0
 11
893.4557863015886
 21
1033.440097564243
 31
0.0
  0
LINE
  5
332
330
22
100
AcDbEntity
  8
_2-7_ビス
  6
Continuous
 62
     7
100
AcDbLine
 10
893.4557863015886
 20
1033.440097564243
 30
0.0
 11
893.4897098199686
 21
1033.425737743216
 31
0.0
  0
LINE
  5
333
330
22
100
AcDbEntity
  8
_2-7_ビス
  6
Continuous
 62
     7
100
AcDbLine
 10
893.4897098199686
 20
1033.425737743216
 30
0.0
 11
893.499607036966
 21
1033.422892789022
 31
0.0
  0
LINE
  5
334
330
22
100
AcDbEntity
  8
_2-7_ビス
  6
Continuous
 62
     7
100
AcDbLine
 10
893.3722973383398
 20
1032.103594544222
 30
0.0
 11
893.3722973383398
 21
1032.103594544222
 31
0.0
  0
LINE
  5
335
330
22
100
AcDbEntity
  8
_2-7_ビス
  6
Continuous
 62
     7
100
AcDbLine
 10
893.3722973383398
 20
1032.103594544222
 30
0.0
 11
893.3716262327527
 21
1032.063636390234
 31
0.0
  0
LINE
  5
336
330
22
100
AcDbEntity
  8
_2-7_ビス
  6
Continuous
 62
     7
100
AcDbLine
 10
893.3716262327527
 20
1032.063636390234
 30
0.0
 11
893.3772765513166
 21
1032.024157168652
 31
0.0
  0
LINE
  5
337
330
22
100
AcDbEntity
  8
_2-7_ビス
  6
Continuous
 62
     7
100
AcDbLine
 10
893.3772765513166
 20
1032.024157168652
 30
0.0
 11
893.3890766119615
 21
1031.986356435646
 31
0.0
  0
LINE
  5
338
330
22
100
AcDbEntity
  8
_2-7_ビス
  6
Continuous
 62
     7
100
AcDbLine
 10
893.3890766119615
 20
1031.986356435646
 30
0.0
 11
893.4066678758155
 21
1031.95138274736
 31
0.0
  0
LINE
  5
339
330
22
100
AcDbEntity
  8
_2-7_ビス
  6
Continuous
 62
     7
100
AcDbLine
 10
893.4066678758155
 20
1031.95138274736
 30
0.0
 11
893.4295158412281
 21
1031.920298761618
 31
0.0
  0
LINE
  5
33A
330
22
100
AcDbEntity
  8
_2-7_ビス
  6
Continuous
 62
     7
100
AcDbLine
 10
893.4295158412281
 20
1031.920298761618
 30
0.0
 11
893.4569262843318
 21
1031.894048949593
 31
0.0
  0
LINE
  5
33B
330
22
100
AcDbEntity
  8
_2-7_ビス
  6
Continuous
 62
     7
100
AcDbLine
 10
893.4569262843318
 20
1031.894048949593
 30
0.0
 11
893.4880663526834
 21
1031.873430898543
 31
0.0
  0
LINE
  5
33C
330
22
100
AcDbEntity
  8
_2-7_ビス
  6
Continuous
 62
     7
100
AcDbLine
 10
893.4880663526834
 20
1031.873430898543
 30
0.0
 11
893.5219898710634
 21
1031.859071077516
 31
0.0
  0
LINE
  5
33D
330
22
100
AcDbEntity
  8
_2-7_ビス
  6
Continuous
 62
     7
100
AcDbLine
 10
893.5219898710634
 20
1031.859071077516
 30
0.0
 11
893.5318870880605
 21
1031.856226123322
 31
0.0
  0
LINE
  5
33E
330
22
100
AcDbEntity
  8
_2-7_ビス
  6
Continuous
 62
     7
100
AcDbLine
 10
893.404400291148
 20
1030.536927878523
 30
0.0
 11
893.404400291148
 21
1030.536927878523
 31
0.0
  0
LINE
  5
33F
330
22
100
AcDbEntity
  8
_2-7_ビス
  6
Continuous
 62
     7
100
AcDbLine
 10
893.404400291148
 20
1030.536927878523
 30
0.0
 11
893.4037291855609
 21
1030.496969724534
 31
0.0
  0
LINE
  5
340
330
22
100
AcDbEntity
  8
_2-7_ビス
  6
Continuous
 62
     7
100
AcDbLine
 10
893.4037291855609
 20
1030.496969724534
 30
0.0
 11
893.4093795041249
 21
1030.457490502952
 31
0.0
  0
LINE
  5
341
330
22
100
AcDbEntity
  8
_2-7_ビス
  6
Continuous
 62
     7
100
AcDbLine
 10
893.4093795041249
 20
1030.457490502952
 30
0.0
 11
893.4211795647698
 21
1030.419689769946
 31
0.0
  0
LINE
  5
342
330
22
100
AcDbEntity
  8
_2-7_ビス
  6
Continuous
 62
     7
100
AcDbLine
 10
893.4211795647698
 20
1030.419689769946
 30
0.0
 11
893.4387708286239
 21
1030.384716081661
 31
0.0
  0
LINE
  5
343
330
22
100
AcDbEntity
  8
_2-7_ビス
  6
Continuous
 62
     7
100
AcDbLine
 10
893.4387708286239
 20
1030.384716081661
 30
0.0
 11
893.4616187940365
 21
1030.353632095917
 31
0.0
  0
LINE
  5
344
330
22
100
AcDbEntity
  8
_2-7_ビス
  6
Continuous
 62
     7
100
AcDbLine
 10
893.4616187940365
 20
1030.353632095917
 30
0.0
 11
893.4890292371402
 21
1030.327382283893
 31
0.0
  0
LINE
  5
345
330
22
100
AcDbEntity
  8
_2-7_ビス
  6
Continuous
 62
     7
100
AcDbLine
 10
893.4890292371402
 20
1030.327382283893
 30
0.0
 11
893.5201693054914
 21
1030.306764232843
 31
0.0
  0
LINE
  5
346
330
22
100
AcDbEntity
  8
_2-7_ビス
  6
Continuous
 62
     7
100
AcDbLine
 10
893.5201693054914
 20
1030.306764232843
 30
0.0
 11
893.5540928238717
 21
1030.292404411816
 31
0.0
  0
LINE
  5
347
330
22
100
AcDbEntity
  8
_2-7_ビス
  6
Continuous
 62
     7
100
AcDbLine
 10
893.5540928238717
 20
1030.292404411816
 30
0.0
 11
893.5639900408689
 21
1030.289559457623
 31
0.0
  0
LINE
  5
348
330
22
100
AcDbEntity
  8
_2-7_ビス
  6
Continuous
 62
     7
100
AcDbLine
 10
893.4267152221778
 20
1028.970261212824
 30
0.0
 11
893.4267152221778
 21
1028.970261212824
 31
0.0
  0
LINE
  5
349
330
22
100
AcDbEntity
  8
_2-7_ビス
  6
Continuous
 62
     7
100
AcDbLine
 10
893.4267152221778
 20
1028.970261212824
 30
0.0
 11
893.4260441165905
 21
1028.930303058835
 31
0.0
  0
LINE
  5
34A
330
22
100
AcDbEntity
  8
_2-7_ビス
  6
Continuous
 62
     7
100
AcDbLine
 10
893.4260441165905
 20
1028.930303058835
 30
0.0
 11
893.4316944351548
 21
1028.890823837253
 31
0.0
  0
LINE
  5
34B
330
22
100
AcDbEntity
  8
_2-7_ビス
  6
Continuous
 62
     7
100
AcDbLine
 10
893.4316944351548
 20
1028.890823837253
 30
0.0
 11
893.4434944957995
 21
1028.853023104247
 31
0.0
  0
LINE
  5
34C
330
22
100
AcDbEntity
  8
_2-7_ビス
  6
Continuous
 62
     7
100
AcDbLine
 10
893.4434944957995
 20
1028.853023104247
 30
0.0
 11
893.4610857596535
 21
1028.818049415962
 31
0.0
  0
LINE
  5
34D
330
22
100
AcDbEntity
  8
_2-7_ビス
  6
Continuous
 62
     7
100
AcDbLine
 10
893.4610857596535
 20
1028.818049415962
 30
0.0
 11
893.4839337250659
 21
1028.786965430219
 31
0.0
  0
LINE
  5
34E
330
22
100
AcDbEntity
  8
_2-7_ビス
  6
Continuous
 62
     7
100
AcDbLine
 10
893.4839337250659
 20
1028.786965430219
 30
0.0
 11
893.5113441681698
 21
1028.760715618194
 31
0.0
  0
LINE
  5
34F
330
22
100
AcDbEntity
  8
_2-7_ビス
  6
Continuous
 62
     7
100
AcDbLine
 10
893.5113441681698
 20
1028.760715618194
 30
0.0
 11
893.5424842365213
 21
1028.740097567144
 31
0.0
  0
LINE
  5
350
330
22
100
AcDbEntity
  8
_2-7_ビス
  6
Continuous
 62
     7
100
AcDbLine
 10
893.5424842365213
 20
1028.740097567144
 30
0.0
 11
893.5764077549013
 21
1028.725737746117
 31
0.0
  0
LINE
  5
351
330
22
100
AcDbEntity
  8
_2-7_ビス
  6
Continuous
 62
     7
100
AcDbLine
 10
893.5764077549013
 20
1028.725737746117
 30
0.0
 11
893.5863049718983
 21
1028.722892791924
 31
0.0
  0
LINE
  5
352
330
22
100
AcDbEntity
  8
_2-7_ビス
  6
Continuous
 62
     7
100
AcDbLine
 10
893.4602178011123
 20
1027.428322868093
 30
0.0
 11
893.4602178011123
 21
1027.428322868093
 31
0.0
  0
LINE
  5
353
330
22
100
AcDbEntity
  8
_2-7_ビス
  6
Continuous
 62
     7
100
AcDbLine
 10
893.4602178011123
 20
1027.428322868093
 30
0.0
 11
893.4465556493622
 21
1027.402034866116
 31
0.0
  0
LINE
  5
354
330
22
100
AcDbEntity
  8
_2-7_ビス
  6
Continuous
 62
     7
100
AcDbLine
 10
893.4465556493622
 20
1027.402034866116
 30
0.0
 11
893.4372531398137
 21
1027.373537976802
 31
0.0
  0
LINE
  5
355
330
22
100
AcDbEntity
  8
_2-7_ビス
  6
Continuous
 62
     7
100
AcDbLine
 10
893.4372531398137
 20
1027.373537976802
 30
0.0
 11
893.4325929245124
 21
1027.343698063714
 31
0.0
  0
LINE
  5
356
330
22
100
AcDbEntity
  8
_2-7_ビス
  6
Continuous
 62
     7
100
AcDbLine
 10
893.4325929245124
 20
1027.343698063714
 30
0.0
 11
893.4327166017416
 21
1027.31342179751
 31
0.0
  0
LINE
  5
357
330
22
100
AcDbEntity
  8
_2-7_ビス
  6
Continuous
 62
     7
100
AcDbLine
 10
893.4327166017416
 20
1027.31342179751
 30
0.0
 11
893.4376204136313
 21
1027.28362910722
 31
0.0
  0
LINE
  5
358
330
22
100
AcDbEntity
  8
_2-7_ビス
  6
Continuous
 62
     7
100
AcDbLine
 10
893.4376204136313
 20
1027.28362910722
 30
0.0
 11
893.447155360339
 21
1027.25522522866
 31
0.0
  0
LINE
  5
359
330
22
100
AcDbEntity
  8
_2-7_ビス
  6
Continuous
 62
     7
100
AcDbLine
 10
893.447155360339
 20
1027.25522522866
 30
0.0
 11
893.4610317273337
 21
1027.229073199309
 31
0.0
  0
LINE
  5
35A
330
22
100
AcDbEntity
  8
_2-7_ビス
  6
Continuous
 62
     7
100
AcDbLine
 10
893.4610317273337
 20
1027.229073199309
 30
0.0
 11
893.4788278882264
 21
1027.205967635344
 31
0.0
  0
LINE
  5
35B
330
22
100
AcDbEntity
  8
_2-7_ビス
  6
Continuous
 62
     7
100
AcDbLine
 10
893.4788278882264
 20
1027.205967635344
 30
0.0
 11
893.5000031156731
 21
1027.186610587636
 31
0.0
  0
LINE
  5
35C
330
22
100
AcDbEntity
  8
_2-7_ビス
  6
Continuous
 62
     7
100
AcDbLine
 10
893.5000031156731
 20
1027.186610587636
 30
0.0
 11
893.5239140111031
 21
1027.171590210283
 31
0.0
  0
LINE
  5
35D
330
22
100
AcDbEntity
  8
_2-7_ビス
  6
Continuous
 62
     7
100
AcDbLine
 10
893.5239140111031
 20
1027.171590210283
 30
0.0
 11
893.5498340540586
 21
1027.16136288985
 31
0.0
  0
LINE
  5
35E
330
22
100
AcDbEntity
  8
_2-7_ビス
  6
Continuous
 62
     7
100
AcDbLine
 10
893.5498340540586
 20
1027.16136288985
 30
0.0
 11
893.5769756771502
 21
1027.156239378294
 31
0.0
  0
LINE
  5
35F
330
22
100
AcDbEntity
  8
_2-7_ビス
  6
Continuous
 62
     7
100
AcDbLine
 10
893.5769756771502
 20
1027.156239378294
 30
0.0
 11
893.5771217869664
 21
1027.156226126223
 31
0.0
  0
LINE
  5
360
330
22
100
AcDbEntity
  8
_2-7_ビス
  6
Continuous
 62
     7
100
AcDbLine
 10
893.8802305369673
 20
1036.061489278623
 30
0.0
 11
893.8802305369673
 21
1036.061489278623
 31
0.0
  0
LINE
  5
361
330
22
100
AcDbEntity
  8
_2-7_ビス
  6
Continuous
 62
     7
100
AcDbLine
 10
893.8802305369673
 20
1036.061489278623
 30
0.0
 11
893.7959047061736
 21
1036.049229321975
 31
0.0
  0
LINE
  5
362
330
22
100
AcDbEntity
  8
_2-7_ビス
  6
Continuous
 62
     7
100
AcDbLine
 10
893.7959047061736
 20
1036.049229321975
 30
0.0
 11
893.7147963847152
 21
1036.021056855268
 31
0.0
  0
LINE
  5
363
330
22
100
AcDbEntity
  8
_2-7_ビス
  6
Continuous
 62
     7
100
AcDbLine
 10
893.7147963847152
 20
1036.021056855268
 30
0.0
 11
893.6393700078973
 21
1035.977827884647
 31
0.0
  0
LINE
  5
364
330
22
100
AcDbEntity
  8
_2-7_ビス
  6
Continuous
 62
     7
100
AcDbLine
 10
893.6393700078973
 20
1035.977827884647
 30
0.0
 11
893.5719173680112
 21
1035.920855900508
 31
0.0
  0
LINE
  5
365
330
22
100
AcDbEntity
  8
_2-7_ビス
  6
Continuous
 62
     7
100
AcDbLine
 10
893.5719173680112
 20
1035.920855900508
 30
0.0
 11
893.5144879793877
 21
1035.851871967762
 31
0.0
  0
LINE
  5
366
330
22
100
AcDbEntity
  8
_2-7_ビス
  6
Continuous
 62
     7
100
AcDbLine
 10
893.5144879793877
 20
1035.851871967762
 30
0.0
 11
893.4688268049395
 21
1035.772972128295
 31
0.0
  0
LINE
  5
367
330
22
100
AcDbEntity
  8
_2-7_ビス
  6
Continuous
 62
     7
100
AcDbLine
 10
893.4688268049395
 20
1035.772972128295
 30
0.0
 11
893.4363212363463
 21
1035.686553713807
 31
0.0
  0
LINE
  5
368
330
22
100
AcDbEntity
  8
_2-7_ビス
  6
Continuous
 62
     7
100
AcDbLine
 10
893.4363212363463
 20
1035.686553713807
 30
0.0
 11
893.4179589388611
 21
1035.595242504091
 31
0.0
  0
LINE
  5
369
330
22
100
AcDbEntity
  8
_2-7_ビス
  6
Continuous
 62
     7
100
AcDbLine
 10
893.4179589388611
 20
1035.595242504091
 30
0.0
 11
893.4142978416016
 21
1035.501812944049
 31
0.0
  0
LINE
  5
36A
330
22
100
AcDbEntity
  8
_2-7_ビス
  6
Continuous
 62
     7
100
AcDbLine
 10
893.4142978416016
 20
1035.501812944049
 30
0.0
 11
893.425449185155
 21
1035.409103843584
 31
0.0
  0
LINE
  5
36B
330
22
100
AcDbEntity
  8
_2-7_ビス
  6
Continuous
 62
     7
100
AcDbLine
 10
893.425449185155
 20
1035.409103843584
 30
0.0
 11
893.4510741415905
 21
1035.319932121802
 31
0.0
  0
LINE
  5
36C
330
22
100
AcDbEntity
  8
_2-7_ビス
  6
Continuous
 62
     7
100
AcDbLine
 10
893.4510741415905
 20
1035.319932121802
 30
0.0
 11
893.4903941095738
 21
1035.237007216346
 31
0.0
  0
LINE
  5
36D
330
22
100
AcDbEntity
  8
_2-7_ビス
  6
Continuous
 62
     7
100
AcDbLine
 10
893.4903941095738
 20
1035.237007216346
 30
0.0
 11
893.5422143717742
 21
1035.162848758505
 31
0.0
  0
LINE
  5
36E
330
22
100
AcDbEntity
  8
_2-7_ビス
  6
Continuous
 62
     7
100
AcDbLine
 10
893.5422143717742
 20
1035.162848758505
 30
0.0
 11
893.6049603957474
 21
1035.099710015496
 31
0.0
  0
LINE
  5
36F
330
22
100
AcDbEntity
  8
_2-7_ビス
  6
Continuous
 62
     7
100
AcDbLine
 10
893.6049603957474
 20
1035.099710015496
 30
0.0
 11
893.6767256753061
 21
1035.049509426076
 31
0.0
  0
LINE
  5
370
330
22
100
AcDbEntity
  8
_2-7_ビス
  6
Continuous
 62
     7
100
AcDbLine
 10
893.6767256753061
 20
1035.049509426076
 30
0.0
 11
893.7553296587452
 21
1035.013772309749
 31
0.0
  0
LINE
  5
371
330
22
100
AcDbEntity
  8
_2-7_ビス
  6
Continuous
 62
     7
100
AcDbLine
 10
893.7553296587452
 20
1035.013772309749
 30
0.0
 11
893.8383840038044
 21
1034.993584520714
 31
0.0
  0
LINE
  5
372
330
22
100
AcDbEntity
  8
_2-7_ビス
  6
Continuous
 62
     7
100
AcDbLine
 10
893.8383840038044
 20
1034.993584520714
 30
0.0
 11
893.8802305369673
 21
1034.989559454723
 31
0.0
  0
LINE
  5
373
330
22
100
AcDbEntity
  8
_2-7_ビス
  6
Continuous
 62
     7
100
AcDbLine
 10
893.8802305369673
 20
1043.894822607123
 30
0.0
 11
893.8802305369673
 21
1043.894822607123
 31
0.0
  0
LINE
  5
374
330
22
100
AcDbEntity
  8
_2-7_ビス
  6
Continuous
 62
     7
100
AcDbLine
 10
893.8802305369673
 20
1043.894822607123
 30
0.0
 11
893.7959047061736
 21
1043.882562650475
 31
0.0
  0
LINE
  5
375
330
22
100
AcDbEntity
  8
_2-7_ビス
  6
Continuous
 62
     7
100
AcDbLine
 10
893.7959047061736
 20
1043.882562650475
 30
0.0
 11
893.7147963847152
 21
1043.854390183768
 31
0.0
  0
LINE
  5
376
330
22
100
AcDbEntity
  8
_2-7_ビス
  6
Continuous
 62
     7
100
AcDbLine
 10
893.7147963847152
 20
1043.854390183768
 30
0.0
 11
893.6393700078973
 21
1043.811161213147
 31
0.0
  0
LINE
  5
377
330
22
100
AcDbEntity
  8
_2-7_ビス
  6
Continuous
 62
     7
100
AcDbLine
 10
893.6393700078973
 20
1043.811161213147
 30
0.0
 11
893.5719173680112
 21
1043.754189229008
 31
0.0
  0
LINE
  5
378
330
22
100
AcDbEntity
  8
_2-7_ビス
  6
Continuous
 62
     7
100
AcDbLine
 10
893.5719173680112
 20
1043.754189229008
 30
0.0
 11
893.5144879793877
 21
1043.685205296261
 31
0.0
  0
LINE
  5
379
330
22
100
AcDbEntity
  8
_2-7_ビス
  6
Continuous
 62
     7
100
AcDbLine
 10
893.5144879793877
 20
1043.685205296261
 30
0.0
 11
893.4688268049395
 21
1043.606305456796
 31
0.0
  0
LINE
  5
37A
330
22
100
AcDbEntity
  8
_2-7_ビス
  6
Continuous
 62
     7
100
AcDbLine
 10
893.4688268049395
 20
1043.606305456796
 30
0.0
 11
893.4363212363463
 21
1043.519887042307
 31
0.0
  0
LINE
  5
37B
330
22
100
AcDbEntity
  8
_2-7_ビス
  6
Continuous
 62
     7
100
AcDbLine
 10
893.4363212363463
 20
1043.519887042307
 30
0.0
 11
893.4179589388611
 21
1043.428575832591
 31
0.0
  0
LINE
  5
37C
330
22
100
AcDbEntity
  8
_2-7_ビス
  6
Continuous
 62
     7
100
AcDbLine
 10
893.4179589388611
 20
1043.428575832591
 30
0.0
 11
893.4142978416016
 21
1043.335146272549
 31
0.0
  0
LINE
  5
37D
330
22
100
AcDbEntity
  8
_2-7_ビス
  6
Continuous
 62
     7
100
AcDbLine
 10
893.4142978416016
 20
1043.335146272549
 30
0.0
 11
893.425449185155
 21
1043.242437172084
 31
0.0
  0
LINE
  5
37E
330
22
100
AcDbEntity
  8
_2-7_ビス
  6
Continuous
 62
     7
100
AcDbLine
 10
893.425449185155
 20
1043.242437172084
 30
0.0
 11
893.4510741415905
 21
1043.153265450302
 31
0.0
  0
LINE
  5
37F
330
22
100
AcDbEntity
  8
_2-7_ビス
  6
Continuous
 62
     7
100
AcDbLine
 10
893.4510741415905
 20
1043.153265450302
 30
0.0
 11
893.4903941095738
 21
1043.070340544846
 31
0.0
  0
LINE
  5
380
330
22
100
AcDbEntity
  8
_2-7_ビス
  6
Continuous
 62
     7
100
AcDbLine
 10
893.4903941095738
 20
1043.070340544846
 30
0.0
 11
893.5422143717742
 21
1042.996182087005
 31
0.0
  0
LINE
  5
381
330
22
100
AcDbEntity
  8
_2-7_ビス
  6
Continuous
 62
     7
100
AcDbLine
 10
893.5422143717742
 20
1042.996182087005
 30
0.0
 11
893.6049603957474
 21
1042.933043343996
 31
0.0
  0
LINE
  5
382
330
22
100
AcDbEntity
  8
_2-7_ビス
  6
Continuous
 62
     7
100
AcDbLine
 10
893.6049603957474
 20
1042.933043343996
 30
0.0
 11
893.6767256753061
 21
1042.882842754575
 31
0.0
  0
LINE
  5
383
330
22
100
AcDbEntity
  8
_2-7_ビス
  6
Continuous
 62
     7
100
AcDbLine
 10
893.6767256753061
 20
1042.882842754575
 30
0.0
 11
893.7553296587452
 21
1042.847105638249
 31
0.0
  0
LINE
  5
384
330
22
100
AcDbEntity
  8
_2-7_ビス
  6
Continuous
 62
     7
100
AcDbLine
 10
893.7553296587452
 20
1042.847105638249
 30
0.0
 11
893.8383840038044
 21
1042.826917849214
 31
0.0
  0
LINE
  5
385
330
22
100
AcDbEntity
  8
_2-7_ビス
  6
Continuous
 62
     7
100
AcDbLine
 10
893.8383840038044
 20
1042.826917849214
 30
0.0
 11
893.8802305369673
 21
1042.822892783223
 31
0.0
  0
LINE
  5
386
330
22
100
AcDbEntity
  8
_2-7_ビス
  6
Continuous
 62
     7
100
AcDbLine
 10
893.5550137261646
 20
1024.764998057523
 30
0.0
 11
893.5550137261646
 21
1024.764998057523
 31
0.0
  0
LINE
  5
387
330
22
100
AcDbEntity
  8
_2-7_ビス
  6
Continuous
 62
     7
100
AcDbLine
 10
893.5550137261646
 20
1024.764998057523
 30
0.0
 11
893.5188285122629
 21
1024.631413730755
 31
0.0
  0
LINE
  5
388
330
22
100
AcDbEntity
  8
_2-7_ビス
  6
Continuous
 62
     7
100
AcDbLine
 10
893.5188285122629
 20
1024.631413730755
 30
0.0
 11
893.5042921363217
 21
1024.49295067854
 31
0.0
  0
LINE
  5
389
330
22
100
AcDbEntity
  8
_2-7_ビス
  6
Continuous
 62
     7
100
AcDbLine
 10
893.5042921363217
 20
1024.49295067854
 30
0.0
 11
893.5047383930767
 21
1024.435173496323
 31
0.0
  0
LINE
  5
38A
330
22
100
AcDbEntity
  8
_2-7_ビス
  6
Continuous
 62
     7
100
AcDbLine
 10
892.997196286967
 20
1022.456226129123
 30
0.0
 11
892.997196286967
 21
1022.456226129123
 31
0.0
  0
LINE
  5
38B
330
22
100
AcDbEntity
  8
_2-7_ビス
  6
Continuous
 62
     7
100
AcDbLine
 10
892.997196286967
 20
1022.456226129123
 30
0.0
 11
892.9911555094241
 21
1022.511756704301
 31
0.0
  0
LINE
  5
38C
330
22
100
AcDbEntity
  8
_2-7_ビス
  6
Continuous
 62
     7
100
AcDbLine
 10
892.9911555094241
 20
1022.511756704301
 30
0.0
 11
892.9764356754745
 21
1022.565290391685
 31
0.0
  0
LINE
  5
38D
330
22
100
AcDbEntity
  8
_2-7_ビス
  6
Continuous
 62
     7
100
AcDbLine
 10
892.9764356754745
 20
1022.565290391685
 30
0.0
 11
892.953484039824
 21
1022.615200597275
 31
0.0
  0
LINE
  5
38E
330
22
100
AcDbEntity
  8
_2-7_ビス
  6
Continuous
 62
     7
100
AcDbLine
 10
892.953484039824
 20
1022.615200597275
 30
0.0
 11
892.9229979763077
 21
1022.659970824728
 31
0.0
  0
LINE
  5
38F
330
22
100
AcDbEntity
  8
_2-7_ビス
  6
Continuous
 62
     7
100
AcDbLine
 10
892.9229979763077
 20
1022.659970824728
 30
0.0
 11
892.885903788539
 21
1022.698240753339
 31
0.0
  0
LINE
  5
390
330
22
100
AcDbEntity
  8
_2-7_ビス
  6
Continuous
 62
     7
100
AcDbLine
 10
892.885903788539
 20
1022.698240753339
 30
0.0
 11
892.8433285646429
 21
1022.728847570692
 31
0.0
  0
LINE
  5
391
330
22
100
AcDbEntity
  8
_2-7_ビス
  6
Continuous
 62
     7
100
AcDbLine
 10
892.8433285646429
 20
1022.728847570692
 30
0.0
 11
892.7965659312528
 21
1022.75086130413
 31
0.0
  0
LINE
  5
392
330
22
100
AcDbEntity
  8
_2-7_ビス
  6
Continuous
 62
     7
100
AcDbLine
 10
892.7965659312528
 20
1022.75086130413
 30
0.0
 11
892.7470367473217
 21
1022.763613077502
 31
0.0
  0
LINE
  5
393
330
22
100
AcDbEntity
  8
_2-7_ビス
  6
Continuous
 62
     7
100
AcDbLine
 10
892.7470367473217
 20
1022.763613077502
 30
0.0
 11
892.6962459320401
 21
1022.766715434626
 31
0.0
  0
LINE
  5
394
330
22
100
AcDbEntity
  8
_2-7_ビス
  6
Continuous
 62
     7
100
AcDbLine
 10
892.6962459320401
 20
1022.766715434626
 30
0.0
 11
892.6457367386293
 21
1022.760074111951
 31
0.0
  0
LINE
  5
395
330
22
100
AcDbEntity
  8
_2-7_ビス
  6
Continuous
 62
     7
100
AcDbLine
 10
892.6457367386293
 20
1022.760074111951
 30
0.0
 11
892.5970438633719
 21
1022.743890902707
 31
0.0
  0
LINE
  5
396
330
22
100
AcDbEntity
  8
_2-7_ビス
  6
Continuous
 62
     7
100
AcDbLine
 10
892.5970438633719
 20
1022.743890902707
 30
0.0
 11
892.551646814643
 21
1022.718657525516
 31
0.0
  0
LINE
  5
397
330
22
100
AcDbEntity
  8
_2-7_ビス
  6
Continuous
 62
     7
100
AcDbLine
 10
892.551646814643
 20
1022.718657525516
 30
0.0
 11
892.5109249587956
 21
1022.685140683776
 31
0.0
  0
LINE
  5
398
330
22
100
AcDbEntity
  8
_2-7_ビス
  6
Continuous
 62
     7
100
AcDbLine
 10
892.5109249587956
 20
1022.685140683776
 30
0.0
 11
892.4761156088141
 21
1022.644358769763
 31
0.0
  0
LINE
  5
399
330
22
100
AcDbEntity
  8
_2-7_ビス
  6
Continuous
 62
     7
100
AcDbLine
 10
892.4761156088141
 20
1022.644358769763
 30
0.0
 11
892.4482764291834
 21
1022.597550921298
 31
0.0
  0
LINE
  5
39A
330
22
100
AcDbEntity
  8
_2-7_ビス
  6
Continuous
 62
     7
100
AcDbLine
 10
892.4482764291834
 20
1022.597550921298
 30
0.0
 11
892.4282532992886
 21
1022.54613937117
 31
0.0
  0
LINE
  5
39B
330
22
100
AcDbEntity
  8
_2-7_ビス
  6
Continuous
 62
     7
100
AcDbLine
 10
892.4282532992886
 20
1022.54613937117
 30
0.0
 11
892.4166546117998
 21
1022.491686233315
 31
0.0
  0
LINE
  5
39C
330
22
100
AcDbEntity
  8
_2-7_ビス
  6
Continuous
 62
     7
100
AcDbLine
 10
892.4166546117998
 20
1022.491686233315
 30
0.0
 11
892.413832786967
 21
1022.435846038771
 31
0.0
  0
LINE
  5
39D
330
22
100
AcDbEntity
  8
_2-7_ビス
  6
Continuous
 62
     7
100
AcDbLine
 10
892.413832786967
 20
1022.435846038771
 30
0.0
 11
892.413832786967
 21
1022.43584603877
 31
0.0
  0
LINE
  5
39E
330
22
100
AcDbEntity
  8
_2-7_ビス
  6
Continuous
 62
     7
100
AcDbLine
 10
887.7114805369657
 20
1059.423898825611
 30
0.0
 11
887.7114805369657
 21
1063.519383998523
 31
0.0
  0
LINE
  5
39F
330
22
100
AcDbEntity
  8
_2-7_ビス
  6
Continuous
 62
     7
100
AcDbLine
 10
887.7114805369657
 20
1063.519383998523
 30
0.0
 11
890.7114805369666
 21
1063.519383998523
 31
0.0
  0
LINE
  5
3A0
330
22
100
AcDbEntity
  8
_2-7_ビス
  6
Continuous
 62
     7
100
AcDbLine
 10
887.7114805369657
 20
1059.423898825611
 30
0.0
 11
886.9614805369664
 21
1058.599337905407
 31
0.0
  0
LINE
  5
3A1
330
22
100
AcDbEntity
  8
_2-7_ビス
  6
Continuous
 62
     7
100
AcDbLine
 10
886.9614805369664
 20
1058.599337905407
 30
0.0
 11
886.9614805369664
 21
1056.500732178292
 31
0.0
  0
LINE
  5
3A2
330
22
100
AcDbEntity
  8
_2-7_ビス
  6
Continuous
 62
     7
100
AcDbLine
 10
886.9614805369664
 20
1056.500732178292
 30
0.0
 11
887.509699786967
 21
1052.383138865043
 31
0.0
  0
LINE
  5
3A3
330
22
100
AcDbEntity
  8
_2-7_ビス
  6
Continuous
 62
     7
100
AcDbLine
 10
887.509699786967
 20
1052.383138865043
 30
0.0
 11
887.7516235369668
 21
1051.975524356523
 31
0.0
  0
LINE
  5
3A4
330
22
100
AcDbEntity
  8
_2-7_ビス
  6
Continuous
 62
     7
100
AcDbLine
 10
887.7516235369668
 20
1051.975524356523
 30
0.0
 11
887.7114805369657
 21
1051.975524356523
 31
0.0
  0
LINE
  5
3A5
330
22
100
AcDbEntity
  8
_2-7_ビス
  6
Continuous
 62
     7
100
AcDbLine
 10
887.7114805369657
 20
1051.975524356523
 30
0.0
 11
887.7114805369657
 21
1050.161489269923
 31
0.0
  0
LINE
  5
3A6
330
22
100
AcDbEntity
  8
_2-7_ビス
  6
Continuous
 62
     7
100
AcDbLine
 10
887.7114805369657
 20
1050.161489269923
 30
0.0
 11
888.1444930975337
 21
1049.336927866923
 31
0.0
  0
LINE
  5
3A7
330
22
100
AcDbEntity
  8
_2-7_ビス
  6
Continuous
 62
     7
100
AcDbLine
 10
888.0145892869663
 20
1049.089559446022
 30
0.0
 11
887.0364805369669
 21
1049.089559446022
 31
0.0
  0
LINE
  5
3A8
330
22
100
AcDbEntity
  8
_2-7_ビス
  6
Continuous
 62
     7
100
AcDbLine
 10
887.0364805369669
 20
1049.089559446022
 30
0.0
 11
887.0364805369669
 21
1044.856168852143
 31
0.0
  0
LINE
  5
3A9
330
22
100
AcDbEntity
  8
_2-7_ビス
  6
Continuous
 62
     7
100
AcDbLine
 10
887.0364805369669
 20
1044.856168852143
 30
0.0
 11
887.5379500369669
 21
1043.894822607123
 31
0.0
  0
LINE
  5
3AA
330
22
100
AcDbEntity
  8
_2-7_ビス
  6
Continuous
 62
     7
100
AcDbLine
 10
887.5379500369669
 20
1043.894822607123
 30
0.0
 11
887.5427305369667
 21
1043.894822607123
 31
0.0
  0
LINE
  5
3AB
330
22
100
AcDbEntity
  8
_2-7_ビス
  6
Continuous
 62
     7
100
AcDbLine
 10
887.5427347102514
 20
1043.894822960905
 30
0.0
 11
887.5427305369667
 21
1043.894822607123
 31
0.0
  0
LINE
  5
3AC
330
22
100
AcDbEntity
  8
_2-7_ビス
  6
Continuous
 62
     7
100
AcDbLine
 10
887.5427347102514
 20
1043.894822960905
 30
0.0
 11
887.5427305369667
 21
1043.894822607123
 31
0.0
  0
LINE
  5
3AD
330
22
100
AcDbEntity
  8
_2-7_ビス
  6
Continuous
 62
     7
100
AcDbLine
 10
887.5753217869666
 20
1042.822892783224
 30
0.0
 11
887.0364805369669
 21
1042.822892783224
 31
0.0
  0
LINE
  5
3AE
330
22
100
AcDbEntity
  8
_2-7_ビス
  6
Continuous
 62
     7
100
AcDbLine
 10
887.0364805369669
 20
1042.822892783224
 30
0.0
 11
887.0364805369669
 21
1037.025659646449
 31
0.0
  0
LINE
  5
3AF
330
22
100
AcDbEntity
  8
_2-7_ビス
  6
Continuous
 62
     7
100
AcDbLine
 10
887.0364805369669
 20
1037.025659646449
 30
0.0
 11
887.542727724028
 21
1036.061508276684
 31
0.0
  0
LINE
  5
3B0
330
22
100
AcDbEntity
  8
_2-7_ビス
  6
Continuous
 62
     7
100
AcDbLine
 10
887.5427305369667
 20
1036.061489278623
 30
0.0
 11
887.5463221673223
 21
1036.538940675863
 31
0.0
  0
LINE
  5
3B1
330
22
100
AcDbEntity
  8
_2-7_ビス
  6
Continuous
 62
     7
100
AcDbLine
 10
887.5463221673223
 20
1036.538940675863
 30
0.0
 11
887.8670021749458
 21
1036.556226120423
 31
0.0
  0
LINE
  5
3B2
330
22
100
AcDbEntity
  8
_2-7_ビス
  6
Continuous
 62
     7
100
AcDbLine
 10
888.0256642151138
 20
1036.803594541323
 30
0.0
 11
887.5753217869666
 21
1037.628155944323
 31
0.0
  0
LINE
  5
3B3
330
22
100
AcDbEntity
  8
_2-7_ビス
  6
Continuous
 62
     7
100
AcDbLine
 10
887.5753217869666
 20
1037.628155944323
 30
0.0
 11
887.5753216348435
 21
1038.105607413318
 31
0.0
  0
LINE
  5
3B4
330
22
100
AcDbEntity
  8
_2-7_ビス
  6
Continuous
 62
     7
100
AcDbLine
 10
887.5753216348435
 20
1038.105607413318
 30
0.0
 11
887.9233540369666
 21
1038.122892786123
 31
0.0
  0
LINE
  5
3B5
330
22
100
AcDbEntity
  8
_2-7_ビス
  6
Continuous
 62
     7
100
AcDbLine
 10
888.082943786687
 20
1038.370261207023
 30
0.0
 11
887.5753217869666
 21
1039.194822610023
 31
0.0
  0
LINE
  5
3B6
330
22
100
AcDbEntity
  8
_2-7_ビス
  6
Continuous
 62
     7
100
AcDbLine
 10
887.5753217869666
 20
1039.194822610023
 30
0.0
 11
887.5753217869666
 21
1039.672274171132
 31
0.0
  0
LINE
  5
3B7
330
22
100
AcDbEntity
  8
_2-7_ビス
  6
Continuous
 62
     7
100
AcDbLine
 10
887.5753217869666
 20
1039.672274171132
 30
0.0
 11
887.9233540369666
 21
1039.689559451823
 31
0.0
  0
LINE
  5
3B8
330
22
100
AcDbEntity
  8
_2-7_ビス
  6
Continuous
 62
     7
100
AcDbLine
 10
888.082943786687
 20
1039.936927872723
 30
0.0
 11
887.5753217869666
 21
1040.761489275723
 31
0.0
  0
LINE
  5
3B9
330
22
100
AcDbEntity
  8
_2-7_ビス
  6
Continuous
 62
     7
100
AcDbLine
 10
887.5753217869666
 20
1040.761489275723
 30
0.0
 11
887.5753217869666
 21
1041.238940836832
 31
0.0
  0
LINE
  5
3BA
330
22
100
AcDbEntity
  8
_2-7_ビス
  6
Continuous
 62
     7
100
AcDbLine
 10
887.5753217869666
 20
1041.238940836832
 30
0.0
 11
887.9233540369666
 21
1041.256226117523
 31
0.0
  0
LINE
  5
3BB
330
22
100
AcDbEntity
  8
_2-7_ビス
  6
Continuous
 62
     7
100
AcDbLine
 10
888.082943786687
 20
1041.503594538423
 30
0.0
 11
887.5753216348435
 21
1042.328155941423
 31
0.0
  0
LINE
  5
3BC
330
22
100
AcDbEntity
  8
_2-7_ビス
  6
Continuous
 62
     7
100
AcDbLine
 10
887.5753216348435
 20
1042.328155941423
 30
0.0
 11
887.5753217869666
 21
1042.822892783224
 31
0.0
  0
LINE
  5
3BD
330
22
100
AcDbEntity
  8
_2-7_ビス
  6
Continuous
 62
     7
100
AcDbLine
 10
887.5427347102514
 20
1043.894822960905
 30
0.0
 11
887.5464199114967
 21
1044.372274429899
 31
0.0
  0
LINE
  5
3BE
330
22
100
AcDbEntity
  8
_2-7_ビス
  6
Continuous
 62
     7
100
AcDbLine
 10
887.5464199114967
 20
1044.372274429899
 30
0.0
 11
887.8638647869658
 21
1044.389559448923
 31
0.0
  0
LINE
  5
3BF
330
22
100
AcDbEntity
  8
_2-7_ビス
  6
Continuous
 62
     7
100
AcDbLine
 10
888.0259569272876
 20
1044.636927869823
 30
0.0
 11
887.5753216348435
 21
1045.461489272823
 31
0.0
  0
LINE
  5
3C0
330
22
100
AcDbEntity
  8
_2-7_ビス
  6
Continuous
 62
     7
100
AcDbLine
 10
887.5753216348435
 20
1045.461489272823
 30
0.0
 11
887.5753216348435
 21
1045.938940741817
 31
0.0
  0
LINE
  5
3C1
330
22
100
AcDbEntity
  8
_2-7_ビス
  6
Continuous
 62
     7
100
AcDbLine
 10
887.5753216348435
 20
1045.938940741817
 30
0.0
 11
887.9233540369666
 21
1045.956226114624
 31
0.0
  0
LINE
  5
3C2
330
22
100
AcDbEntity
  8
_2-7_ビス
  6
Continuous
 62
     7
100
AcDbLine
 10
888.082943786687
 20
1046.203594535523
 30
0.0
 11
887.5753217869666
 21
1047.028155938523
 31
0.0
  0
LINE
  5
3C3
330
22
100
AcDbEntity
  8
_2-7_ビス
  6
Continuous
 62
     7
100
AcDbLine
 10
887.5753217869666
 20
1047.028155938523
 30
0.0
 11
887.5753216348435
 21
1047.505607407517
 31
0.0
  0
LINE
  5
3C4
330
22
100
AcDbEntity
  8
_2-7_ビス
  6
Continuous
 62
     7
100
AcDbLine
 10
887.5753216348435
 20
1047.505607407517
 30
0.0
 11
887.9242401294547
 21
1047.523124361483
 31
0.0
  0
LINE
  5
3C5
330
22
100
AcDbEntity
  8
_2-7_ビス
  6
Continuous
 62
     7
100
AcDbLine
 10
888.082943786687
 20
1047.770261201223
 30
0.0
 11
887.5753216348435
 21
1048.594822604223
 31
0.0
  0
LINE
  5
3C6
330
22
100
AcDbEntity
  8
_2-7_ビス
  6
Continuous
 62
     7
100
AcDbLine
 10
887.5753216348435
 20
1048.594822604223
 30
0.0
 11
887.5753217924737
 21
1049.089559446022
 31
0.0
  0
LINE
  5
3C7
330
22
100
AcDbEntity
  8
_2-7_ビス
  6
Continuous
 62
     7
100
AcDbLine
 10
887.5753217869666
 20
1034.989559454723
 30
0.0
 11
887.0364805369669
 21
1034.989559454723
 31
0.0
  0
LINE
  5
3C8
330
22
100
AcDbEntity
  8
_2-7_ビス
  6
Continuous
 62
     7
100
AcDbLine
 10
887.0364805369669
 20
1034.989559454723
 30
0.0
 11
887.0364805369669
 21
1031.741317719886
 31
0.0
  0
LINE
  5
3C9
330
22
100
AcDbEntity
  8
_2-7_ビス
  6
Continuous
 62
     7
100
AcDbLine
 10
887.0364805369669
 20
1031.741317719886
 30
0.0
 11
887.5422662869661
 21
1028.228155950123
 31
0.0
  0
LINE
  5
3CA
330
22
100
AcDbEntity
  8
_2-7_ビス
  6
Continuous
 62
     7
100
AcDbLine
 10
887.5422662869661
 20
1028.228155950123
 30
0.0
 11
887.5430008046302
 21
1028.705607034264
 31
0.0
  0
LINE
  5
3CB
330
22
100
AcDbEntity
  8
_2-7_ビス
  6
Continuous
 62
     7
100
AcDbLine
 10
887.5430008046302
 20
1028.705607034264
 30
0.0
 11
887.8516892869674
 21
1028.722892791923
 31
0.0
  0
LINE
  5
3CC
330
22
100
AcDbEntity
  8
_2-7_ビス
  6
Continuous
 62
     7
100
AcDbLine
 10
887.5422662869661
 20
1028.228155950123
 30
0.0
 11
887.9757430975336
 21
1027.403594547123
 31
0.0
  0
LINE
  5
3CD
330
22
100
AcDbEntity
  8
_2-7_ビス
  6
Continuous
 62
     7
100
AcDbLine
 10
887.9962458517544
 20
1028.970261212823
 30
0.0
 11
887.5456435182941
 21
1029.794822615823
 31
0.0
  0
LINE
  5
3CE
330
22
100
AcDbEntity
  8
_2-7_ビス
  6
Continuous
 62
     7
100
AcDbLine
 10
887.5456435182941
 20
1029.794822615823
 30
0.0
 11
887.5477284225562
 21
1030.272273699963
 31
0.0
  0
LINE
  5
3CF
330
22
100
AcDbEntity
  8
_2-7_ビス
  6
Continuous
 62
     7
100
AcDbLine
 10
887.5477284225562
 20
1030.272273699963
 30
0.0
 11
887.8700552869666
 21
1030.289559457624
 31
0.0
  0
LINE
  5
3D0
330
22
100
AcDbEntity
  8
_2-7_ビス
  6
Continuous
 62
     7
100
AcDbLine
 10
888.0185607827851
 20
1030.536927878523
 30
0.0
 11
887.5546929234607
 21
1031.361488896669
 31
0.0
  0
LINE
  5
3D1
330
22
100
AcDbEntity
  8
_2-7_ビス
  6
Continuous
 62
     7
100
AcDbLine
 10
887.5546929234607
 20
1031.361488896669
 30
0.0
 11
887.5587557641571
 21
1031.838940365664
 31
0.0
  0
LINE
  5
3D2
330
22
100
AcDbEntity
  8
_2-7_ビス
  6
Continuous
 62
     7
100
AcDbLine
 10
887.5587557641571
 20
1031.838940365664
 30
0.0
 11
887.8934091194262
 21
1031.856226123323
 31
0.0
  0
LINE
  5
3D3
330
22
100
AcDbEntity
  8
_2-7_ビス
  6
Continuous
 62
     7
100
AcDbLine
 10
888.0506637355935
 20
1032.103594544223
 30
0.0
 11
887.5704611113881
 21
1032.928155562369
 31
0.0
  0
LINE
  5
3D4
330
22
100
AcDbEntity
  8
_2-7_ビス
  6
Continuous
 62
     7
100
AcDbLine
 10
887.5704611113881
 20
1032.928155562369
 30
0.0
 11
887.5753217869666
 21
1033.405607508331
 31
0.0
  0
LINE
  5
3D5
330
22
100
AcDbEntity
  8
_2-7_ビス
  6
Continuous
 62
     7
100
AcDbLine
 10
887.5753217869666
 20
1033.405607508331
 30
0.0
 11
887.9233540369666
 21
1033.422892789023
 31
0.0
  0
LINE
  5
3D6
330
22
100
AcDbEntity
  8
_2-7_ビス
  6
Continuous
 62
     7
100
AcDbLine
 10
888.082943786687
 20
1033.670261209923
 30
0.0
 11
887.5753216348435
 21
1034.494822612923
 31
0.0
  0
LINE
  5
3D7
330
22
100
AcDbEntity
  8
_2-7_ビス
  6
Continuous
 62
     7
100
AcDbLine
 10
887.5753216348435
 20
1034.494822612923
 30
0.0
 11
887.5753217869666
 21
1034.989559454723
 31
0.0
  0
LINE
  5
3D8
330
22
100
AcDbEntity
  8
_2-7_ビス
  6
Continuous
 62
     7
100
AcDbLine
 10
887.8458392869672
 20
1027.156226126223
 30
0.0
 11
887.7114805369657
 21
1027.156226126223
 31
0.0
  0
LINE
  5
3D9
330
22
100
AcDbEntity
  8
_2-7_ビス
  6
Continuous
 62
     7
100
AcDbLine
 10
887.7114805369657
 20
1027.156226126223
 30
0.0
 11
887.7114805369657
 21
1026.372892793372
 31
0.0
  0
LINE
  5
3DA
330
22
100
AcDbEntity
  8
_2-7_ビス
  6
Continuous
 62
     7
100
AcDbLine
 10
887.7114805369657
 20
1026.372892793372
 30
0.0
 11
887.8614805369666
 21
1026.372892793372
 31
0.0
  0
LINE
  5
3DB
330
22
100
AcDbEntity
  8
_2-7_ビス
  6
Continuous
 62
     7
100
AcDbLine
 10
887.8614805369666
 20
1026.372892793372
 30
0.0
 11
887.8614805369666
 21
1024.764998057523
 31
0.0
  0
LINE
  5
3DC
330
22
100
AcDbEntity
  8
_2-7_ビス
  6
Continuous
 62
     7
100
AcDbLine
 10
887.8614805369666
 20
1024.764998057523
 30
0.0
 11
887.8679473477674
 21
1024.764998057523
 31
0.0
  0
LINE
  5
3DD
330
22
100
AcDbEntity
  8
_2-7_ビス
  6
Continuous
 62
     7
100
AcDbLine
 10
887.918222536966
 20
1024.435173496323
 30
0.0
 11
887.918222683505
 21
1018.484731903503
 31
0.0
  0
LINE
  5
3DE
330
22
100
AcDbEntity
  8
_2-7_ビス
  6
Continuous
 62
     7
100
AcDbLine
 10
887.918222683505
 20
1018.484731903503
 30
0.0
 11
888.3586600369664
 21
1017.833311079344
 31
0.0
  0
LINE
  5
3DF
330
22
100
AcDbEntity
  8
_2-7_ビス
  6
Continuous
 62
     7
100
AcDbLine
 10
888.3586600369664
 20
1017.833311079344
 30
0.0
 11
889.3614805369665
 21
1016.519384027523
 31
0.0
  0
LINE
  5
3E0
330
22
100
AcDbEntity
  8
_2-7_ビス
  6
Continuous
 62
     7
100
AcDbLine
 10
889.3614805369665
 20
1016.519384027523
 30
0.0
 11
889.510859016461
 21
1016.519384027523
 31
0.0
  0
LINE
  5
3E1
330
22
100
AcDbEntity
  8
_2-7_ビス
  6
Continuous
 62
     7
100
AcDbLine
 10
889.510859016461
 20
1016.519384027523
 30
0.0
 11
888.4257649071468
 21
1018.484731903503
 31
0.0
  0
LINE
  5
3E2
330
22
100
AcDbEntity
  8
_2-7_ビス
  6
Continuous
 62
     7
100
AcDbLine
 10
888.4257649071468
 20
1018.484731903503
 30
0.0
 11
888.4257647869659
 21
1022.456226129123
 31
0.0
  0
LINE
  5
3E3
330
22
100
AcDbEntity
  8
_2-7_ビス
  6
Continuous
 62
     7
100
AcDbLine
 10
889.009128286966
 20
1022.456226129123
 30
0.0
 11
889.0091280135342
 21
1018.484732056202
 31
0.0
  0
LINE
  5
3E4
330
22
100
AcDbEntity
  8
_2-7_ビス
  6
Continuous
 62
     7
100
AcDbLine
 10
889.0091280135342
 20
1018.484732056202
 30
0.0
 11
890.094222378768
 21
1016.519384027523
 31
0.0
  0
LINE
  5
3E5
330
22
100
AcDbEntity
  8
_2-7_ビス
  6
Continuous
 62
     7
100
AcDbLine
 10
890.094222378768
 20
1016.519384027523
 30
0.0
 11
890.7114805369666
 21
1016.519384027523
 31
0.0
  0
LINE
  5
3E6
330
22
100
AcDbEntity
  8
_2-7_ビス
  6
Continuous
 62
     7
100
AcDbLine
 10
888.0145892869663
 20
1049.089559446023
 30
0.0
 11
888.0145892869663
 21
1049.089559446023
 31
0.0
  0
LINE
  5
3E7
330
22
100
AcDbEntity
  8
_2-7_ビス
  6
Continuous
 62
     7
100
AcDbLine
 10
888.0145892869663
 20
1049.089559446023
 30
0.0
 11
888.0415477378669
 21
1049.094213230738
 31
0.0
  0
LINE
  5
3E8
330
22
100
AcDbEntity
  8
_2-7_ビス
  6
Continuous
 62
     7
100
AcDbLine
 10
888.0415477378669
 20
1049.094213230738
 30
0.0
 11
888.0673615828799
 21
1049.103942990868
 31
0.0
  0
LINE
  5
3E9
330
22
100
AcDbEntity
  8
_2-7_ビス
  6
Continuous
 62
     7
100
AcDbLine
 10
888.0673615828799
 20
1049.103942990868
 30
0.0
 11
888.0912464813873
 21
1049.118453092575
 31
0.0
  0
LINE
  5
3EA
330
22
100
AcDbEntity
  8
_2-7_ビス
  6
Continuous
 62
     7
100
AcDbLine
 10
888.0912464813873
 20
1049.118453092575
 30
0.0
 11
888.1124767028342
 21
1049.13730265376
 31
0.0
  0
LINE
  5
3EB
330
22
100
AcDbEntity
  8
_2-7_ビス
  6
Continuous
 62
     7
100
AcDbLine
 10
888.1124767028342
 20
1049.13730265376
 30
0.0
 11
888.1304071776847
 21
1049.159918940046
 31
0.0
  0
LINE
  5
3EC
330
22
100
AcDbEntity
  8
_2-7_ビス
  6
Continuous
 62
     7
100
AcDbLine
 10
888.1304071776847
 20
1049.159918940046
 30
0.0
 11
888.1444930975343
 21
1049.185614767017
 31
0.0
  0
LINE
  5
3ED
330
22
100
AcDbEntity
  8
_2-7_ビス
  6
Continuous
 62
     7
100
AcDbLine
 10
888.1444930975343
 20
1049.185614767017
 30
0.0
 11
888.1543064688354
 21
1049.213609379975
 31
0.0
  0
LINE
  5
3EE
330
22
100
AcDbEntity
  8
_2-7_ビス
  6
Continuous
 62
     7
100
AcDbLine
 10
888.1543064688354
 20
1049.213609379975
 30
0.0
 11
888.1595491172673
 21
1049.243052176771
 31
0.0
  0
LINE
  5
3EF
330
22
100
AcDbEntity
  8
_2-7_ビス
  6
Continuous
 62
     7
100
AcDbLine
 10
888.1595491172673
 20
1049.243052176771
 30
0.0
 11
888.1600617476104
 21
1049.273048552922
 31
0.0
  0
LINE
  5
3F0
330
22
100
AcDbEntity
  8
_2-7_ビス
  6
Continuous
 62
     7
100
AcDbLine
 10
888.1600617476104
 20
1049.273048552922
 30
0.0
 11
888.1558287838505
 21
1049.302687083718
 31
0.0
  0
LINE
  5
3F1
330
22
100
AcDbEntity
  8
_2-7_ビス
  6
Continuous
 62
     7
100
AcDbLine
 10
888.1558287838505
 20
1049.302687083718
 30
0.0
 11
888.1469788424507
 21
1049.3310672174
 31
0.0
  0
LINE
  5
3F2
330
22
100
AcDbEntity
  8
_2-7_ビス
  6
Continuous
 62
     7
100
AcDbLine
 10
888.1469788424507
 20
1049.3310672174
 30
0.0
 11
888.1337808244007
 21
1049.357326637965
 31
0.0
  0
LINE
  5
3F3
330
22
100
AcDbEntity
  8
_2-7_ビス
  6
Continuous
 62
     7
100
AcDbLine
 10
888.1337808244007
 20
1049.357326637965
 30
0.0
 11
888.1337804318834
 21
1049.357327279589
 31
0.0
  0
LINE
  5
3F4
330
22
100
AcDbEntity
  8
_2-7_ビス
  6
Continuous
 62
     7
100
AcDbLine
 10
887.923354036967
 20
1047.522892780323
 30
0.0
 11
887.923354036967
 21
1047.522892780323
 31
0.0
  0
LINE
  5
3F5
330
22
100
AcDbEntity
  8
_2-7_ビス
  6
Continuous
 62
     7
100
AcDbLine
 10
887.923354036967
 20
1047.522892780323
 30
0.0
 11
887.9578772653021
 21
1047.535406330582
 31
0.0
  0
LINE
  5
3F6
330
22
100
AcDbEntity
  8
_2-7_ビス
  6
Continuous
 62
     7
100
AcDbLine
 10
887.9578772653021
 20
1047.535406330582
 30
0.0
 11
887.9898995436553
 21
1047.55432065136
 31
0.0
  0
LINE
  5
3F7
330
22
100
AcDbEntity
  8
_2-7_ビス
  6
Continuous
 62
     7
100
AcDbLine
 10
887.9898995436553
 20
1047.55432065136
 30
0.0
 11
888.0184478913028
 21
1047.579061040591
 31
0.0
  0
LINE
  5
3F8
330
22
100
AcDbEntity
  8
_2-7_ビス
  6
Continuous
 62
     7
100
AcDbLine
 10
888.0184478913028
 20
1047.579061040591
 30
0.0
 11
888.0426548811474
 21
1047.608875774069
 31
0.0
  0
LINE
  5
3F9
330
22
100
AcDbEntity
  8
_2-7_ビス
  6
Continuous
 62
     7
100
AcDbLine
 10
888.0426548811474
 20
1047.608875774069
 30
0.0
 11
888.0617849960525
 21
1047.642858946202
 31
0.0
  0
LINE
  5
3FA
330
22
100
AcDbEntity
  8
_2-7_ビス
  6
Continuous
 62
     7
100
AcDbLine
 10
888.0617849960525
 20
1047.642858946202
 30
0.0
 11
888.0752569771566
 21
1047.679977995502
 31
0.0
  0
LINE
  5
3FB
330
22
100
AcDbEntity
  8
_2-7_ビス
  6
Continuous
 62
     7
100
AcDbLine
 10
888.0752569771566
 20
1047.679977995502
 30
0.0
 11
888.0826614851315
 21
1047.71910507844
 31
0.0
  0
LINE
  5
3FC
330
22
100
AcDbEntity
  8
_2-7_ビス
  6
Continuous
 62
     7
100
AcDbLine
 10
888.0826614851315
 20
1047.71910507844
 30
0.0
 11
888.0837735377486
 21
1047.759051338399
 31
0.0
  0
LINE
  5
3FD
330
22
100
AcDbEntity
  8
_2-7_ビス
  6
Continuous
 62
     7
100
AcDbLine
 10
888.0837735377486
 20
1047.759051338399
 30
0.0
 11
888.0829437866879
 21
1047.770261201223
 31
0.0
  0
LINE
  5
3FE
330
22
100
AcDbEntity
  8
_2-7_ビス
  6
Continuous
 62
     7
100
AcDbLine
 10
887.923354036967
 20
1045.956226114623
 30
0.0
 11
887.923354036967
 21
1045.956226114623
 31
0.0
  0
LINE
  5
3FF
330
22
100
AcDbEntity
  8
_2-7_ビス
  6
Continuous
 62
     7
100
AcDbLine
 10
887.923354036967
 20
1045.956226114623
 30
0.0
 11
887.9578772653021
 21
1045.968739664882
 31
0.0
  0
LINE
  5
400
330
22
100
AcDbEntity
  8
_2-7_ビス
  6
Continuous
 62
     7
100
AcDbLine
 10
887.9578772653021
 20
1045.968739664882
 30
0.0
 11
887.9898995436553
 21
1045.98765398566
 31
0.0
  0
LINE
  5
401
330
22
100
AcDbEntity
  8
_2-7_ビス
  6
Continuous
 62
     7
100
AcDbLine
 10
887.9898995436553
 20
1045.98765398566
 30
0.0
 11
888.0184478913028
 21
1046.012394374892
 31
0.0
  0
LINE
  5
402
330
22
100
AcDbEntity
  8
_2-7_ビス
  6
Continuous
 62
     7
100
AcDbLine
 10
888.0184478913028
 20
1046.012394374892
 30
0.0
 11
888.0426548811474
 21
1046.042209108369
 31
0.0
  0
LINE
  5
403
330
22
100
AcDbEntity
  8
_2-7_ビス
  6
Continuous
 62
     7
100
AcDbLine
 10
888.0426548811474
 20
1046.042209108369
 30
0.0
 11
888.0617849960525
 21
1046.076192280502
 31
0.0
  0
LINE
  5
404
330
22
100
AcDbEntity
  8
_2-7_ビス
  6
Continuous
 62
     7
100
AcDbLine
 10
888.0617849960525
 20
1046.076192280502
 30
0.0
 11
888.0752569771566
 21
1046.113311329802
 31
0.0
  0
LINE
  5
405
330
22
100
AcDbEntity
  8
_2-7_ビス
  6
Continuous
 62
     7
100
AcDbLine
 10
888.0752569771566
 20
1046.113311329802
 30
0.0
 11
888.0826614851315
 21
1046.15243841274
 31
0.0
  0
LINE
  5
406
330
22
100
AcDbEntity
  8
_2-7_ビス
  6
Continuous
 62
     7
100
AcDbLine
 10
888.0826614851315
 20
1046.15243841274
 30
0.0
 11
888.0837735377486
 21
1046.192384672699
 31
0.0
  0
LINE
  5
407
330
22
100
AcDbEntity
  8
_2-7_ビス
  6
Continuous
 62
     7
100
AcDbLine
 10
888.0837735377486
 20
1046.192384672699
 30
0.0
 11
888.0829437866879
 21
1046.203594535523
 31
0.0
  0
LINE
  5
408
330
22
100
AcDbEntity
  8
_2-7_ビス
  6
Continuous
 62
     7
100
AcDbLine
 10
887.8663671775655
 20
1044.389559448922
 30
0.0
 11
887.8663671775655
 21
1044.389559448922
 31
0.0
  0
LINE
  5
409
330
22
100
AcDbEntity
  8
_2-7_ビス
  6
Continuous
 62
     7
100
AcDbLine
 10
887.8663671775655
 20
1044.389559448922
 30
0.0
 11
887.9008904059006
 21
1044.402072999182
 31
0.0
  0
LINE
  5
40A
330
22
100
AcDbEntity
  8
_2-7_ビス
  6
Continuous
 62
     7
100
AcDbLine
 10
887.9008904059006
 20
1044.402072999182
 30
0.0
 11
887.9329126842536
 21
1044.42098731996
 31
0.0
  0
LINE
  5
40B
330
22
100
AcDbEntity
  8
_2-7_ビス
  6
Continuous
 62
     7
100
AcDbLine
 10
887.9329126842536
 20
1044.42098731996
 30
0.0
 11
887.9614610319011
 21
1044.445727709191
 31
0.0
  0
LINE
  5
40C
330
22
100
AcDbEntity
  8
_2-7_ビス
  6
Continuous
 62
     7
100
AcDbLine
 10
887.9614610319011
 20
1044.445727709191
 30
0.0
 11
887.9856680217459
 21
1044.475542442668
 31
0.0
  0
LINE
  5
40D
330
22
100
AcDbEntity
  8
_2-7_ビス
  6
Continuous
 62
     7
100
AcDbLine
 10
887.9856680217459
 20
1044.475542442668
 30
0.0
 11
888.0047981366509
 21
1044.509525614802
 31
0.0
  0
LINE
  5
40E
330
22
100
AcDbEntity
  8
_2-7_ビス
  6
Continuous
 62
     7
100
AcDbLine
 10
888.0047981366509
 20
1044.509525614802
 30
0.0
 11
888.0182701177552
 21
1044.546644664102
 31
0.0
  0
LINE
  5
40F
330
22
100
AcDbEntity
  8
_2-7_ビス
  6
Continuous
 62
     7
100
AcDbLine
 10
888.0182701177552
 20
1044.546644664102
 30
0.0
 11
888.0256746257298
 21
1044.58577174704
 31
0.0
  0
LINE
  5
410
330
22
100
AcDbEntity
  8
_2-7_ビス
  6
Continuous
 62
     7
100
AcDbLine
 10
888.0256746257298
 20
1044.58577174704
 30
0.0
 11
888.0267866783468
 21
1044.625718006999
 31
0.0
  0
LINE
  5
411
330
22
100
AcDbEntity
  8
_2-7_ビス
  6
Continuous
 62
     7
100
AcDbLine
 10
888.0267866783468
 20
1044.625718006999
 30
0.0
 11
888.0259569272862
 21
1044.636927869823
 31
0.0
  0
LINE
  5
412
330
22
100
AcDbEntity
  8
_2-7_ビス
  6
Continuous
 62
     7
100
AcDbLine
 10
887.923354036967
 20
1041.256226117523
 30
0.0
 11
887.923354036967
 21
1041.256226117523
 31
0.0
  0
LINE
  5
413
330
22
100
AcDbEntity
  8
_2-7_ビス
  6
Continuous
 62
     7
100
AcDbLine
 10
887.923354036967
 20
1041.256226117523
 30
0.0
 11
887.9578772653021
 21
1041.268739667782
 31
0.0
  0
LINE
  5
414
330
22
100
AcDbEntity
  8
_2-7_ビス
  6
Continuous
 62
     7
100
AcDbLine
 10
887.9578772653021
 20
1041.268739667782
 30
0.0
 11
887.9898995436553
 21
1041.28765398856
 31
0.0
  0
LINE
  5
415
330
22
100
AcDbEntity
  8
_2-7_ビス
  6
Continuous
 62
     7
100
AcDbLine
 10
887.9898995436553
 20
1041.28765398856
 30
0.0
 11
888.0184478913028
 21
1041.312394377791
 31
0.0
  0
LINE
  5
416
330
22
100
AcDbEntity
  8
_2-7_ビス
  6
Continuous
 62
     7
100
AcDbLine
 10
888.0184478913028
 20
1041.312394377791
 30
0.0
 11
888.0426548811474
 21
1041.342209111268
 31
0.0
  0
LINE
  5
417
330
22
100
AcDbEntity
  8
_2-7_ビス
  6
Continuous
 62
     7
100
AcDbLine
 10
888.0426548811474
 20
1041.342209111268
 30
0.0
 11
888.0617849960525
 21
1041.376192283402
 31
0.0
  0
LINE
  5
418
330
22
100
AcDbEntity
  8
_2-7_ビス
  6
Continuous
 62
     7
100
AcDbLine
 10
888.0617849960525
 20
1041.376192283402
 30
0.0
 11
888.0752569771566
 21
1041.413311332702
 31
0.0
  0
LINE
  5
419
330
22
100
AcDbEntity
  8
_2-7_ビス
  6
Continuous
 62
     7
100
AcDbLine
 10
888.0752569771566
 20
1041.413311332702
 30
0.0
 11
888.0826614851315
 21
1041.45243841564
 31
0.0
  0
LINE
  5
41A
330
22
100
AcDbEntity
  8
_2-7_ビス
  6
Continuous
 62
     7
100
AcDbLine
 10
888.0826614851315
 20
1041.45243841564
 30
0.0
 11
888.0837735377486
 21
1041.492384675599
 31
0.0
  0
LINE
  5
41B
330
22
100
AcDbEntity
  8
_2-7_ビス
  6
Continuous
 62
     7
100
AcDbLine
 10
888.0837735377486
 20
1041.492384675599
 30
0.0
 11
888.0829437866879
 21
1041.503594538423
 31
0.0
  0
LINE
  5
41C
330
22
100
AcDbEntity
  8
_2-7_ビス
  6
Continuous
 62
     7
100
AcDbLine
 10
887.923354036967
 20
1039.689559451823
 30
0.0
 11
887.923354036967
 21
1039.689559451823
 31
0.0
  0
LINE
  5
41D
330
22
100
AcDbEntity
  8
_2-7_ビス
  6
Continuous
 62
     7
100
AcDbLine
 10
887.923354036967
 20
1039.689559451823
 30
0.0
 11
887.9578772653021
 21
1039.702073002082
 31
0.0
  0
LINE
  5
41E
330
22
100
AcDbEntity
  8
_2-7_ビス
  6
Continuous
 62
     7
100
AcDbLine
 10
887.9578772653021
 20
1039.702073002082
 30
0.0
 11
887.9898995436553
 21
1039.72098732286
 31
0.0
  0
LINE
  5
41F
330
22
100
AcDbEntity
  8
_2-7_ビス
  6
Continuous
 62
     7
100
AcDbLine
 10
887.9898995436553
 20
1039.72098732286
 30
0.0
 11
888.0184478913028
 21
1039.745727712091
 31
0.0
  0
LINE
  5
420
330
22
100
AcDbEntity
  8
_2-7_ビス
  6
Continuous
 62
     7
100
AcDbLine
 10
888.0184478913028
 20
1039.745727712091
 30
0.0
 11
888.0426548811474
 21
1039.775542445569
 31
0.0
  0
LINE
  5
421
330
22
100
AcDbEntity
  8
_2-7_ビス
  6
Continuous
 62
     7
100
AcDbLine
 10
888.0426548811474
 20
1039.775542445569
 30
0.0
 11
888.0617849960525
 21
1039.809525617702
 31
0.0
  0
LINE
  5
422
330
22
100
AcDbEntity
  8
_2-7_ビス
  6
Continuous
 62
     7
100
AcDbLine
 10
888.0617849960525
 20
1039.809525617702
 30
0.0
 11
888.0752569771566
 21
1039.846644667002
 31
0.0
  0
LINE
  5
423
330
22
100
AcDbEntity
  8
_2-7_ビス
  6
Continuous
 62
     7
100
AcDbLine
 10
888.0752569771566
 20
1039.846644667002
 30
0.0
 11
888.0826614851315
 21
1039.88577174994
 31
0.0
  0
LINE
  5
424
330
22
100
AcDbEntity
  8
_2-7_ビス
  6
Continuous
 62
     7
100
AcDbLine
 10
888.0826614851315
 20
1039.88577174994
 30
0.0
 11
888.0837735377486
 21
1039.925718009899
 31
0.0
  0
LINE
  5
425
330
22
100
AcDbEntity
  8
_2-7_ビス
  6
Continuous
 62
     7
100
AcDbLine
 10
888.0837735377486
 20
1039.925718009899
 30
0.0
 11
888.0829437866879
 21
1039.936927872723
 31
0.0
  0
LINE
  5
426
330
22
100
AcDbEntity
  8
_2-7_ビス
  6
Continuous
 62
     7
100
AcDbLine
 10
887.923354036967
 20
1038.122892786123
 30
0.0
 11
887.923354036967
 21
1038.122892786123
 31
0.0
  0
LINE
  5
427
330
22
100
AcDbEntity
  8
_2-7_ビス
  6
Continuous
 62
     7
100
AcDbLine
 10
887.923354036967
 20
1038.122892786123
 30
0.0
 11
887.9578772653021
 21
1038.135406336382
 31
0.0
  0
LINE
  5
428
330
22
100
AcDbEntity
  8
_2-7_ビス
  6
Continuous
 62
     7
100
AcDbLine
 10
887.9578772653021
 20
1038.135406336382
 30
0.0
 11
887.9898995436553
 21
1038.15432065716
 31
0.0
  0
LINE
  5
429
330
22
100
AcDbEntity
  8
_2-7_ビス
  6
Continuous
 62
     7
100
AcDbLine
 10
887.9898995436553
 20
1038.15432065716
 30
0.0
 11
888.0184478913028
 21
1038.179061046391
 31
0.0
  0
LINE
  5
42A
330
22
100
AcDbEntity
  8
_2-7_ビス
  6
Continuous
 62
     7
100
AcDbLine
 10
888.0184478913028
 20
1038.179061046391
 30
0.0
 11
888.0426548811474
 21
1038.208875779868
 31
0.0
  0
LINE
  5
42B
330
22
100
AcDbEntity
  8
_2-7_ビス
  6
Continuous
 62
     7
100
AcDbLine
 10
888.0426548811474
 20
1038.208875779868
 30
0.0
 11
888.0617849960525
 21
1038.242858952002
 31
0.0
  0
LINE
  5
42C
330
22
100
AcDbEntity
  8
_2-7_ビス
  6
Continuous
 62
     7
100
AcDbLine
 10
888.0617849960525
 20
1038.242858952002
 30
0.0
 11
888.0752569771566
 21
1038.279978001302
 31
0.0
  0
LINE
  5
42D
330
22
100
AcDbEntity
  8
_2-7_ビス
  6
Continuous
 62
     7
100
AcDbLine
 10
888.0752569771566
 20
1038.279978001302
 30
0.0
 11
888.0826614851315
 21
1038.319105084239
 31
0.0
  0
LINE
  5
42E
330
22
100
AcDbEntity
  8
_2-7_ビス
  6
Continuous
 62
     7
100
AcDbLine
 10
888.0826614851315
 20
1038.319105084239
 30
0.0
 11
888.0837735377486
 21
1038.359051344199
 31
0.0
  0
LINE
  5
42F
330
22
100
AcDbEntity
  8
_2-7_ビス
  6
Continuous
 62
     7
100
AcDbLine
 10
888.0837735377486
 20
1038.359051344199
 30
0.0
 11
888.0829437866879
 21
1038.370261207022
 31
0.0
  0
LINE
  5
430
330
22
100
AcDbEntity
  8
_2-7_ビス
  6
Continuous
 62
     7
100
AcDbLine
 10
887.8660744653926
 20
1036.556226120423
 30
0.0
 11
887.8660744653926
 21
1036.556226120423
 31
0.0
  0
LINE
  5
431
330
22
100
AcDbEntity
  8
_2-7_ビス
  6
Continuous
 62
     7
100
AcDbLine
 10
887.8660744653926
 20
1036.556226120423
 30
0.0
 11
887.9005976937278
 21
1036.568739670682
 31
0.0
  0
LINE
  5
432
330
22
100
AcDbEntity
  8
_2-7_ビス
  6
Continuous
 62
     7
100
AcDbLine
 10
887.9005976937278
 20
1036.568739670682
 30
0.0
 11
887.9326199720809
 21
1036.58765399146
 31
0.0
  0
LINE
  5
433
330
22
100
AcDbEntity
  8
_2-7_ビス
  6
Continuous
 62
     7
100
AcDbLine
 10
887.9326199720809
 20
1036.58765399146
 30
0.0
 11
887.9611683197284
 21
1036.612394380691
 31
0.0
  0
LINE
  5
434
330
22
100
AcDbEntity
  8
_2-7_ビス
  6
Continuous
 62
     7
100
AcDbLine
 10
887.9611683197284
 20
1036.612394380691
 30
0.0
 11
887.9853753095732
 21
1036.642209114169
 31
0.0
  0
LINE
  5
435
330
22
100
AcDbEntity
  8
_2-7_ビス
  6
Continuous
 62
     7
100
AcDbLine
 10
887.9853753095732
 20
1036.642209114169
 30
0.0
 11
888.0045054244783
 21
1036.676192286302
 31
0.0
  0
LINE
  5
436
330
22
100
AcDbEntity
  8
_2-7_ビス
  6
Continuous
 62
     7
100
AcDbLine
 10
888.0045054244783
 20
1036.676192286302
 30
0.0
 11
888.0179774055823
 21
1036.713311335602
 31
0.0
  0
LINE
  5
437
330
22
100
AcDbEntity
  8
_2-7_ビス
  6
Continuous
 62
     7
100
AcDbLine
 10
888.0179774055823
 20
1036.713311335602
 30
0.0
 11
888.0253819135571
 21
1036.75243841854
 31
0.0
  0
LINE
  5
438
330
22
100
AcDbEntity
  8
_2-7_ビス
  6
Continuous
 62
     7
100
AcDbLine
 10
888.0253819135571
 20
1036.75243841854
 30
0.0
 11
888.0264939661744
 21
1036.792384678499
 31
0.0
  0
LINE
  5
439
330
22
100
AcDbEntity
  8
_2-7_ビス
  6
Continuous
 62
     7
100
AcDbLine
 10
888.0264939661744
 20
1036.792384678499
 30
0.0
 11
888.0256642151136
 21
1036.803594541323
 31
0.0
  0
LINE
  5
43A
330
22
100
AcDbEntity
  8
_2-7_ビス
  6
Continuous
 62
     7
100
AcDbLine
 10
887.923354036967
 20
1033.422892789022
 30
0.0
 11
887.923354036967
 21
1033.422892789022
 31
0.0
  0
LINE
  5
43B
330
22
100
AcDbEntity
  8
_2-7_ビス
  6
Continuous
 62
     7
100
AcDbLine
 10
887.923354036967
 20
1033.422892789022
 30
0.0
 11
887.9578772653021
 21
1033.435406339282
 31
0.0
  0
LINE
  5
43C
330
22
100
AcDbEntity
  8
_2-7_ビス
  6
Continuous
 62
     7
100
AcDbLine
 10
887.9578772653021
 20
1033.435406339282
 30
0.0
 11
887.9898995436553
 21
1033.45432066006
 31
0.0
  0
LINE
  5
43D
330
22
100
AcDbEntity
  8
_2-7_ビス
  6
Continuous
 62
     7
100
AcDbLine
 10
887.9898995436553
 20
1033.45432066006
 30
0.0
 11
888.0184478913028
 21
1033.479061049291
 31
0.0
  0
LINE
  5
43E
330
22
100
AcDbEntity
  8
_2-7_ビス
  6
Continuous
 62
     7
100
AcDbLine
 10
888.0184478913028
 20
1033.479061049291
 30
0.0
 11
888.0426548811474
 21
1033.508875782769
 31
0.0
  0
LINE
  5
43F
330
22
100
AcDbEntity
  8
_2-7_ビス
  6
Continuous
 62
     7
100
AcDbLine
 10
888.0426548811474
 20
1033.508875782769
 30
0.0
 11
888.0617849960525
 21
1033.542858954902
 31
0.0
  0
LINE
  5
440
330
22
100
AcDbEntity
  8
_2-7_ビス
  6
Continuous
 62
     7
100
AcDbLine
 10
888.0617849960525
 20
1033.542858954902
 30
0.0
 11
888.0752569771566
 21
1033.579978004202
 31
0.0
  0
LINE
  5
441
330
22
100
AcDbEntity
  8
_2-7_ビス
  6
Continuous
 62
     7
100
AcDbLine
 10
888.0752569771566
 20
1033.579978004202
 30
0.0
 11
888.0826614851315
 21
1033.61910508714
 31
0.0
  0
LINE
  5
442
330
22
100
AcDbEntity
  8
_2-7_ビス
  6
Continuous
 62
     7
100
AcDbLine
 10
888.0826614851315
 20
1033.61910508714
 30
0.0
 11
888.0837735377486
 21
1033.659051347099
 31
0.0
  0
LINE
  5
443
330
22
100
AcDbEntity
  8
_2-7_ビス
  6
Continuous
 62
     7
100
AcDbLine
 10
888.0837735377486
 20
1033.659051347099
 30
0.0
 11
888.0829437866879
 21
1033.670261209923
 31
0.0
  0
LINE
  5
444
330
22
100
AcDbEntity
  8
_2-7_ビス
  6
Continuous
 62
     7
100
AcDbLine
 10
887.8910739858723
 20
1031.856226123322
 30
0.0
 11
887.8910739858723
 21
1031.856226123322
 31
0.0
  0
LINE
  5
445
330
22
100
AcDbEntity
  8
_2-7_ビス
  6
Continuous
 62
     7
100
AcDbLine
 10
887.8910739858723
 20
1031.856226123322
 30
0.0
 11
887.9255972142074
 21
1031.868739673582
 31
0.0
  0
LINE
  5
446
330
22
100
AcDbEntity
  8
_2-7_ビス
  6
Continuous
 62
     7
100
AcDbLine
 10
887.9255972142074
 20
1031.868739673582
 30
0.0
 11
887.9576194925604
 21
1031.88765399436
 31
0.0
  0
LINE
  5
447
330
22
100
AcDbEntity
  8
_2-7_ビス
  6
Continuous
 62
     7
100
AcDbLine
 10
887.9576194925604
 20
1031.88765399436
 30
0.0
 11
887.9861678402081
 21
1031.912394383591
 31
0.0
  0
LINE
  5
448
330
22
100
AcDbEntity
  8
_2-7_ビス
  6
Continuous
 62
     7
100
AcDbLine
 10
887.9861678402081
 20
1031.912394383591
 30
0.0
 11
888.0103748300529
 21
1031.942209117068
 31
0.0
  0
LINE
  5
449
330
22
100
AcDbEntity
  8
_2-7_ビス
  6
Continuous
 62
     7
100
AcDbLine
 10
888.0103748300529
 20
1031.942209117068
 30
0.0
 11
888.0295049449582
 21
1031.976192289201
 31
0.0
  0
LINE
  5
44A
330
22
100
AcDbEntity
  8
_2-7_ビス
  6
Continuous
 62
     7
100
AcDbLine
 10
888.0295049449582
 20
1031.976192289201
 30
0.0
 11
888.0429769260624
 21
1032.013311338502
 31
0.0
  0
LINE
  5
44B
330
22
100
AcDbEntity
  8
_2-7_ビス
  6
Continuous
 62
     7
100
AcDbLine
 10
888.0429769260624
 20
1032.013311338502
 30
0.0
 11
888.050381434037
 21
1032.05243842144
 31
0.0
  0
LINE
  5
44C
330
22
100
AcDbEntity
  8
_2-7_ビス
  6
Continuous
 62
     7
100
AcDbLine
 10
888.050381434037
 20
1032.05243842144
 30
0.0
 11
888.0514934866539
 21
1032.092384681398
 31
0.0
  0
LINE
  5
44D
330
22
100
AcDbEntity
  8
_2-7_ビス
  6
Continuous
 62
     7
100
AcDbLine
 10
888.0514934866539
 20
1032.092384681398
 30
0.0
 11
888.0506637355932
 21
1032.103594544222
 31
0.0
  0
LINE
  5
44E
330
22
100
AcDbEntity
  8
_2-7_ビス
  6
Continuous
 62
     7
100
AcDbLine
 10
887.8589710330642
 20
1030.289559457623
 30
0.0
 11
887.8589710330642
 21
1030.289559457623
 31
0.0
  0
LINE
  5
44F
330
22
100
AcDbEntity
  8
_2-7_ビス
  6
Continuous
 62
     7
100
AcDbLine
 10
887.8589710330642
 20
1030.289559457623
 30
0.0
 11
887.8934942613989
 21
1030.302073007882
 31
0.0
  0
LINE
  5
450
330
22
100
AcDbEntity
  8
_2-7_ビス
  6
Continuous
 62
     7
100
AcDbLine
 10
887.8934942613989
 20
1030.302073007882
 30
0.0
 11
887.9255165397522
 21
1030.32098732866
 31
0.0
  0
LINE
  5
451
330
22
100
AcDbEntity
  8
_2-7_ビス
  6
Continuous
 62
     7
100
AcDbLine
 10
887.9255165397522
 20
1030.32098732866
 30
0.0
 11
887.9540648873998
 21
1030.345727717891
 31
0.0
  0
LINE
  5
452
330
22
100
AcDbEntity
  8
_2-7_ビス
  6
Continuous
 62
     7
100
AcDbLine
 10
887.9540648873998
 20
1030.345727717891
 30
0.0
 11
887.9782718772444
 21
1030.375542451368
 31
0.0
  0
LINE
  5
453
330
22
100
AcDbEntity
  8
_2-7_ビス
  6
Continuous
 62
     7
100
AcDbLine
 10
887.9782718772444
 20
1030.375542451368
 30
0.0
 11
887.9974019921496
 21
1030.409525623502
 31
0.0
  0
LINE
  5
454
330
22
100
AcDbEntity
  8
_2-7_ビス
  6
Continuous
 62
     7
100
AcDbLine
 10
887.9974019921496
 20
1030.409525623502
 30
0.0
 11
888.0108739732538
 21
1030.446644672802
 31
0.0
  0
LINE
  5
455
330
22
100
AcDbEntity
  8
_2-7_ビス
  6
Continuous
 62
     7
100
AcDbLine
 10
888.0108739732538
 20
1030.446644672802
 30
0.0
 11
888.0182784812284
 21
1030.485771755739
 31
0.0
  0
LINE
  5
456
330
22
100
AcDbEntity
  8
_2-7_ビス
  6
Continuous
 62
     7
100
AcDbLine
 10
888.0182784812284
 20
1030.485771755739
 30
0.0
 11
888.0193905338455
 21
1030.525718015699
 31
0.0
  0
LINE
  5
457
330
22
100
AcDbEntity
  8
_2-7_ビス
  6
Continuous
 62
     7
100
AcDbLine
 10
888.0193905338455
 20
1030.525718015699
 30
0.0
 11
888.0185607827847
 21
1030.536927878523
 31
0.0
  0
LINE
  5
458
330
22
100
AcDbEntity
  8
_2-7_ビス
  6
Continuous
 62
     7
100
AcDbLine
 10
887.8366561020344
 20
1028.722892791924
 30
0.0
 11
887.8366561020344
 21
1028.722892791924
 31
0.0
  0
LINE
  5
459
330
22
100
AcDbEntity
  8
_2-7_ビス
  6
Continuous
 62
     7
100
AcDbLine
 10
887.8366561020344
 20
1028.722892791924
 30
0.0
 11
887.8711793303695
 21
1028.735406342183
 31
0.0
  0
LINE
  5
45A
330
22
100
AcDbEntity
  8
_2-7_ビス
  6
Continuous
 62
     7
100
AcDbLine
 10
887.8711793303695
 20
1028.735406342183
 30
0.0
 11
887.9032016087228
 21
1028.754320662961
 31
0.0
  0
LINE
  5
45B
330
22
100
AcDbEntity
  8
_2-7_ビス
  6
Continuous
 62
     7
100
AcDbLine
 10
887.9032016087228
 20
1028.754320662961
 30
0.0
 11
887.9317499563702
 21
1028.779061052192
 31
0.0
  0
LINE
  5
45C
330
22
100
AcDbEntity
  8
_2-7_ビス
  6
Continuous
 62
     7
100
AcDbLine
 10
887.9317499563702
 20
1028.779061052192
 30
0.0
 11
887.955956946215
 21
1028.808875785669
 31
0.0
  0
LINE
  5
45D
330
22
100
AcDbEntity
  8
_2-7_ビス
  6
Continuous
 62
     7
100
AcDbLine
 10
887.955956946215
 20
1028.808875785669
 30
0.0
 11
887.9750870611202
 21
1028.842858957802
 31
0.0
  0
LINE
  5
45E
330
22
100
AcDbEntity
  8
_2-7_ビス
  6
Continuous
 62
     7
100
AcDbLine
 10
887.9750870611202
 20
1028.842858957802
 30
0.0
 11
887.9885590422244
 21
1028.879978007103
 31
0.0
  0
LINE
  5
45F
330
22
100
AcDbEntity
  8
_2-7_ビス
  6
Continuous
 62
     7
100
AcDbLine
 10
887.9885590422244
 20
1028.879978007103
 30
0.0
 11
887.995963550199
 21
1028.919105090041
 31
0.0
  0
LINE
  5
460
330
22
100
AcDbEntity
  8
_2-7_ビス
  6
Continuous
 62
     7
100
AcDbLine
 10
887.995963550199
 20
1028.919105090041
 30
0.0
 11
887.9970756028161
 21
1028.95905135
 31
0.0
  0
LINE
  5
461
330
22
100
AcDbEntity
  8
_2-7_ビス
  6
Continuous
 62
     7
100
AcDbLine
 10
887.9970756028161
 20
1028.95905135
 30
0.0
 11
887.9962458517551
 21
1028.970261212824
 31
0.0
  0
LINE
  5
462
330
22
100
AcDbEntity
  8
_2-7_ビス
  6
Continuous
 62
     7
100
AcDbLine
 10
887.8458392869665
 20
1027.156226126223
 30
0.0
 11
887.8458392869665
 21
1027.156226126223
 31
0.0
  0
LINE
  5
463
330
22
100
AcDbEntity
  8
_2-7_ビス
  6
Continuous
 62
     7
100
AcDbLine
 10
887.8458392869665
 20
1027.156226126223
 30
0.0
 11
887.8729852229055
 21
1027.161321945072
 31
0.0
  0
LINE
  5
464
330
22
100
AcDbEntity
  8
_2-7_ビス
  6
Continuous
 62
     7
100
AcDbLine
 10
887.8729852229055
 20
1027.161321945072
 30
0.0
 11
887.8989138871373
 21
1027.171522816884
 31
0.0
  0
LINE
  5
465
330
22
100
AcDbEntity
  8
_2-7_ビス
  6
Continuous
 62
     7
100
AcDbLine
 10
887.8989138871373
 20
1027.171522816884
 30
0.0
 11
887.9228374503197
 21
1027.18651879333
 31
0.0
  0
LINE
  5
466
330
22
100
AcDbEntity
  8
_2-7_ビス
  6
Continuous
 62
     7
100
AcDbLine
 10
887.9228374503197
 20
1027.18651879333
 30
0.0
 11
887.9440290070915
 21
1027.205854229255
 31
0.0
  0
LINE
  5
467
330
22
100
AcDbEntity
  8
_2-7_ビス
  6
Continuous
 62
     7
100
AcDbLine
 10
887.9440290070915
 20
1027.205854229255
 30
0.0
 11
887.9618446627237
 21
1027.228941627223
 31
0.0
  0
LINE
  5
468
330
22
100
AcDbEntity
  8
_2-7_ビス
  6
Continuous
 62
     7
100
AcDbLine
 10
887.9618446627237
 20
1027.228941627223
 30
0.0
 11
887.9757430975347
 21
1027.255079488328
 31
0.0
  0
LINE
  5
469
330
22
100
AcDbEntity
  8
_2-7_ビス
  6
Continuous
 62
     7
100
AcDbLine
 10
887.9757430975347
 20
1027.255079488328
 30
0.0
 11
887.9853020146159
 21
1027.283473626888
 31
0.0
  0
LINE
  5
46A
330
22
100
AcDbEntity
  8
_2-7_ビス
  6
Continuous
 62
     7
100
AcDbLine
 10
887.9853020146159
 20
1027.283473626888
 30
0.0
 11
887.9902309711091
 21
1027.313261301371
 31
0.0
  0
LINE
  5
46B
330
22
100
AcDbEntity
  8
_2-7_ビス
  6
Continuous
 62
     7
100
AcDbLine
 10
887.9902309711091
 20
1027.313261301371
 30
0.0
 11
887.9903802031652
 21
1027.34353742836
 31
0.0
  0
LINE
  5
46C
330
22
100
AcDbEntity
  8
_2-7_ビス
  6
Continuous
 62
     7
100
AcDbLine
 10
887.9903802031652
 20
1027.34353742836
 30
0.0
 11
887.9857451764435
 21
1027.373382083059
 31
0.0
  0
LINE
  5
46D
330
22
100
AcDbEntity
  8
_2-7_ビス
  6
Continuous
 62
     7
100
AcDbLine
 10
887.9857451764435
 20
1027.373382083059
 30
0.0
 11
887.9764667238857
 21
1027.401888450734
 31
0.0
  0
LINE
  5
46E
330
22
100
AcDbEntity
  8
_2-7_ビス
  6
Continuous
 62
     7
100
AcDbLine
 10
887.9764667238857
 20
1027.401888450734
 30
0.0
 11
887.9628267665779
 21
1027.428190379831
 31
0.0
  0
LINE
  5
46F
330
22
100
AcDbEntity
  8
_2-7_ビス
  6
Continuous
 62
     7
100
AcDbLine
 10
887.9628267665779
 20
1027.428190379831
 30
0.0
 11
887.9627432728206
 21
1027.428322868093
 31
0.0
  0
LINE
  5
470
330
22
100
AcDbEntity
  8
_2-7_ビス
  6
Continuous
 62
     7
100
AcDbLine
 10
887.5427305369667
 20
1034.989559454723
 30
0.0
 11
887.5427305369667
 21
1034.989559454723
 31
0.0
  0
LINE
  5
471
330
22
100
AcDbEntity
  8
_2-7_ビス
  6
Continuous
 62
     7
100
AcDbLine
 10
887.5427305369667
 20
1034.989559454723
 30
0.0
 11
887.6270563677605
 21
1035.001819411371
 31
0.0
  0
LINE
  5
472
330
22
100
AcDbEntity
  8
_2-7_ビス
  6
Continuous
 62
     7
100
AcDbLine
 10
887.6270563677605
 20
1035.001819411371
 30
0.0
 11
887.7081646892188
 21
1035.029991878078
 31
0.0
  0
LINE
  5
473
330
22
100
AcDbEntity
  8
_2-7_ビス
  6
Continuous
 62
     7
100
AcDbLine
 10
887.7081646892188
 20
1035.029991878078
 30
0.0
 11
887.7835910660369
 21
1035.073220848699
 31
0.0
  0
LINE
  5
474
330
22
100
AcDbEntity
  8
_2-7_ビス
  6
Continuous
 62
     7
100
AcDbLine
 10
887.7835910660369
 20
1035.073220848699
 30
0.0
 11
887.8510437059228
 21
1035.130192832838
 31
0.0
  0
LINE
  5
475
330
22
100
AcDbEntity
  8
_2-7_ビス
  6
Continuous
 62
     7
100
AcDbLine
 10
887.8510437059228
 20
1035.130192832838
 30
0.0
 11
887.9084730945463
 21
1035.199176765585
 31
0.0
  0
LINE
  5
476
330
22
100
AcDbEntity
  8
_2-7_ビス
  6
Continuous
 62
     7
100
AcDbLine
 10
887.9084730945463
 20
1035.199176765585
 30
0.0
 11
887.9541342689945
 21
1035.278076605051
 31
0.0
  0
LINE
  5
477
330
22
100
AcDbEntity
  8
_2-7_ビス
  6
Continuous
 62
     7
100
AcDbLine
 10
887.9541342689945
 20
1035.278076605051
 30
0.0
 11
887.9866398375879
 21
1035.364495019539
 31
0.0
  0
LINE
  5
478
330
22
100
AcDbEntity
  8
_2-7_ビス
  6
Continuous
 62
     7
100
AcDbLine
 10
887.9866398375879
 20
1035.364495019539
 30
0.0
 11
888.0050021350729
 21
1035.455806229255
 31
0.0
  0
LINE
  5
479
330
22
100
AcDbEntity
  8
_2-7_ビス
  6
Continuous
 62
     7
100
AcDbLine
 10
888.0050021350729
 20
1035.455806229255
 30
0.0
 11
888.0086632323324
 21
1035.549235789297
 31
0.0
  0
LINE
  5
47A
330
22
100
AcDbEntity
  8
_2-7_ビス
  6
Continuous
 62
     7
100
AcDbLine
 10
888.0086632323324
 20
1035.549235789297
 30
0.0
 11
887.997511888779
 21
1035.641944889762
 31
0.0
  0
LINE
  5
47B
330
22
100
AcDbEntity
  8
_2-7_ビス
  6
Continuous
 62
     7
100
AcDbLine
 10
887.997511888779
 20
1035.641944889762
 30
0.0
 11
887.9718869323435
 21
1035.731116611544
 31
0.0
  0
LINE
  5
47C
330
22
100
AcDbEntity
  8
_2-7_ビス
  6
Continuous
 62
     7
100
AcDbLine
 10
887.9718869323435
 20
1035.731116611544
 30
0.0
 11
887.9325669643604
 21
1035.814041517
 31
0.0
  0
LINE
  5
47D
330
22
100
AcDbEntity
  8
_2-7_ビス
  6
Continuous
 62
     7
100
AcDbLine
 10
887.9325669643604
 20
1035.814041517
 30
0.0
 11
887.8807467021598
 21
1035.888199974841
 31
0.0
  0
LINE
  5
47E
330
22
100
AcDbEntity
  8
_2-7_ビス
  6
Continuous
 62
     7
100
AcDbLine
 10
887.8807467021598
 20
1035.888199974841
 30
0.0
 11
887.8180006781866
 21
1035.95133871785
 31
0.0
  0
LINE
  5
47F
330
22
100
AcDbEntity
  8
_2-7_ビス
  6
Continuous
 62
     7
100
AcDbLine
 10
887.8180006781866
 20
1035.95133871785
 30
0.0
 11
887.7462353986279
 21
1036.001539307271
 31
0.0
  0
LINE
  5
480
330
22
100
AcDbEntity
  8
_2-7_ビス
  6
Continuous
 62
     7
100
AcDbLine
 10
887.7462353986279
 20
1036.001539307271
 30
0.0
 11
887.6676314151888
 21
1036.037276423597
 31
0.0
  0
LINE
  5
481
330
22
100
AcDbEntity
  8
_2-7_ビス
  6
Continuous
 62
     7
100
AcDbLine
 10
887.6676314151888
 20
1036.037276423597
 30
0.0
 11
887.5845770701298
 21
1036.057464212633
 31
0.0
  0
LINE
  5
482
330
22
100
AcDbEntity
  8
_2-7_ビス
  6
Continuous
 62
     7
100
AcDbLine
 10
887.5845770701298
 20
1036.057464212633
 30
0.0
 11
887.5427305369667
 21
1036.061489278623
 31
0.0
  0
LINE
  5
483
330
22
100
AcDbEntity
  8
_2-7_ビス
  6
Continuous
 62
     7
100
AcDbLine
 10
887.5427305369667
 20
1042.822892783223
 30
0.0
 11
887.5427305369667
 21
1042.822892783223
 31
0.0
  0
LINE
  5
484
330
22
100
AcDbEntity
  8
_2-7_ビス
  6
Continuous
 62
     7
100
AcDbLine
 10
887.5427305369667
 20
1042.822892783223
 30
0.0
 11
887.6270563677605
 21
1042.835152739871
 31
0.0
  0
LINE
  5
485
330
22
100
AcDbEntity
  8
_2-7_ビス
  6
Continuous
 62
     7
100
AcDbLine
 10
887.6270563677605
 20
1042.835152739871
 30
0.0
 11
887.7081646892188
 21
1042.863325206578
 31
0.0
  0
LINE
  5
486
330
22
100
AcDbEntity
  8
_2-7_ビス
  6
Continuous
 62
     7
100
AcDbLine
 10
887.7081646892188
 20
1042.863325206578
 30
0.0
 11
887.7835910660369
 21
1042.906554177199
 31
0.0
  0
LINE
  5
487
330
22
100
AcDbEntity
  8
_2-7_ビス
  6
Continuous
 62
     7
100
AcDbLine
 10
887.7835910660369
 20
1042.906554177199
 30
0.0
 11
887.8510437059228
 21
1042.963526161338
 31
0.0
  0
LINE
  5
488
330
22
100
AcDbEntity
  8
_2-7_ビス
  6
Continuous
 62
     7
100
AcDbLine
 10
887.8510437059228
 20
1042.963526161338
 30
0.0
 11
887.9084730945463
 21
1043.032510094085
 31
0.0
  0
LINE
  5
489
330
22
100
AcDbEntity
  8
_2-7_ビス
  6
Continuous
 62
     7
100
AcDbLine
 10
887.9084730945463
 20
1043.032510094085
 30
0.0
 11
887.9541342689945
 21
1043.111409933551
 31
0.0
  0
LINE
  5
48A
330
22
100
AcDbEntity
  8
_2-7_ビス
  6
Continuous
 62
     7
100
AcDbLine
 10
887.9541342689945
 20
1043.111409933551
 30
0.0
 11
887.9866398375879
 21
1043.197828348039
 31
0.0
  0
LINE
  5
48B
330
22
100
AcDbEntity
  8
_2-7_ビス
  6
Continuous
 62
     7
100
AcDbLine
 10
887.9866398375879
 20
1043.197828348039
 30
0.0
 11
888.0050021350729
 21
1043.289139557755
 31
0.0
  0
LINE
  5
48C
330
22
100
AcDbEntity
  8
_2-7_ビス
  6
Continuous
 62
     7
100
AcDbLine
 10
888.0050021350729
 20
1043.289139557755
 30
0.0
 11
888.0086632323324
 21
1043.382569117797
 31
0.0
  0
LINE
  5
48D
330
22
100
AcDbEntity
  8
_2-7_ビス
  6
Continuous
 62
     7
100
AcDbLine
 10
888.0086632323324
 20
1043.382569117797
 30
0.0
 11
887.997511888779
 21
1043.475278218262
 31
0.0
  0
LINE
  5
48E
330
22
100
AcDbEntity
  8
_2-7_ビス
  6
Continuous
 62
     7
100
AcDbLine
 10
887.997511888779
 20
1043.475278218262
 30
0.0
 11
887.9718869323435
 21
1043.564449940044
 31
0.0
  0
LINE
  5
48F
330
22
100
AcDbEntity
  8
_2-7_ビス
  6
Continuous
 62
     7
100
AcDbLine
 10
887.9718869323435
 20
1043.564449940044
 30
0.0
 11
887.9325669643604
 21
1043.647374845501
 31
0.0
  0
LINE
  5
490
330
22
100
AcDbEntity
  8
_2-7_ビス
  6
Continuous
 62
     7
100
AcDbLine
 10
887.9325669643604
 20
1043.647374845501
 30
0.0
 11
887.8807467021598
 21
1043.721533303341
 31
0.0
  0
LINE
  5
491
330
22
100
AcDbEntity
  8
_2-7_ビス
  6
Continuous
 62
     7
100
AcDbLine
 10
887.8807467021598
 20
1043.721533303341
 30
0.0
 11
887.8180006781866
 21
1043.78467204635
 31
0.0
  0
LINE
  5
492
330
22
100
AcDbEntity
  8
_2-7_ビス
  6
Continuous
 62
     7
100
AcDbLine
 10
887.8180006781866
 20
1043.78467204635
 30
0.0
 11
887.7462353986279
 21
1043.834872635771
 31
0.0
  0
LINE
  5
493
330
22
100
AcDbEntity
  8
_2-7_ビス
  6
Continuous
 62
     7
100
AcDbLine
 10
887.7462353986279
 20
1043.834872635771
 30
0.0
 11
887.6676314151888
 21
1043.870609752097
 31
0.0
  0
LINE
  5
494
330
22
100
AcDbEntity
  8
_2-7_ビス
  6
Continuous
 62
     7
100
AcDbLine
 10
887.6676314151888
 20
1043.870609752097
 30
0.0
 11
887.5845770701298
 21
1043.890797541132
 31
0.0
  0
LINE
  5
495
330
22
100
AcDbEntity
  8
_2-7_ビス
  6
Continuous
 62
     7
100
AcDbLine
 10
887.5845770701298
 20
1043.890797541132
 30
0.0
 11
887.5427305369667
 21
1043.894822607123
 31
0.0
  0
LINE
  5
496
330
22
100
AcDbEntity
  8
_2-7_ビス
  6
Continuous
 62
     7
100
AcDbLine
 10
887.9182226808564
 20
1024.435173496323
 30
0.0
 11
887.9182226808564
 21
1024.435173496323
 31
0.0
  0
LINE
  5
497
330
22
100
AcDbEntity
  8
_2-7_ビス
  6
Continuous
 62
     7
100
AcDbLine
 10
887.9182226808564
 20
1024.435173496323
 30
0.0
 11
887.9128187564301
 21
1024.574429118238
 31
0.0
  0
LINE
  5
498
330
22
100
AcDbEntity
  8
_2-7_ビス
  6
Continuous
 62
     7
100
AcDbLine
 10
887.9128187564301
 20
1024.574429118238
 30
0.0
 11
887.8855020684108
 21
1024.710537463321
 31
0.0
  0
LINE
  5
499
330
22
100
AcDbEntity
  8
_2-7_ビス
  6
Continuous
 62
     7
100
AcDbLine
 10
887.8855020684108
 20
1024.710537463321
 30
0.0
 11
887.8679473477681
 21
1024.764998057523
 31
0.0
  0
LINE
  5
49A
330
22
100
AcDbEntity
  8
_2-7_ビス
  6
Continuous
 62
     7
100
AcDbLine
 10
889.009128286966
 20
1022.43584603877
 30
0.0
 11
889.009128286966
 21
1022.43584603877
 31
0.0
  0
LINE
  5
49B
330
22
100
AcDbEntity
  8
_2-7_ビス
  6
Continuous
 62
     7
100
AcDbLine
 10
889.009128286966
 20
1022.43584603877
 30
0.0
 11
889.0063064621331
 21
1022.491686233315
 31
0.0
  0
LINE
  5
49C
330
22
100
AcDbEntity
  8
_2-7_ビス
  6
Continuous
 62
     7
100
AcDbLine
 10
889.0063064621331
 20
1022.491686233315
 30
0.0
 11
888.9947077746445
 21
1022.54613937117
 31
0.0
  0
LINE
  5
49D
330
22
100
AcDbEntity
  8
_2-7_ビス
  6
Continuous
 62
     7
100
AcDbLine
 10
888.9947077746445
 20
1022.54613937117
 30
0.0
 11
888.9746846447497
 21
1022.597550921298
 31
0.0
  0
LINE
  5
49E
330
22
100
AcDbEntity
  8
_2-7_ビス
  6
Continuous
 62
     7
100
AcDbLine
 10
888.9746846447497
 20
1022.597550921298
 30
0.0
 11
888.9468454651186
 21
1022.644358769763
 31
0.0
  0
LINE
  5
49F
330
22
100
AcDbEntity
  8
_2-7_ビス
  6
Continuous
 62
     7
100
AcDbLine
 10
888.9468454651186
 20
1022.644358769763
 30
0.0
 11
888.9120361151372
 21
1022.685140683776
 31
0.0
  0
LINE
  5
4A0
330
22
100
AcDbEntity
  8
_2-7_ビス
  6
Continuous
 62
     7
100
AcDbLine
 10
888.9120361151372
 20
1022.685140683776
 30
0.0
 11
888.8713142592903
 21
1022.718657525516
 31
0.0
  0
LINE
  5
4A1
330
22
100
AcDbEntity
  8
_2-7_ビス
  6
Continuous
 62
     7
100
AcDbLine
 10
888.8713142592903
 20
1022.718657525516
 30
0.0
 11
888.8259172105613
 21
1022.743890902707
 31
0.0
  0
LINE
  5
4A2
330
22
100
AcDbEntity
  8
_2-7_ビス
  6
Continuous
 62
     7
100
AcDbLine
 10
888.8259172105613
 20
1022.743890902707
 30
0.0
 11
888.7772243353039
 21
1022.760074111951
 31
0.0
  0
LINE
  5
4A3
330
22
100
AcDbEntity
  8
_2-7_ビス
  6
Continuous
 62
     7
100
AcDbLine
 10
888.7772243353039
 20
1022.760074111951
 30
0.0
 11
888.7267151418926
 21
1022.766715434626
 31
0.0
  0
LINE
  5
4A4
330
22
100
AcDbEntity
  8
_2-7_ビス
  6
Continuous
 62
     7
100
AcDbLine
 10
888.7267151418926
 20
1022.766715434626
 30
0.0
 11
888.6759243266114
 21
1022.763613077502
 31
0.0
  0
LINE
  5
4A5
330
22
100
AcDbEntity
  8
_2-7_ビス
  6
Continuous
 62
     7
100
AcDbLine
 10
888.6759243266114
 20
1022.763613077502
 30
0.0
 11
888.6263951426803
 21
1022.75086130413
 31
0.0
  0
LINE
  5
4A6
330
22
100
AcDbEntity
  8
_2-7_ビス
  6
Continuous
 62
     7
100
AcDbLine
 10
888.6263951426803
 20
1022.75086130413
 30
0.0
 11
888.5796325092902
 21
1022.728847570692
 31
0.0
  0
LINE
  5
4A7
330
22
100
AcDbEntity
  8
_2-7_ビス
  6
Continuous
 62
     7
100
AcDbLine
 10
888.5796325092902
 20
1022.728847570692
 30
0.0
 11
888.5370572853938
 21
1022.698240753339
 31
0.0
  0
LINE
  5
4A8
330
22
100
AcDbEntity
  8
_2-7_ビス
  6
Continuous
 62
     7
100
AcDbLine
 10
888.5370572853938
 20
1022.698240753339
 30
0.0
 11
888.4999630976253
 21
1022.659970824728
 31
0.0
  0
LINE
  5
4A9
330
22
100
AcDbEntity
  8
_2-7_ビス
  6
Continuous
 62
     7
100
AcDbLine
 10
888.4999630976253
 20
1022.659970824728
 30
0.0
 11
888.4694770341091
 21
1022.615200597275
 31
0.0
  0
LINE
  5
4AA
330
22
100
AcDbEntity
  8
_2-7_ビス
  6
Continuous
 62
     7
100
AcDbLine
 10
888.4694770341091
 20
1022.615200597275
 30
0.0
 11
888.4465253984584
 21
1022.565290391685
 31
0.0
  0
LINE
  5
4AB
330
22
100
AcDbEntity
  8
_2-7_ビス
  6
Continuous
 62
     7
100
AcDbLine
 10
888.4465253984584
 20
1022.565290391685
 30
0.0
 11
888.4318055645088
 21
1022.511756704301
 31
0.0
  0
LINE
  5
4AC
330
22
100
AcDbEntity
  8
_2-7_ビス
  6
Continuous
 62
     7
100
AcDbLine
 10
888.4318055645088
 20
1022.511756704301
 30
0.0
 11
888.4257647869659
 21
1022.456226129123
 31
0.0
  0
LINE
  5
4AD
330
22
100
AcDbEntity
  8
_2-7_ビス
  6
Continuous
 62
     7
100
AcDbLine
 10
888.4257647869659
 20
1022.456226129123
 30
0.0
 11
888.4257647869659
 21
1022.456226129123
 31
0.0
  0
LINE
  5
4AE
330
22
100
AcDbEntity
  8
_2-6_鋼板__アングル
  6
Continuous
 62
     2
100
AcDbLine
 10
866.7114805369656
 20
1111.970532785449
 30
0.0
 11
868.0405591876782
 21
1096.779094293567
 31
0.0
  0
LINE
  5
4AF
330
22
100
AcDbEntity
  8
_2-6_鋼板__アングル
  6
Continuous
 62
     2
100
AcDbLine
 10
868.0210507382376
 20
1110.770532785438
 30
0.0
 11
869.2451429926983
 21
1096.779094293567
 31
0.0
  0
LINE
  5
4B0
330
22
100
AcDbEntity
  8
_2-6_鋼板__アングル
  6
Continuous
 62
     2
100
AcDbLine
 10
868.0405591876782
 20
1096.779094293567
 30
0.0
 11
869.2451429926983
 21
1096.779094293567
 31
0.0
  0
LINE
  5
4B1
330
22
100
AcDbEntity
  8
_2-6_鋼板__アングル
  6
Continuous
 62
     2
100
AcDbLine
 10
868.0210507382376
 20
1110.770532785438
 30
0.0
 11
883.7144242621262
 21
1110.770532785438
 31
0.0
  0
LINE
  5
4B2
330
22
100
AcDbEntity
  8
_2-6_鋼板__アングル
  6
Continuous
 62
     2
100
AcDbLine
 10
896.5644673829737
 20
1111.4728303593
 30
0.0
 11
893.9614805369668
 21
1109.470532785449
 31
0.0
  0
ARC
  5
4B3
330
22
100
AcDbEntity
  8
_2-6_鋼板__アングル
  6
Continuous
 62
     2
100
AcDbCircle
 10
898.0277732090129
 20
1109.570532785449
 30
0.0
 40
2.399999999999999
100
AcDbArc
 50
90.0
 51
127.568592028826
  0
LINE
  5
4B4
330
22
100
AcDbEntity
  8
_2-6_鋼板__アングル
  6
Continuous
 62
     2
100
AcDbLine
 10
884.8584936909594
 20
1111.4728303593
 30
0.0
 11
887.461480536966
 21
1109.470532785449
 31
0.0
  0
ARC
  5
4B5
330
22
100
AcDbEntity
  8
_2-6_鋼板__アングル
  6
Continuous
 62
     2
100
AcDbCircle
 10
883.39518786492
 20
1109.570532785449
 30
0.0
 40
2.399999999999999
100
AcDbArc
 50
52.43140797117396
 51
90.0
  0
LINE
  5
4B6
330
22
100
AcDbEntity
  8
_2-6_鋼板__アングル
  6
Continuous
 62
     4
100
AcDbLine
 10
898.0277732090129
 20
1111.970532785449
 30
0.0
 11
883.39518786492
 21
1111.970532785449
 31
0.0
  0
LINE
  5
4B7
330
22
100
AcDbEntity
  8
_2-6_鋼板__アングル
  6
Continuous
 62
     2
100
AcDbLine
 10
893.9614805369668
 20
1109.470532785449
 30
0.0
 11
894.6931334499854
 21
1108.519383998523
 31
0.0
  0
LINE
  5
4B8
330
22
100
AcDbEntity
  8
_2-6_鋼板__アングル
  6
Continuous
 62
     2
100
AcDbLine
 10
887.461480536966
 20
1109.470532785449
 30
0.0
 11
886.7298276239475
 21
1108.519383998523
 31
0.0
  0
LINE
  5
4B9
330
22
100
AcDbEntity
  8
_2-6_鋼板__アングル
  6
Continuous
 62
     4
100
AcDbLine
 10
886.7298276239475
 20
1108.519383998523
 30
0.0
 11
894.6931334499854
 21
1108.519383998523
 31
0.0
  0
LINE
  5
4BA
330
22
100
AcDbEntity
  8
_2-6_鋼板__アングル
  6
Continuous
 62
     2
100
AcDbLine
 10
897.2961202959922
 20
1110.521681572375
 30
0.0
 11
894.6931334499854
 21
1108.519383998523
 31
0.0
  0
ARC
  5
4BB
330
22
100
AcDbEntity
  8
_2-6_鋼板__アングル
  6
Continuous
 62
     2
100
AcDbCircle
 10
898.0277732090129
 20
1109.570532785449
 30
0.0
 40
1.199999999999999
100
AcDbArc
 50
90.0
 51
127.568592028825
  0
LINE
  5
4BC
330
22
100
AcDbEntity
  8
_2-6_鋼板__アングル
  6
Continuous
 62
     2
100
AcDbLine
 10
884.1268407779406
 20
1110.521681572375
 30
0.0
 11
886.7298276239475
 21
1108.519383998523
 31
0.0
  0
ARC
  5
4BD
330
22
100
AcDbEntity
  8
_2-6_鋼板__アングル
  6
Continuous
 62
     2
100
AcDbCircle
 10
883.39518786492
 20
1109.570532785449
 30
0.0
 40
1.199999999999999
100
AcDbArc
 50
52.43140797117198
 51
90.00000000000005
  0
LINE
  5
4BE
330
22
100
AcDbEntity
  8
_2-6_鋼板__アングル
  6
Continuous
 62
     2
100
AcDbLine
 10
866.7114805369656
 20
1111.970532785449
 30
0.0
 11
883.39518786492
 21
1111.970532785449
 31
0.0
  0
LINE
  5
4BF
330
22
100
AcDbEntity
  8
_2-6_鋼板__アングル
  6
Continuous
 62
     2
100
AcDbLine
 10
911.6537403191713
 20
1110.41239763118
 30
0.0
 11
913.9333207902462
 21
1108.470532785449
 31
0.0
  0
ARC
  5
4C0
330
22
100
AcDbEntity
  8
_2-6_鋼板__アングル
  6
Continuous
 62
     2
100
AcDbCircle
 10
910.6810406357736
 20
1109.270532785449
 30
0.0
 40
2.7
100
AcDbArc
 50
49.57392125990146
 51
90.0
  0
ARC
  5
4C1
330
22
100
AcDbEntity
  8
_2-6_鋼板__アングル
  6
Continuous
 62
     2
100
AcDbCircle
 10
910.6810406357736
 20
1109.270532785449
 30
0.0
 40
1.5
100
AcDbArc
 50
49.57392125990146
 51
90.0
  0
LINE
  5
4C2
330
22
100
AcDbEntity
  8
_2-6_鋼板__アングル
  6
Continuous
 62
     2
100
AcDbLine
 10
914.7114805369673
 20
1109.384024662034
 30
0.0
 11
913.9333207902462
 21
1108.470532785449
 31
0.0
  0
LINE
  5
4C3
330
22
100
AcDbEntity
  8
_2-6_鋼板__アングル
  6
Continuous
 62
     2
100
AcDbLine
 10
898.0277732090129
 20
1111.970532785449
 30
0.0
 11
910.6810406357736
 21
1111.970532785449
 31
0.0
  0
LINE
  5
4C4
330
22
100
AcDbEntity
  8
_2-6_鋼板__アングル
  6
Continuous
 62
     2
100
AcDbLine
 10
897.7085368118364
 20
1110.770532785438
 30
0.0
 11
910.6810406357736
 21
1110.770532785438
 31
0.0
  0
LINE
  5
4C5
330
22
100
AcDbEntity
  8
_2-2_IN_LINE
  6
Continuous
 62
     7
100
AcDbLine
 10
892.7114805369658
 20
1103.519383998524
 30
0.0
 11
1366.711480536965
 21
1103.519383998524
 31
0.0
  0
LINE
  5
4C6
330
22
100
AcDbEntity
  8
_2-D_ハッチ他
  6
Continuous
 62
     4
100
AcDbLine
 10
892.7114805369658
 20
1065.041183319067
 30
0.0
 11
921.1896812164217
 21
1093.519383998524
 31
0.0
  0
LINE
  5
4C7
330
22
100
AcDbEntity
  8
_2-D_ハッチ他
  6
Continuous
 62
     4
100
AcDbLine
 10
892.7114805369658
 20
1095.970529292395
 30
0.0
 11
900.2603352430956
 21
1103.519383998526
 31
0.0
  0
LINE
  5
4C8
330
22
100
AcDbEntity
  8
_2-D_ハッチ他
  6
Continuous
 62
     4
100
AcDbLine
 10
892.7114805369658
 20
1071.074362274385
 30
0.0
 11
900.2664588128297
 21
1063.519383998523
 31
0.0
  0
LINE
  5
4C9
330
22
100
AcDbEntity
  8
_2-2_IN_LINE
  6
Continuous
 62
     7
100
AcDbLine
 10
892.7114805369658
 20
1093.519383998524
 30
0.0
 11
1366.711480536965
 21
1093.519383998524
 31
0.0
  0
LINE
  5
4CA
330
22
100
AcDbEntity
  8
_2-2_IN_LINE
  6
Continuous
 62
     7
100
AcDbLine
 10
868.659717981977
 20
1103.519383998524
 30
0.0
 11
888.7114805369661
 21
1103.519383998524
 31
0.0
  0
LINE
  5
4CB
330
22
100
AcDbEntity
  8
_2-D_ハッチ他
  6
Continuous
 62
     4
100
AcDbLine
 10
870.2664588128286
 20
1093.519383998524
 30
0.0
 11
888.7114805369661
 21
1075.074362274386
 31
0.0
  0
LINE
  5
4CC
330
22
100
AcDbEntity
  8
_2-D_ハッチ他
  6
Continuous
 62
     4
100
AcDbLine
 10
866.7114805369667
 20
1067.325454566526
 30
0.0
 11
888.7114805369661
 21
1089.325454566527
 31
0.0
  0
LINE
  5
4CD
330
22
100
AcDbEntity
  8
_2-2_IN_LINE
  6
Continuous
 62
     7
100
AcDbLine
 10
866.7114805369656
 20
1093.519383998524
 30
0.0
 11
888.7114805369661
 21
1093.519383998524
 31
0.0
  0
LINE
  5
4CE
330
22
100
AcDbEntity
  8
_2-6_鋼板__アングル
  6
Continuous
 62
     2
100
AcDbLine
 10
912.4319000658928
 20
1111.325889507763
 30
0.0
 11
914.7114805369673
 21
1109.384024662034
 31
0.0
  0
LINE
  5
4CF
330
22
100
AcDbEntity
  8
_2-6_鋼板__アングル
  6
Continuous
 62
     2
100
AcDbLine
 10
914.7114805369673
 20
1109.384024662034
 30
0.0
 11
915.7264934897838
 21
1108.519383998523
 31
0.0
  0
LINE
  5
4D0
330
22
100
AcDbEntity
  8
_2-4_OUT_LINE
  6
Continuous
 62
     2
100
AcDbLine
 10
917.5674273380304
 20
1113.519383998523
 30
0.0
 11
962.7114805369576
 21
1113.519383998523
 31
0.0
  0
LINE
  5
4D1
330
22
100
AcDbEntity
  8
_2-4_OUT_LINE
  6
Continuous
 62
     2
100
AcDbLine
 10
874.7114805369651
 20
1117.019383998527
 30
0.0
 11
913.4587316858503
 21
1117.019383998527
 31
0.0
  0
LINE
  5
4D2
330
22
100
AcDbEntity
  8
_2-4_OUT_LINE
  6
Continuous
 62
     2
100
AcDbLine
 10
913.4587316858503
 20
1117.019383998527
 30
0.0
 11
917.5674273380304
 21
1113.519383998523
 31
0.0
  0
LINE
  5
4D3
330
22
100
AcDbEntity
  8
_2-4_OUT_LINE
  6
Continuous
 62
     2
100
AcDbLine
 10
868.2222746643468
 20
1108.519383998523
 30
0.0
 11
962.7114805369576
 21
1108.519383998523
 31
0.0
  0
LINE
  5
4D4
330
22
100
AcDbEntity
  8
_2-6_鋼板__アングル
  6
Continuous
 62
     2
100
AcDbLine
 10
968.2105979849561
 20
470.2093510221067
 30
0.0
 11
964.6564468171172
 21
470.7705327854495
 31
0.0
  0
ARC
  5
4D5
330
22
100
AcDbEntity
  8
_2-6_鋼板__アングル
  6
Continuous
 62
     2
100
AcDbCircle
 10
968.2417904996496
 20
470.406903615173
 30
0.0
 40
0.1999999999999999
100
AcDbArc
 50
261.027373385103
 51
334.8585477781127
  0
ARC
  5
4D6
330
22
100
AcDbEntity
  8
_2-6_鋼板__アングル
  6
Continuous
 62
     2
100
AcDbCircle
 10
968.0941443783954
 20
470.4761964143978
 30
0.0
 40
0.3630977288186556
100
AcDbArc
 50
334.8585477781081
 51
35.33836331065241
  0
ARC
  5
4D7
330
22
100
AcDbEntity
  8
_2-6_鋼板__アングル
  6
Continuous
 62
     2
100
AcDbCircle
 10
968.2271914311364
 20
470.5705327854497
 30
0.0
 40
0.1999999999999999
100
AcDbArc
 50
35.33836331068903
 51
89.99999999998218
  0
LINE
  5
4D8
330
22
100
AcDbEntity
  8
_2-6_鋼板__アングル
  6
Continuous
 62
     2
100
AcDbLine
 10
968.0234428967887
 20
469.0240354637119
 30
0.0
 11
964.562293192449
 21
469.5705327854495
 31
0.0
  0
ARC
  5
4D9
330
22
100
AcDbEntity
  8
_2-6_鋼板__アングル
  6
Continuous
 62
     2
100
AcDbCircle
 10
968.2417904996496
 20
470.406903615173
 30
0.0
 40
1.399999999999999
100
AcDbArc
 50
261.0273733851059
 51
334.858547778124
  0
ARC
  5
4DA
330
22
100
AcDbEntity
  8
_2-6_鋼板__アングル
  6
Continuous
 62
     2
100
AcDbCircle
 10
968.0941443783954
 20
470.4761964143978
 30
0.0
 40
1.563097728818655
100
AcDbArc
 50
334.8585477781244
 51
35.3383633109004
  0
ARC
  5
4DB
330
22
100
AcDbEntity
  8
_2-6_鋼板__アングル
  6
Continuous
 62
     2
100
AcDbCircle
 10
968.2271914311364
 20
470.5705327854497
 30
0.0
 40
1.399999999999999
100
AcDbArc
 50
35.33836331090254
 51
90.0000000000023
  0
LINE
  5
4DC
330
22
100
AcDbEntity
  8
_2-6_鋼板__アングル
  6
Continuous
 62
     2
100
AcDbLine
 10
960.1564468171167
 20
470.7705327854495
 30
0.0
 11
960.1564468171167
 21
469.5705327854495
 31
0.0
  0
LINE
  5
4DD
330
22
100
AcDbEntity
  8
_2-6_鋼板__アングル
  6
Continuous
 62
     2
100
AcDbLine
 10
960.1564468171167
 20
469.5705327854495
 30
0.0
 11
964.562293192449
 21
469.5705327854495
 31
0.0
  0
LINE
  5
4DE
330
22
100
AcDbEntity
  8
_2-6_鋼板__アングル
  6
Continuous
 62
     2
100
AcDbLine
 10
942.8042404672495
 20
471.4728303593
 30
0.0
 11
945.4072273132563
 21
469.4705327854496
 31
0.0
  0
ARC
  5
4DF
330
22
100
AcDbEntity
  8
_2-6_鋼板__アングル
  6
Continuous
 62
     2
100
AcDbCircle
 10
941.3409346412104
 20
469.5705327854495
 30
0.0
 40
2.399999999999999
100
AcDbArc
 50
52.43140797117396
 51
90.0
  0
LINE
  5
4E0
330
22
100
AcDbEntity
  8
_2-6_鋼板__アングル
  6
Continuous
 62
     2
100
AcDbLine
 10
954.510214159262
 20
471.4728303593
 30
0.0
 11
951.9072273132554
 21
469.4705327854496
 31
0.0
  0
ARC
  5
4E1
330
22
100
AcDbEntity
  8
_2-6_鋼板__アングル
  6
Continuous
 62
     2
100
AcDbCircle
 10
955.973519985301
 20
469.5705327854495
 30
0.0
 40
2.399999999999999
100
AcDbArc
 50
90.0
 51
127.568592028826
  0
LINE
  5
4E2
330
22
100
AcDbEntity
  8
_2-6_鋼板__アングル
  6
Continuous
 62
     4
100
AcDbLine
 10
941.3409346412104
 20
471.9705327854496
 30
0.0
 11
955.973519985301
 21
471.9705327854496
 31
0.0
  0
LINE
  5
4E3
330
22
100
AcDbEntity
  8
_2-6_鋼板__アングル
  6
Continuous
 62
     2
100
AcDbLine
 10
955.973519985301
 20
471.9705327854496
 30
0.0
 11
968.2271914311364
 21
471.9705327854496
 31
0.0
  0
LINE
  5
4E4
330
22
100
AcDbEntity
  8
_2-6_鋼板__アングル
  6
Continuous
 62
     2
100
AcDbLine
 10
945.4072273132563
 20
469.4705327854496
 30
0.0
 11
944.6755744002354
 21
468.5193839985237
 31
0.0
  0
LINE
  5
4E5
330
22
100
AcDbEntity
  8
_2-6_鋼板__アングル
  6
Continuous
 62
     2
100
AcDbLine
 10
951.9072273132554
 20
469.4705327854496
 30
0.0
 11
952.6388802262758
 21
468.5193839985237
 31
0.0
  0
LINE
  5
4E6
330
22
100
AcDbEntity
  8
_2-6_鋼板__アングル
  6
Continuous
 62
     4
100
AcDbLine
 10
952.6388802262758
 20
468.5193839985237
 30
0.0
 11
944.6755744002354
 21
468.5193839985237
 31
0.0
  0
LINE
  5
4E7
330
22
100
AcDbEntity
  8
_2-6_鋼板__アングル
  6
Continuous
 62
     2
100
AcDbLine
 10
942.0725875542288
 20
470.5216815723752
 30
0.0
 11
944.6755744002354
 21
468.5193839985237
 31
0.0
  0
ARC
  5
4E8
330
22
100
AcDbEntity
  8
_2-6_鋼板__アングル
  6
Continuous
 62
     2
100
AcDbCircle
 10
941.3409346412104
 20
469.5705327854495
 30
0.0
 40
1.199999999999999
100
AcDbArc
 50
52.43140797117494
 51
90.0
  0
LINE
  5
4E9
330
22
100
AcDbEntity
  8
_2-6_鋼板__アングル
  6
Continuous
 62
     2
100
AcDbLine
 10
955.2418670722827
 20
470.5216815723752
 30
0.0
 11
952.6388802262758
 21
468.5193839985237
 31
0.0
  0
ARC
  5
4EA
330
22
100
AcDbEntity
  8
_2-6_鋼板__アングル
  6
Continuous
 62
     2
100
AcDbCircle
 10
955.973519985301
 20
469.5705327854495
 30
0.0
 40
1.199999999999999
100
AcDbArc
 50
89.99999999999994
 51
127.568592028828
  0
LINE
  5
4EB
330
22
100
AcDbEntity
  8
_2-6_鋼板__アングル
  6
Continuous
 62
     2
100
AcDbLine
 10
955.973519985301
 20
470.7705327854495
 30
0.0
 11
968.2271914311364
 21
470.7705327854495
 31
0.0
  0
LINE
  5
4EC
330
22
100
AcDbEntity
  8
_2-6_鋼板__アングル
  6
Continuous
 62
     2
100
AcDbLine
 10
868.1087126123937
 20
490.7773851116764
 30
0.0
 11
866.9103571706896
 21
490.7145819641852
 31
0.0
  0
LINE
  5
4ED
330
22
100
AcDbEntity
  8
_2-6_鋼板__アングル
  6
Continuous
 62
     2
100
AcDbLine
 10
866.9103571706896
 20
490.7145819641852
 30
0.0
 11
866.7114805369656
 21
494.5093741962518
 31
0.0
  0
ARC
  5
4EE
330
22
100
AcDbEntity
  8
_2-6_鋼板__アングル
  6
Continuous
 62
     2
100
AcDbCircle
 10
867.9098359786721
 20
494.5721773437429
 30
0.0
 40
1.200000000000208
100
AcDbArc
 50
3.000000000010512
 51
182.9999999999969
  0
LINE
  5
4EF
330
22
100
AcDbEntity
  8
_2-6_鋼板__アングル
  6
Continuous
 62
     2
100
AcDbLine
 10
878.6468729804036
 20
470.7705327854495
 30
0.0
 11
941.3409346412104
 21
470.7705327854495
 31
0.0
  0
LINE
  5
4F0
330
22
100
AcDbEntity
  8
_2-6_鋼板__アングル
  6
Continuous
 62
     2
100
AcDbLine
 10
868.6605776328596
 20
480.247173223019
 30
0.0
 11
867.9098359786721
 21
494.5721773437429
 31
0.0
  0
ARC
  5
4F1
330
22
100
AcDbEntity
  8
_2-6_鋼板__アングル
  6
Continuous
 62
     2
100
AcDbCircle
 10
878.6468729804036
 20
480.7705327854495
 30
0.0
 40
10.0
100
AcDbArc
 50
183.000000000001
 51
270.0
  0
LINE
  5
4F2
330
22
100
AcDbEntity
  8
_2-6_鋼板__アングル
  6
Continuous
 62
     2
100
AcDbLine
 10
878.6468729804061
 20
471.9705327854496
 30
0.0
 11
941.3409346412104
 21
471.9705327854496
 31
0.0
  0
LINE
  5
4F3
330
22
100
AcDbEntity
  8
_2-6_鋼板__アングル
  6
Continuous
 62
     2
100
AcDbLine
 10
869.858933074564
 20
480.3099763705113
 30
0.0
 11
869.1081914203763
 21
494.6349804912342
 31
0.0
  0
ARC
  5
4F4
330
22
100
AcDbEntity
  8
_2-6_鋼板__アングル
  6
Continuous
 62
     2
100
AcDbCircle
 10
878.6468729804061
 20
480.7705327854495
 30
0.0
 40
8.8
100
AcDbArc
 50
183.0000000000005
 51
270.0
  0
LINE
  5
4F5
330
22
100
AcDbEntity
  8
_2-6_鋼板__アングル
  6
Continuous
 62
     4
100
AcDbLine
 10
868.2010187662205
 20
489.0160787734016
 30
0.0
 11
869.3993742079269
 21
489.0788819208927
 31
0.0
  0
LINE
  5
4F6
330
22
100
AcDbEntity
  8
_2-6_鋼板__アングル
  6
Continuous
 62
     4
100
AcDbLine
 10
868.5412024818001
 20
482.5249867974974
 30
0.0
 11
869.7395579235044
 21
482.5877899449888
 31
0.0
  0
LINE
  5
4F7
330
22
100
AcDbEntity
  8
_2-7_ビス
  6
Continuous
 62
     7
100
AcDbLine
 10
950.7822281380558
 20
468.5193839985237
 30
0.0
 11
946.5322264884566
 21
468.5193839985237
 31
0.0
  0
LINE
  5
4F8
330
22
100
AcDbEntity
  8
_2-7_ビス
  6
Continuous
 62
     7
100
AcDbLine
 10
943.6572231892601
 20
471.3943872977217
 30
0.0
 11
946.5322264884566
 21
468.5193839985237
 31
0.0
  0
LINE
  5
4F9
330
22
100
AcDbEntity
  8
_2-7_ビス
  6
Continuous
 62
     7
100
AcDbLine
 10
953.6572314372536
 20
471.3943872977217
 30
0.0
 11
943.6572231892601
 21
471.3943872977217
 31
0.0
  0
LINE
  5
4FA
330
22
100
AcDbEntity
  8
_2-7_ビス
  6
Continuous
 62
     7
100
AcDbLine
 10
943.6572231892601
 20
471.8944136913028
 30
0.0
 11
943.6572231892601
 21
471.3943872977217
 31
0.0
  0
LINE
  5
4FB
330
22
100
AcDbEntity
  8
_2-7_ビス
  6
Continuous
 62
     7
100
AcDbLine
 10
953.6572314372536
 20
471.3943872977217
 30
0.0
 11
953.6572314372536
 21
471.8944136913028
 31
0.0
  0
LINE
  5
4FC
330
22
100
AcDbEntity
  8
_2-7_ビス
  6
Continuous
 62
     7
100
AcDbLine
 10
953.6572314372536
 20
471.8944136913028
 30
0.0
 11
943.6572231892601
 21
471.8944136913028
 31
0.0
  0
LINE
  5
4FD
330
22
100
AcDbEntity
  8
_2-7_ビス
  6
Continuous
 62
     7
100
AcDbLine
 10
953.6572314372536
 20
471.3943872977217
 30
0.0
 11
950.7822281380558
 21
468.5193839985237
 31
0.0
  0
ARC
  5
4FE
330
22
100
AcDbEntity
  8
_2-7_ビス
  6
DASHED3
 62
     7
100
AcDbCircle
 10
948.6572273132567
 20
470.6299467096716
 30
0.0
 40
1.840317539266638
100
AcDbArc
 50
217.1175079345703
 51
322.8824768066406
  0
LINE
  5
4FF
330
22
100
AcDbEntity
  8
_2-7_ビス
  6
DASHED3
 62
     7
100
AcDbLine
 10
951.2072431494061
 20
471.3943872977217
 30
0.0
 11
950.1247186693589
 21
469.5193625537382
 31
0.0
  0
LINE
  5
500
330
22
100
AcDbEntity
  8
_2-7_ビス
  6
DASHED3
 62
     7
100
AcDbLine
 10
946.1072485930818
 20
471.3943872977217
 30
0.0
 11
947.1897730731276
 21
469.5193625537382
 31
0.0
  0
LINE
  5
501
330
22
100
AcDbEntity
  8
_2-7_ビス
  6
DASHED3
 62
     7
100
AcDbLine
 10
946.1072485930818
 20
471.3943872977217
 30
0.0
 11
946.1072485930818
 21
471.8944136913028
 31
0.0
  0
LINE
  5
502
330
22
100
AcDbEntity
  8
_2-7_ビス
  6
DASHED3
 62
     7
100
AcDbLine
 10
951.2072431494061
 20
471.3943872977217
 30
0.0
 11
951.2072431494061
 21
471.8944136913028
 31
0.0
  0
LINE
  5
503
330
22
100
AcDbEntity
  8
_2-7_ビス
  6
Continuous
 62
     7
100
AcDbLine
 10
950.657227313256
 20
468.5193839985237
 30
0.0
 11
950.657227313256
 21
423.5193839985237
 31
0.0
  0
LINE
  5
504
330
22
100
AcDbEntity
  8
_2-7_ビス
  6
Continuous
 62
     7
100
AcDbLine
 10
946.6572273132564
 20
468.5193839985237
 30
0.0
 11
946.6572273132564
 21
423.5193839985237
 31
0.0
  0
LINE
  5
505
330
22
100
AcDbEntity
  8
_2-7_ビス
  6
Continuous
 62
     7
100
AcDbLine
 10
951.6572273132576
 20
419.4238988256114
 30
0.0
 11
951.6572273132576
 21
423.5193839985237
 31
0.0
  0
LINE
  5
506
330
22
100
AcDbEntity
  8
_2-7_ビス
  6
Continuous
 62
     7
100
AcDbLine
 10
951.6572273132576
 20
423.5193839985237
 30
0.0
 11
948.6572273132567
 21
423.5193839985237
 31
0.0
  0
LINE
  5
507
330
22
100
AcDbEntity
  8
_2-7_ビス
  6
Continuous
 62
     7
100
AcDbLine
 10
951.6572273132576
 20
419.4238988256114
 30
0.0
 11
952.4072273132567
 21
418.5993379054076
 31
0.0
  0
LINE
  5
508
330
22
100
AcDbEntity
  8
_2-7_ビス
  6
Continuous
 62
     7
100
AcDbLine
 10
952.4072273132567
 20
418.5993379054076
 30
0.0
 11
952.4072273132567
 21
416.5007321782928
 31
0.0
  0
LINE
  5
509
330
22
100
AcDbEntity
  8
_2-7_ビス
  6
Continuous
 62
     7
100
AcDbLine
 10
952.4072273132567
 20
416.5007321782928
 30
0.0
 11
951.8590080632563
 21
412.3831388650438
 31
0.0
  0
LINE
  5
50A
330
22
100
AcDbEntity
  8
_2-7_ビス
  6
Continuous
 62
     7
100
AcDbLine
 10
951.8590080632563
 20
412.3831388650438
 30
0.0
 11
951.6170843132563
 21
411.9755243565231
 31
0.0
  0
LINE
  5
50B
330
22
100
AcDbEntity
  8
_2-7_ビス
  6
Continuous
 62
     7
100
AcDbLine
 10
951.6170843132563
 20
411.9755243565231
 30
0.0
 11
951.6572273132576
 21
411.9755243565231
 31
0.0
  0
LINE
  5
50C
330
22
100
AcDbEntity
  8
_2-7_ビス
  6
Continuous
 62
     7
100
AcDbLine
 10
951.6572273132576
 20
411.9755243565231
 30
0.0
 11
951.6572273132576
 21
410.1614892699234
 31
0.0
  0
LINE
  5
50D
330
22
100
AcDbEntity
  8
_2-7_ビス
  6
Continuous
 62
     7
100
AcDbLine
 10
951.6572273132576
 20
410.1614892699234
 30
0.0
 11
951.2242147526897
 21
409.3369278669234
 31
0.0
  0
LINE
  5
50E
330
22
100
AcDbEntity
  8
_2-7_ビス
  6
Continuous
 62
     7
100
AcDbLine
 10
951.354118563257
 20
409.0895594460226
 30
0.0
 11
952.3322273132563
 21
409.0895594460226
 31
0.0
  0
LINE
  5
50F
330
22
100
AcDbEntity
  8
_2-7_ビス
  6
Continuous
 62
     7
100
AcDbLine
 10
952.3322273132563
 20
409.0895594460226
 30
0.0
 11
952.3322273132563
 21
404.8561688521436
 31
0.0
  0
LINE
  5
510
330
22
100
AcDbEntity
  8
_2-7_ビス
  6
Continuous
 62
     7
100
AcDbLine
 10
952.3322273132563
 20
404.8561688521436
 30
0.0
 11
951.8307578132564
 21
403.8948226071232
 31
0.0
  0
LINE
  5
511
330
22
100
AcDbEntity
  8
_2-7_ビス
  6
Continuous
 62
     7
100
AcDbLine
 10
951.8307578132564
 20
403.8948226071232
 30
0.0
 11
951.8259773132566
 21
403.8948226071232
 31
0.0
  0
LINE
  5
512
330
22
100
AcDbEntity
  8
_2-7_ビス
  6
Continuous
 62
     7
100
AcDbLine
 10
951.8259731399719
 20
403.8948229609052
 30
0.0
 11
951.8259773132566
 21
403.8948226071232
 31
0.0
  0
LINE
  5
513
330
22
100
AcDbEntity
  8
_2-7_ビス
  6
Continuous
 62
     7
100
AcDbLine
 10
951.8259731399719
 20
403.8948229609052
 30
0.0
 11
951.8259773132566
 21
403.8948226071232
 31
0.0
  0
LINE
  5
514
330
22
100
AcDbEntity
  8
_2-7_ビス
  6
Continuous
 62
     7
100
AcDbLine
 10
951.793386063257
 20
402.8228927832237
 30
0.0
 11
952.3322273132563
 21
402.8228927832237
 31
0.0
  0
LINE
  5
515
330
22
100
AcDbEntity
  8
_2-7_ビス
  6
Continuous
 62
     7
100
AcDbLine
 10
952.3322273132563
 20
402.8228927832237
 30
0.0
 11
952.3322273132563
 21
397.0256596464498
 31
0.0
  0
LINE
  5
516
330
22
100
AcDbEntity
  8
_2-7_ビス
  6
Continuous
 62
     7
100
AcDbLine
 10
952.3322273132563
 20
397.0256596464498
 30
0.0
 11
951.8259801261963
 21
396.061508276685
 31
0.0
  0
LINE
  5
517
330
22
100
AcDbEntity
  8
_2-7_ビス
  6
Continuous
 62
     7
100
AcDbLine
 10
951.8259773132566
 20
396.0614892786231
 30
0.0
 11
951.8223856829012
 21
396.5389406758635
 31
0.0
  0
LINE
  5
518
330
22
100
AcDbEntity
  8
_2-7_ビス
  6
Continuous
 62
     7
100
AcDbLine
 10
951.8223856829012
 20
396.5389406758635
 30
0.0
 11
951.5017056752775
 21
396.5562261204235
 31
0.0
  0
LINE
  5
519
330
22
100
AcDbEntity
  8
_2-7_ビス
  6
Continuous
 62
     7
100
AcDbLine
 10
951.3430436351095
 20
396.8035945413232
 30
0.0
 11
951.793386063257
 21
397.6281559443231
 31
0.0
  0
LINE
  5
51A
330
22
100
AcDbEntity
  8
_2-7_ビス
  6
Continuous
 62
     7
100
AcDbLine
 10
951.793386063257
 20
397.6281559443231
 30
0.0
 11
951.7933862153801
 21
398.1056074133181
 31
0.0
  0
LINE
  5
51B
330
22
100
AcDbEntity
  8
_2-7_ビス
  6
Continuous
 62
     7
100
AcDbLine
 10
951.7933862153801
 20
398.1056074133181
 30
0.0
 11
951.4453538132576
 21
398.1228927861235
 31
0.0
  0
LINE
  5
51C
330
22
100
AcDbEntity
  8
_2-7_ビス
  6
Continuous
 62
     7
100
AcDbLine
 10
951.2857640635363
 20
398.3702612070232
 30
0.0
 11
951.793386063257
 21
399.1948226100232
 31
0.0
  0
LINE
  5
51D
330
22
100
AcDbEntity
  8
_2-7_ビス
  6
Continuous
 62
     7
100
AcDbLine
 10
951.793386063257
 20
399.1948226100232
 30
0.0
 11
951.793386063257
 21
399.6722741711317
 31
0.0
  0
LINE
  5
51E
330
22
100
AcDbEntity
  8
_2-7_ビス
  6
Continuous
 62
     7
100
AcDbLine
 10
951.793386063257
 20
399.6722741711317
 30
0.0
 11
951.4453538132576
 21
399.6895594518236
 31
0.0
  0
LINE
  5
51F
330
22
100
AcDbEntity
  8
_2-7_ビス
  6
Continuous
 62
     7
100
AcDbLine
 10
951.2857640635363
 20
399.9369278727232
 30
0.0
 11
951.793386063257
 21
400.7614892757231
 31
0.0
  0
LINE
  5
520
330
22
100
AcDbEntity
  8
_2-7_ビス
  6
Continuous
 62
     7
100
AcDbLine
 10
951.793386063257
 20
400.7614892757231
 30
0.0
 11
951.793386063257
 21
401.2389408368318
 31
0.0
  0
LINE
  5
521
330
22
100
AcDbEntity
  8
_2-7_ビス
  6
Continuous
 62
     7
100
AcDbLine
 10
951.793386063257
 20
401.2389408368318
 30
0.0
 11
951.4453538132576
 21
401.2562261175236
 31
0.0
  0
LINE
  5
522
330
22
100
AcDbEntity
  8
_2-7_ビス
  6
Continuous
 62
     7
100
AcDbLine
 10
951.2857640635363
 20
401.5035945384232
 30
0.0
 11
951.7933862153801
 21
402.3281559414232
 31
0.0
  0
LINE
  5
523
330
22
100
AcDbEntity
  8
_2-7_ビス
  6
Continuous
 62
     7
100
AcDbLine
 10
951.7933862153801
 20
402.3281559414232
 30
0.0
 11
951.793386063257
 21
402.8228927832237
 31
0.0
  0
LINE
  5
524
330
22
100
AcDbEntity
  8
_2-7_ビス
  6
Continuous
 62
     7
100
AcDbLine
 10
951.8259731399719
 20
403.8948229609052
 30
0.0
 11
951.8222879387268
 21
404.3722744298992
 31
0.0
  0
LINE
  5
525
330
22
100
AcDbEntity
  8
_2-7_ビス
  6
Continuous
 62
     7
100
AcDbLine
 10
951.8222879387268
 20
404.3722744298992
 30
0.0
 11
951.5048430632575
 21
404.3895594489237
 31
0.0
  0
LINE
  5
526
330
22
100
AcDbEntity
  8
_2-7_ビス
  6
Continuous
 62
     7
100
AcDbLine
 10
951.3427509229368
 20
404.6369278698233
 30
0.0
 11
951.7933862153801
 21
405.4614892728232
 31
0.0
  0
LINE
  5
527
330
22
100
AcDbEntity
  8
_2-7_ビス
  6
Continuous
 62
     7
100
AcDbLine
 10
951.7933862153801
 20
405.4614892728232
 30
0.0
 11
951.7933862153801
 21
405.9389407418171
 31
0.0
  0
LINE
  5
528
330
22
100
AcDbEntity
  8
_2-7_ビス
  6
Continuous
 62
     7
100
AcDbLine
 10
951.7933862153801
 20
405.9389407418171
 30
0.0
 11
951.4453538132576
 21
405.9562261146237
 31
0.0
  0
LINE
  5
529
330
22
100
AcDbEntity
  8
_2-7_ビス
  6
Continuous
 62
     7
100
AcDbLine
 10
951.2857640635363
 20
406.2035945355233
 30
0.0
 11
951.793386063257
 21
407.0281559385234
 31
0.0
  0
LINE
  5
52A
330
22
100
AcDbEntity
  8
_2-7_ビス
  6
Continuous
 62
     7
100
AcDbLine
 10
951.793386063257
 20
407.0281559385234
 30
0.0
 11
951.7933862153801
 21
407.5056074075171
 31
0.0
  0
LINE
  5
52B
330
22
100
AcDbEntity
  8
_2-7_ビス
  6
Continuous
 62
     7
100
AcDbLine
 10
951.7933862153801
 20
407.5056074075171
 30
0.0
 11
951.4444677207686
 21
407.5231243614831
 31
0.0
  0
LINE
  5
52C
330
22
100
AcDbEntity
  8
_2-7_ビス
  6
Continuous
 62
     7
100
AcDbLine
 10
951.2857640635363
 20
407.7702612012234
 30
0.0
 11
951.7933862153801
 21
408.5948226042233
 31
0.0
  0
LINE
  5
52D
330
22
100
AcDbEntity
  8
_2-7_ビス
  6
Continuous
 62
     7
100
AcDbLine
 10
951.7933862153801
 20
408.5948226042233
 30
0.0
 11
951.7933860577498
 21
409.0895594460226
 31
0.0
  0
LINE
  5
52E
330
22
100
AcDbEntity
  8
_2-7_ビス
  6
Continuous
 62
     7
100
AcDbLine
 10
951.793386063257
 20
394.9895594547235
 30
0.0
 11
952.3322273132563
 21
394.9895594547235
 31
0.0
  0
LINE
  5
52F
330
22
100
AcDbEntity
  8
_2-7_ビス
  6
Continuous
 62
     7
100
AcDbLine
 10
952.3322273132563
 20
394.9895594547235
 30
0.0
 11
952.3322273132563
 21
391.7413177198858
 31
0.0
  0
LINE
  5
530
330
22
100
AcDbEntity
  8
_2-7_ビス
  6
Continuous
 62
     7
100
AcDbLine
 10
952.3322273132563
 20
391.7413177198858
 30
0.0
 11
951.8264415632572
 21
388.2281559501229
 31
0.0
  0
LINE
  5
531
330
22
100
AcDbEntity
  8
_2-7_ビス
  6
Continuous
 62
     7
100
AcDbLine
 10
951.8264415632572
 20
388.2281559501229
 30
0.0
 11
951.8257070455932
 21
388.7056070342641
 31
0.0
  0
LINE
  5
532
330
22
100
AcDbEntity
  8
_2-7_ビス
  6
Continuous
 62
     7
100
AcDbLine
 10
951.8257070455932
 20
388.7056070342641
 30
0.0
 11
951.5170185632561
 21
388.7228927919233
 31
0.0
  0
LINE
  5
533
330
22
100
AcDbEntity
  8
_2-7_ビス
  6
Continuous
 62
     7
100
AcDbLine
 10
951.8264415632572
 20
388.2281559501229
 30
0.0
 11
951.3929647526898
 21
387.4035945471229
 31
0.0
  0
LINE
  5
534
330
22
100
AcDbEntity
  8
_2-7_ビス
  6
Continuous
 62
     7
100
AcDbLine
 10
951.3724619984687
 20
388.970261212823
 30
0.0
 11
951.8230643319293
 21
389.7948226158229
 31
0.0
  0
LINE
  5
535
330
22
100
AcDbEntity
  8
_2-7_ビス
  6
Continuous
 62
     7
100
AcDbLine
 10
951.8230643319293
 20
389.7948226158229
 30
0.0
 11
951.8209794276671
 21
390.2722736999629
 31
0.0
  0
LINE
  5
536
330
22
100
AcDbEntity
  8
_2-7_ビス
  6
Continuous
 62
     7
100
AcDbLine
 10
951.8209794276671
 20
390.2722736999629
 30
0.0
 11
951.498652563257
 21
390.2895594576234
 31
0.0
  0
LINE
  5
537
330
22
100
AcDbEntity
  8
_2-7_ビス
  6
Continuous
 62
     7
100
AcDbLine
 10
951.3501470674393
 20
390.5369278785229
 30
0.0
 11
951.8140149267624
 21
391.3614888966692
 31
0.0
  0
LINE
  5
538
330
22
100
AcDbEntity
  8
_2-7_ビス
  6
Continuous
 62
     7
100
AcDbLine
 10
951.8140149267624
 20
391.3614888966692
 30
0.0
 11
951.8099520860662
 21
391.8389403656642
 31
0.0
  0
LINE
  5
539
330
22
100
AcDbEntity
  8
_2-7_ビス
  6
Continuous
 62
     7
100
AcDbLine
 10
951.8099520860662
 20
391.8389403656642
 30
0.0
 11
951.4752987307984
 21
391.8562261233234
 31
0.0
  0
LINE
  5
53A
330
22
100
AcDbEntity
  8
_2-7_ビス
  6
Continuous
 62
     7
100
AcDbLine
 10
951.3180441146298
 20
392.1035945442231
 30
0.0
 11
951.7982467388351
 21
392.9281555623692
 31
0.0
  0
LINE
  5
53B
330
22
100
AcDbEntity
  8
_2-7_ビス
  6
Continuous
 62
     7
100
AcDbLine
 10
951.7982467388351
 20
392.9281555623692
 30
0.0
 11
951.793386063257
 21
393.4056075083316
 31
0.0
  0
LINE
  5
53C
330
22
100
AcDbEntity
  8
_2-7_ビス
  6
Continuous
 62
     7
100
AcDbLine
 10
951.793386063257
 20
393.4056075083316
 30
0.0
 11
951.4453538132576
 21
393.4228927890234
 31
0.0
  0
LINE
  5
53D
330
22
100
AcDbEntity
  8
_2-7_ビス
  6
Continuous
 62
     7
100
AcDbLine
 10
951.2857640635363
 20
393.6702612099231
 30
0.0
 11
951.7933862153801
 21
394.4948226129231
 31
0.0
  0
LINE
  5
53E
330
22
100
AcDbEntity
  8
_2-7_ビス
  6
Continuous
 62
     7
100
AcDbLine
 10
951.7933862153801
 20
394.4948226129231
 30
0.0
 11
951.793386063257
 21
394.9895594547235
 31
0.0
  0
LINE
  5
53F
330
22
100
AcDbEntity
  8
_2-7_ビス
  6
Continuous
 62
     7
100
AcDbLine
 10
951.522868563256
 20
387.1562261262232
 30
0.0
 11
951.6572273132576
 21
387.1562261262232
 31
0.0
  0
LINE
  5
540
330
22
100
AcDbEntity
  8
_2-7_ビス
  6
Continuous
 62
     7
100
AcDbLine
 10
951.6572273132576
 20
387.1562261262232
 30
0.0
 11
951.6572273132576
 21
386.3728927933727
 31
0.0
  0
LINE
  5
541
330
22
100
AcDbEntity
  8
_2-7_ビス
  6
Continuous
 62
     7
100
AcDbLine
 10
951.6572273132576
 20
386.3728927933727
 30
0.0
 11
951.5072273132567
 21
386.3728927933727
 31
0.0
  0
LINE
  5
542
330
22
100
AcDbEntity
  8
_2-7_ビス
  6
Continuous
 62
     7
100
AcDbLine
 10
951.5072273132567
 20
386.3728927933727
 30
0.0
 11
951.5072273132567
 21
384.7649980575233
 31
0.0
  0
LINE
  5
543
330
22
100
AcDbEntity
  8
_2-7_ビス
  6
Continuous
 62
     7
100
AcDbLine
 10
951.5072273132567
 20
384.7649980575233
 30
0.0
 11
951.500760502456
 21
384.7649980575233
 31
0.0
  0
LINE
  5
544
330
22
100
AcDbEntity
  8
_2-7_ビス
  6
Continuous
 62
     7
100
AcDbLine
 10
951.4504853132573
 20
384.4351734963237
 30
0.0
 11
951.4504851667183
 21
378.4847319035037
 31
0.0
  0
LINE
  5
545
330
22
100
AcDbEntity
  8
_2-7_ビス
  6
Continuous
 62
     7
100
AcDbLine
 10
951.4504851667183
 20
378.4847319035037
 30
0.0
 11
951.0100478132574
 21
377.8333110793444
 31
0.0
  0
LINE
  5
546
330
22
100
AcDbEntity
  8
_2-7_ビス
  6
Continuous
 62
     7
100
AcDbLine
 10
951.0100478132574
 20
377.8333110793444
 30
0.0
 11
950.0072273132566
 21
376.5193840275236
 31
0.0
  0
LINE
  5
547
330
22
100
AcDbEntity
  8
_2-7_ビス
  6
Continuous
 62
     7
100
AcDbLine
 10
950.0072273132566
 20
376.5193840275236
 30
0.0
 11
949.8578488337622
 21
376.5193840275236
 31
0.0
  0
LINE
  5
548
330
22
100
AcDbEntity
  8
_2-7_ビス
  6
Continuous
 62
     7
100
AcDbLine
 10
949.8578488337622
 20
376.5193840275236
 30
0.0
 11
950.9429429430769
 21
378.4847319035037
 31
0.0
  0
LINE
  5
549
330
22
100
AcDbEntity
  8
_2-7_ビス
  6
Continuous
 62
     7
100
AcDbLine
 10
950.9429429430769
 20
378.4847319035037
 30
0.0
 11
950.9429430632573
 21
382.4562261291232
 31
0.0
  0
LINE
  5
54A
330
22
100
AcDbEntity
  8
_2-7_ビス
  6
Continuous
 62
     7
100
AcDbLine
 10
950.3595795632575
 20
382.4562261291232
 30
0.0
 11
950.3595798366893
 21
378.4847320562022
 31
0.0
  0
LINE
  5
54B
330
22
100
AcDbEntity
  8
_2-7_ビス
  6
Continuous
 62
     7
100
AcDbLine
 10
950.3595798366893
 20
378.4847320562022
 30
0.0
 11
949.2744854714562
 21
376.5193840275236
 31
0.0
  0
LINE
  5
54C
330
22
100
AcDbEntity
  8
_2-7_ビス
  6
Continuous
 62
     7
100
AcDbLine
 10
949.2744854714562
 20
376.5193840275236
 30
0.0
 11
948.6572273132567
 21
376.5193840275236
 31
0.0
  0
LINE
  5
54D
330
22
100
AcDbEntity
  8
_2-7_ビス
  6
Continuous
 62
     7
100
AcDbLine
 10
951.2349274183399
 20
409.3573272795888
 30
0.0
 11
951.2349274183399
 21
409.3573272795888
 31
0.0
  0
LINE
  5
54E
330
22
100
AcDbEntity
  8
_2-7_ビス
  6
Continuous
 62
     7
100
AcDbLine
 10
951.2349274183399
 20
409.3573272795888
 30
0.0
 11
951.2217292929856
 21
409.3310679242121
 31
0.0
  0
LINE
  5
54F
330
22
100
AcDbEntity
  8
_2-7_ビス
  6
Continuous
 62
     7
100
AcDbLine
 10
951.2217292929856
 20
409.3310679242121
 30
0.0
 11
951.2128792356136
 21
409.3026878342432
 31
0.0
  0
LINE
  5
550
330
22
100
AcDbEntity
  8
_2-7_ビス
  6
Continuous
 62
     7
100
AcDbLine
 10
951.2128792356136
 20
409.3026878342432
 30
0.0
 11
951.2086461507408
 21
409.2730493243548
 31
0.0
  0
LINE
  5
551
330
22
100
AcDbEntity
  8
_2-7_ビス
  6
Continuous
 62
     7
100
AcDbLine
 10
951.2086461507408
 20
409.2730493243548
 30
0.0
 11
951.209158658508
 21
409.2430529456719
 31
0.0
  0
LINE
  5
552
330
22
100
AcDbEntity
  8
_2-7_ビス
  6
Continuous
 62
     7
100
AcDbLine
 10
951.209158658508
 20
409.2430529456719
 30
0.0
 11
951.2144011866258
 21
409.213610122982
 31
0.0
  0
LINE
  5
553
330
22
100
AcDbEntity
  8
_2-7_ビス
  6
Continuous
 62
     7
100
AcDbLine
 10
951.2144011866258
 20
409.213610122982
 30
0.0
 11
951.2242144435312
 21
409.1856154615536
 31
0.0
  0
LINE
  5
554
330
22
100
AcDbEntity
  8
_2-7_ビス
  6
Continuous
 62
     7
100
AcDbLine
 10
951.2242144435312
 20
409.1856154615536
 30
0.0
 11
951.2383002583783
 21
409.1599195650085
 31
0.0
  0
LINE
  5
555
330
22
100
AcDbEntity
  8
_2-7_ビス
  6
Continuous
 62
     7
100
AcDbLine
 10
951.2383002583783
 20
409.1599195650085
 30
0.0
 11
951.2562306408106
 21
409.1373031901601
 31
0.0
  0
LINE
  5
556
330
22
100
AcDbEntity
  8
_2-7_ビス
  6
Continuous
 62
     7
100
AcDbLine
 10
951.2562306408106
 20
409.1373031901601
 30
0.0
 11
951.277460785231
 21
409.1184535241139
 31
0.0
  0
LINE
  5
557
330
22
100
AcDbEntity
  8
_2-7_ビス
  6
Continuous
 62
     7
100
AcDbLine
 10
951.277460785231
 20
409.1184535241139
 30
0.0
 11
951.3013456244447
 21
409.1039433044344
 31
0.0
  0
LINE
  5
558
330
22
100
AcDbEntity
  8
_2-7_ビス
  6
Continuous
 62
     7
100
AcDbLine
 10
951.3013456244447
 20
409.1039433044344
 30
0.0
 11
951.3271594296982
 21
409.094213416804
 31
0.0
  0
LINE
  5
559
330
22
100
AcDbEntity
  8
_2-7_ビス
  6
Continuous
 62
     7
100
AcDbLine
 10
951.3271594296982
 20
409.094213416804
 30
0.0
 11
951.3541178615817
 21
409.0895594989347
 31
0.0
  0
LINE
  5
55A
330
22
100
AcDbEntity
  8
_2-7_ビス
  6
Continuous
 62
     7
100
AcDbLine
 10
951.3541178615817
 20
409.0895594989347
 30
0.0
 11
951.354118563257
 21
409.0895594460226
 31
0.0
  0
LINE
  5
55B
330
22
100
AcDbEntity
  8
_2-7_ビス
  6
Continuous
 62
     7
100
AcDbLine
 10
951.2857640635356
 20
407.7702612012232
 30
0.0
 11
951.2857640635356
 21
407.7702612012232
 31
0.0
  0
LINE
  5
55C
330
22
100
AcDbEntity
  8
_2-7_ビス
  6
Continuous
 62
     7
100
AcDbLine
 10
951.2857640635356
 20
407.7702612012232
 30
0.0
 11
951.2850929579483
 21
407.7303030472348
 31
0.0
  0
LINE
  5
55D
330
22
100
AcDbEntity
  8
_2-7_ビス
  6
Continuous
 62
     7
100
AcDbLine
 10
951.2850929579483
 20
407.7303030472348
 30
0.0
 11
951.2907432765125
 21
407.6908238256526
 31
0.0
  0
LINE
  5
55E
330
22
100
AcDbEntity
  8
_2-7_ビス
  6
Continuous
 62
     7
100
AcDbLine
 10
951.2907432765125
 20
407.6908238256526
 30
0.0
 11
951.3025433371574
 21
407.6530230926466
 31
0.0
  0
LINE
  5
55F
330
22
100
AcDbEntity
  8
_2-7_ビス
  6
Continuous
 62
     7
100
AcDbLine
 10
951.3025433371574
 20
407.6530230926466
 30
0.0
 11
951.3201346010111
 21
407.6180494043614
 31
0.0
  0
LINE
  5
560
330
22
100
AcDbEntity
  8
_2-7_ビス
  6
Continuous
 62
     7
100
AcDbLine
 10
951.3201346010111
 20
407.6180494043614
 30
0.0
 11
951.3429825664239
 21
407.586965418618
 31
0.0
  0
LINE
  5
561
330
22
100
AcDbEntity
  8
_2-7_ビス
  6
Continuous
 62
     7
100
AcDbLine
 10
951.3429825664239
 20
407.586965418618
 30
0.0
 11
951.3703930095275
 21
407.5607156065936
 31
0.0
  0
LINE
  5
562
330
22
100
AcDbEntity
  8
_2-7_ビス
  6
Continuous
 62
     7
100
AcDbLine
 10
951.3703930095275
 20
407.5607156065936
 30
0.0
 11
951.4015330778791
 21
407.540097555544
 31
0.0
  0
LINE
  5
563
330
22
100
AcDbEntity
  8
_2-7_ビス
  6
Continuous
 62
     7
100
AcDbLine
 10
951.4015330778791
 20
407.540097555544
 30
0.0
 11
951.4354565962593
 21
407.5257377345168
 31
0.0
  0
LINE
  5
564
330
22
100
AcDbEntity
  8
_2-7_ビス
  6
Continuous
 62
     7
100
AcDbLine
 10
951.4354565962593
 20
407.5257377345168
 30
0.0
 11
951.4453538132563
 21
407.5228927803231
 31
0.0
  0
LINE
  5
565
330
22
100
AcDbEntity
  8
_2-7_ビス
  6
Continuous
 62
     7
100
AcDbLine
 10
951.2857640635356
 20
406.2035945355232
 30
0.0
 11
951.2857640635356
 21
406.2035945355232
 31
0.0
  0
LINE
  5
566
330
22
100
AcDbEntity
  8
_2-7_ビス
  6
Continuous
 62
     7
100
AcDbLine
 10
951.2857640635356
 20
406.2035945355232
 30
0.0
 11
951.2850929579483
 21
406.1636363815347
 31
0.0
  0
LINE
  5
567
330
22
100
AcDbEntity
  8
_2-7_ビス
  6
Continuous
 62
     7
100
AcDbLine
 10
951.2850929579483
 20
406.1636363815347
 30
0.0
 11
951.2907432765125
 21
406.1241571599524
 31
0.0
  0
LINE
  5
568
330
22
100
AcDbEntity
  8
_2-7_ビス
  6
Continuous
 62
     7
100
AcDbLine
 10
951.2907432765125
 20
406.1241571599524
 30
0.0
 11
951.3025433371574
 21
406.0863564269466
 31
0.0
  0
LINE
  5
569
330
22
100
AcDbEntity
  8
_2-7_ビス
  6
Continuous
 62
     7
100
AcDbLine
 10
951.3025433371574
 20
406.0863564269466
 30
0.0
 11
951.3201346010111
 21
406.0513827386613
 31
0.0
  0
LINE
  5
56A
330
22
100
AcDbEntity
  8
_2-7_ビス
  6
Continuous
 62
     7
100
AcDbLine
 10
951.3201346010111
 20
406.0513827386613
 30
0.0
 11
951.3429825664239
 21
406.0202987529179
 31
0.0
  0
LINE
  5
56B
330
22
100
AcDbEntity
  8
_2-7_ビス
  6
Continuous
 62
     7
100
AcDbLine
 10
951.3429825664239
 20
406.0202987529179
 30
0.0
 11
951.3703930095275
 21
405.9940489408937
 31
0.0
  0
LINE
  5
56C
330
22
100
AcDbEntity
  8
_2-7_ビス
  6
Continuous
 62
     7
100
AcDbLine
 10
951.3703930095275
 20
405.9940489408937
 30
0.0
 11
951.4015330778791
 21
405.9734308898439
 31
0.0
  0
LINE
  5
56D
330
22
100
AcDbEntity
  8
_2-7_ビス
  6
Continuous
 62
     7
100
AcDbLine
 10
951.4015330778791
 20
405.9734308898439
 30
0.0
 11
951.4354565962593
 21
405.9590710688167
 31
0.0
  0
LINE
  5
56E
330
22
100
AcDbEntity
  8
_2-7_ビス
  6
Continuous
 62
     7
100
AcDbLine
 10
951.4354565962593
 20
405.9590710688167
 30
0.0
 11
951.4453538132563
 21
405.9562261146231
 31
0.0
  0
LINE
  5
56F
330
22
100
AcDbEntity
  8
_2-7_ビス
  6
Continuous
 62
     7
100
AcDbLine
 10
951.3427509229373
 20
404.6369278698231
 30
0.0
 11
951.3427509229373
 21
404.6369278698231
 31
0.0
  0
LINE
  5
570
330
22
100
AcDbEntity
  8
_2-7_ビス
  6
Continuous
 62
     7
100
AcDbLine
 10
951.3427509229373
 20
404.6369278698231
 30
0.0
 11
951.3420798173502
 21
404.5969697158348
 31
0.0
  0
LINE
  5
571
330
22
100
AcDbEntity
  8
_2-7_ビス
  6
Continuous
 62
     7
100
AcDbLine
 10
951.3420798173502
 20
404.5969697158348
 30
0.0
 11
951.3477301359143
 21
404.5574904942524
 31
0.0
  0
LINE
  5
572
330
22
100
AcDbEntity
  8
_2-7_ビス
  6
Continuous
 62
     7
100
AcDbLine
 10
951.3477301359143
 20
404.5574904942524
 30
0.0
 11
951.359530196559
 21
404.5196897612465
 31
0.0
  0
LINE
  5
573
330
22
100
AcDbEntity
  8
_2-7_ビス
  6
Continuous
 62
     7
100
AcDbLine
 10
951.359530196559
 20
404.5196897612465
 30
0.0
 11
951.3771214604126
 21
404.4847160729613
 31
0.0
  0
LINE
  5
574
330
22
100
AcDbEntity
  8
_2-7_ビス
  6
Continuous
 62
     7
100
AcDbLine
 10
951.3771214604126
 20
404.4847160729613
 30
0.0
 11
951.3999694258254
 21
404.4536320872178
 31
0.0
  0
LINE
  5
575
330
22
100
AcDbEntity
  8
_2-7_ビス
  6
Continuous
 62
     7
100
AcDbLine
 10
951.3999694258254
 20
404.4536320872178
 30
0.0
 11
951.4273798689293
 21
404.4273822751936
 31
0.0
  0
LINE
  5
576
330
22
100
AcDbEntity
  8
_2-7_ビス
  6
Continuous
 62
     7
100
AcDbLine
 10
951.4273798689293
 20
404.4273822751936
 30
0.0
 11
951.4585199372806
 21
404.4067642241438
 31
0.0
  0
LINE
  5
577
330
22
100
AcDbEntity
  8
_2-7_ビス
  6
Continuous
 62
     7
100
AcDbLine
 10
951.4585199372806
 20
404.4067642241438
 30
0.0
 11
951.4924434556606
 21
404.3924044031165
 31
0.0
  0
LINE
  5
578
330
22
100
AcDbEntity
  8
_2-7_ビス
  6
Continuous
 62
     7
100
AcDbLine
 10
951.4924434556606
 20
404.3924044031165
 30
0.0
 11
951.502340672658
 21
404.3895594489231
 31
0.0
  0
LINE
  5
579
330
22
100
AcDbEntity
  8
_2-7_ビス
  6
Continuous
 62
     7
100
AcDbLine
 10
951.2857640635356
 20
401.5035945384229
 30
0.0
 11
951.2857640635356
 21
401.5035945384229
 31
0.0
  0
LINE
  5
57A
330
22
100
AcDbEntity
  8
_2-7_ビス
  6
Continuous
 62
     7
100
AcDbLine
 10
951.2857640635356
 20
401.5035945384229
 30
0.0
 11
951.2850929579483
 21
401.4636363844346
 31
0.0
  0
LINE
  5
57B
330
22
100
AcDbEntity
  8
_2-7_ビス
  6
Continuous
 62
     7
100
AcDbLine
 10
951.2850929579483
 20
401.4636363844346
 30
0.0
 11
951.2907432765125
 21
401.4241571628524
 31
0.0
  0
LINE
  5
57C
330
22
100
AcDbEntity
  8
_2-7_ビス
  6
Continuous
 62
     7
100
AcDbLine
 10
951.2907432765125
 20
401.4241571628524
 30
0.0
 11
951.3025433371574
 21
401.3863564298465
 31
0.0
  0
LINE
  5
57D
330
22
100
AcDbEntity
  8
_2-7_ビス
  6
Continuous
 62
     7
100
AcDbLine
 10
951.3025433371574
 20
401.3863564298465
 30
0.0
 11
951.3201346010111
 21
401.3513827415613
 31
0.0
  0
LINE
  5
57E
330
22
100
AcDbEntity
  8
_2-7_ビス
  6
Continuous
 62
     7
100
AcDbLine
 10
951.3201346010111
 20
401.3513827415613
 30
0.0
 11
951.3429825664239
 21
401.3202987558177
 31
0.0
  0
LINE
  5
57F
330
22
100
AcDbEntity
  8
_2-7_ビス
  6
Continuous
 62
     7
100
AcDbLine
 10
951.3429825664239
 20
401.3202987558177
 30
0.0
 11
951.3703930095275
 21
401.2940489437936
 31
0.0
  0
LINE
  5
580
330
22
100
AcDbEntity
  8
_2-7_ビス
  6
Continuous
 62
     7
100
AcDbLine
 10
951.3703930095275
 20
401.2940489437936
 30
0.0
 11
951.4015330778791
 21
401.2734308927438
 31
0.0
  0
LINE
  5
581
330
22
100
AcDbEntity
  8
_2-7_ビス
  6
Continuous
 62
     7
100
AcDbLine
 10
951.4015330778791
 20
401.2734308927438
 30
0.0
 11
951.4354565962593
 21
401.2590710717165
 31
0.0
  0
LINE
  5
582
330
22
100
AcDbEntity
  8
_2-7_ビス
  6
Continuous
 62
     7
100
AcDbLine
 10
951.4354565962593
 20
401.2590710717165
 30
0.0
 11
951.4453538132563
 21
401.2562261175229
 31
0.0
  0
LINE
  5
583
330
22
100
AcDbEntity
  8
_2-7_ビス
  6
Continuous
 62
     7
100
AcDbLine
 10
951.2857640635356
 20
399.9369278727229
 30
0.0
 11
951.2857640635356
 21
399.9369278727229
 31
0.0
  0
LINE
  5
584
330
22
100
AcDbEntity
  8
_2-7_ビス
  6
Continuous
 62
     7
100
AcDbLine
 10
951.2857640635356
 20
399.9369278727229
 30
0.0
 11
951.2850929579483
 21
399.8969697187346
 31
0.0
  0
LINE
  5
585
330
22
100
AcDbEntity
  8
_2-7_ビス
  6
Continuous
 62
     7
100
AcDbLine
 10
951.2850929579483
 20
399.8969697187346
 30
0.0
 11
951.2907432765125
 21
399.8574904971524
 31
0.0
  0
LINE
  5
586
330
22
100
AcDbEntity
  8
_2-7_ビス
  6
Continuous
 62
     7
100
AcDbLine
 10
951.2907432765125
 20
399.8574904971524
 30
0.0
 11
951.3025433371574
 21
399.8196897641465
 31
0.0
  0
LINE
  5
587
330
22
100
AcDbEntity
  8
_2-7_ビス
  6
Continuous
 62
     7
100
AcDbLine
 10
951.3025433371574
 20
399.8196897641465
 30
0.0
 11
951.3201346010111
 21
399.7847160758613
 31
0.0
  0
LINE
  5
588
330
22
100
AcDbEntity
  8
_2-7_ビス
  6
Continuous
 62
     7
100
AcDbLine
 10
951.3201346010111
 20
399.7847160758613
 30
0.0
 11
951.3429825664239
 21
399.7536320901177
 31
0.0
  0
LINE
  5
589
330
22
100
AcDbEntity
  8
_2-7_ビス
  6
Continuous
 62
     7
100
AcDbLine
 10
951.3429825664239
 20
399.7536320901177
 30
0.0
 11
951.3703930095275
 21
399.7273822780935
 31
0.0
  0
LINE
  5
58A
330
22
100
AcDbEntity
  8
_2-7_ビス
  6
Continuous
 62
     7
100
AcDbLine
 10
951.3703930095275
 20
399.7273822780935
 30
0.0
 11
951.4015330778791
 21
399.7067642270438
 31
0.0
  0
LINE
  5
58B
330
22
100
AcDbEntity
  8
_2-7_ビス
  6
Continuous
 62
     7
100
AcDbLine
 10
951.4015330778791
 20
399.7067642270438
 30
0.0
 11
951.4354565962593
 21
399.6924044060165
 31
0.0
  0
LINE
  5
58C
330
22
100
AcDbEntity
  8
_2-7_ビス
  6
Continuous
 62
     7
100
AcDbLine
 10
951.4354565962593
 20
399.6924044060165
 30
0.0
 11
951.4453538132563
 21
399.689559451823
 31
0.0
  0
LINE
  5
58D
330
22
100
AcDbEntity
  8
_2-7_ビス
  6
Continuous
 62
     7
100
AcDbLine
 10
951.2857640635356
 20
398.3702612070229
 30
0.0
 11
951.2857640635356
 21
398.3702612070229
 31
0.0
  0
LINE
  5
58E
330
22
100
AcDbEntity
  8
_2-7_ビス
  6
Continuous
 62
     7
100
AcDbLine
 10
951.2857640635356
 20
398.3702612070229
 30
0.0
 11
951.2850929579483
 21
398.3303030530346
 31
0.0
  0
LINE
  5
58F
330
22
100
AcDbEntity
  8
_2-7_ビス
  6
Continuous
 62
     7
100
AcDbLine
 10
951.2850929579483
 20
398.3303030530346
 30
0.0
 11
951.2907432765125
 21
398.2908238314523
 31
0.0
  0
LINE
  5
590
330
22
100
AcDbEntity
  8
_2-7_ビス
  6
Continuous
 62
     7
100
AcDbLine
 10
951.2907432765125
 20
398.2908238314523
 30
0.0
 11
951.3025433371574
 21
398.2530230984464
 31
0.0
  0
LINE
  5
591
330
22
100
AcDbEntity
  8
_2-7_ビス
  6
Continuous
 62
     7
100
AcDbLine
 10
951.3025433371574
 20
398.2530230984464
 30
0.0
 11
951.3201346010111
 21
398.2180494101612
 31
0.0
  0
LINE
  5
592
330
22
100
AcDbEntity
  8
_2-7_ビス
  6
Continuous
 62
     7
100
AcDbLine
 10
951.3201346010111
 20
398.2180494101612
 30
0.0
 11
951.3429825664239
 21
398.1869654244178
 31
0.0
  0
LINE
  5
593
330
22
100
AcDbEntity
  8
_2-7_ビス
  6
Continuous
 62
     7
100
AcDbLine
 10
951.3429825664239
 20
398.1869654244178
 30
0.0
 11
951.3703930095275
 21
398.1607156123935
 31
0.0
  0
LINE
  5
594
330
22
100
AcDbEntity
  8
_2-7_ビス
  6
Continuous
 62
     7
100
AcDbLine
 10
951.3703930095275
 20
398.1607156123935
 30
0.0
 11
951.4015330778791
 21
398.1400975613437
 31
0.0
  0
LINE
  5
595
330
22
100
AcDbEntity
  8
_2-7_ビス
  6
Continuous
 62
     7
100
AcDbLine
 10
951.4015330778791
 20
398.1400975613437
 30
0.0
 11
951.4354565962593
 21
398.1257377403165
 31
0.0
  0
LINE
  5
596
330
22
100
AcDbEntity
  8
_2-7_ビス
  6
Continuous
 62
     7
100
AcDbLine
 10
951.4354565962593
 20
398.1257377403165
 30
0.0
 11
951.4453538132563
 21
398.1228927861229
 31
0.0
  0
LINE
  5
597
330
22
100
AcDbEntity
  8
_2-7_ビス
  6
Continuous
 62
     7
100
AcDbLine
 10
951.34304363511
 20
396.8035945413229
 30
0.0
 11
951.34304363511
 21
396.8035945413229
 31
0.0
  0
LINE
  5
598
330
22
100
AcDbEntity
  8
_2-7_ビス
  6
Continuous
 62
     7
100
AcDbLine
 10
951.34304363511
 20
396.8035945413229
 30
0.0
 11
951.3423725295229
 21
396.7636363873346
 31
0.0
  0
LINE
  5
599
330
22
100
AcDbEntity
  8
_2-7_ビス
  6
Continuous
 62
     7
100
AcDbLine
 10
951.3423725295229
 20
396.7636363873346
 30
0.0
 11
951.3480228480871
 21
396.7241571657523
 31
0.0
  0
LINE
  5
59A
330
22
100
AcDbEntity
  8
_2-7_ビス
  6
Continuous
 62
     7
100
AcDbLine
 10
951.3480228480871
 20
396.7241571657523
 30
0.0
 11
951.3598229087316
 21
396.6863564327464
 31
0.0
  0
LINE
  5
59B
330
22
100
AcDbEntity
  8
_2-7_ビス
  6
Continuous
 62
     7
100
AcDbLine
 10
951.3598229087316
 20
396.6863564327464
 30
0.0
 11
951.3774141725857
 21
396.6513827444612
 31
0.0
  0
LINE
  5
59C
330
22
100
AcDbEntity
  8
_2-7_ビス
  6
Continuous
 62
     7
100
AcDbLine
 10
951.3774141725857
 20
396.6513827444612
 30
0.0
 11
951.4002621379981
 21
396.6202987587177
 31
0.0
  0
LINE
  5
59D
330
22
100
AcDbEntity
  8
_2-7_ビス
  6
Continuous
 62
     7
100
AcDbLine
 10
951.4002621379981
 20
396.6202987587177
 30
0.0
 11
951.427672581102
 21
396.5940489466934
 31
0.0
  0
LINE
  5
59E
330
22
100
AcDbEntity
  8
_2-7_ビス
  6
Continuous
 62
     7
100
AcDbLine
 10
951.427672581102
 20
396.5940489466934
 30
0.0
 11
951.4588126494533
 21
396.5734308956437
 31
0.0
  0
LINE
  5
59F
330
22
100
AcDbEntity
  8
_2-7_ビス
  6
Continuous
 62
     7
100
AcDbLine
 10
951.4588126494533
 20
396.5734308956437
 30
0.0
 11
951.4927361678335
 21
396.5590710746165
 31
0.0
  0
LINE
  5
5A0
330
22
100
AcDbEntity
  8
_2-7_ビス
  6
Continuous
 62
     7
100
AcDbLine
 10
951.4927361678335
 20
396.5590710746165
 30
0.0
 11
951.5026333848307
 21
396.5562261204229
 31
0.0
  0
LINE
  5
5A1
330
22
100
AcDbEntity
  8
_2-7_ビス
  6
Continuous
 62
     7
100
AcDbLine
 10
951.2857640635356
 20
393.6702612099228
 30
0.0
 11
951.2857640635356
 21
393.6702612099228
 31
0.0
  0
LINE
  5
5A2
330
22
100
AcDbEntity
  8
_2-7_ビス
  6
Continuous
 62
     7
100
AcDbLine
 10
951.2857640635356
 20
393.6702612099228
 30
0.0
 11
951.2850929579483
 21
393.6303030559345
 31
0.0
  0
LINE
  5
5A3
330
22
100
AcDbEntity
  8
_2-7_ビス
  6
Continuous
 62
     7
100
AcDbLine
 10
951.2850929579483
 20
393.6303030559345
 30
0.0
 11
951.2907432765125
 21
393.5908238343522
 31
0.0
  0
LINE
  5
5A4
330
22
100
AcDbEntity
  8
_2-7_ビス
  6
Continuous
 62
     7
100
AcDbLine
 10
951.2907432765125
 20
393.5908238343522
 30
0.0
 11
951.3025433371574
 21
393.5530231013463
 31
0.0
  0
LINE
  5
5A5
330
22
100
AcDbEntity
  8
_2-7_ビス
  6
Continuous
 62
     7
100
AcDbLine
 10
951.3025433371574
 20
393.5530231013463
 30
0.0
 11
951.3201346010111
 21
393.5180494130611
 31
0.0
  0
LINE
  5
5A6
330
22
100
AcDbEntity
  8
_2-7_ビス
  6
Continuous
 62
     7
100
AcDbLine
 10
951.3201346010111
 20
393.5180494130611
 30
0.0
 11
951.3429825664239
 21
393.4869654273177
 31
0.0
  0
LINE
  5
5A7
330
22
100
AcDbEntity
  8
_2-7_ビス
  6
Continuous
 62
     7
100
AcDbLine
 10
951.3429825664239
 20
393.4869654273177
 30
0.0
 11
951.3703930095275
 21
393.4607156152933
 31
0.0
  0
LINE
  5
5A8
330
22
100
AcDbEntity
  8
_2-7_ビス
  6
Continuous
 62
     7
100
AcDbLine
 10
951.3703930095275
 20
393.4607156152933
 30
0.0
 11
951.4015330778791
 21
393.4400975642436
 31
0.0
  0
LINE
  5
5A9
330
22
100
AcDbEntity
  8
_2-7_ビス
  6
Continuous
 62
     7
100
AcDbLine
 10
951.4015330778791
 20
393.4400975642436
 30
0.0
 11
951.4354565962593
 21
393.4257377432164
 31
0.0
  0
LINE
  5
5AA
330
22
100
AcDbEntity
  8
_2-7_ビス
  6
Continuous
 62
     7
100
AcDbLine
 10
951.4354565962593
 20
393.4257377432164
 30
0.0
 11
951.4453538132563
 21
393.4228927890229
 31
0.0
  0
LINE
  5
5AB
330
22
100
AcDbEntity
  8
_2-7_ビス
  6
Continuous
 62
     7
100
AcDbLine
 10
951.3180441146303
 20
392.1035945442227
 30
0.0
 11
951.3180441146303
 21
392.1035945442227
 31
0.0
  0
LINE
  5
5AC
330
22
100
AcDbEntity
  8
_2-7_ビス
  6
Continuous
 62
     7
100
AcDbLine
 10
951.3180441146303
 20
392.1035945442227
 30
0.0
 11
951.3173730090434
 21
392.0636363902344
 31
0.0
  0
LINE
  5
5AD
330
22
100
AcDbEntity
  8
_2-7_ビス
  6
Continuous
 62
     7
100
AcDbLine
 10
951.3173730090434
 20
392.0636363902344
 30
0.0
 11
951.3230233276074
 21
392.0241571686522
 31
0.0
  0
LINE
  5
5AE
330
22
100
AcDbEntity
  8
_2-7_ビス
  6
Continuous
 62
     7
100
AcDbLine
 10
951.3230233276074
 20
392.0241571686522
 30
0.0
 11
951.3348233882519
 21
391.9863564356463
 31
0.0
  0
LINE
  5
5AF
330
22
100
AcDbEntity
  8
_2-7_ビス
  6
Continuous
 62
     7
100
AcDbLine
 10
951.3348233882519
 20
391.9863564356463
 30
0.0
 11
951.3524146521058
 21
391.9513827473609
 31
0.0
  0
LINE
  5
5B0
330
22
100
AcDbEntity
  8
_2-7_ビス
  6
Continuous
 62
     7
100
AcDbLine
 10
951.3524146521058
 20
391.9513827473609
 30
0.0
 11
951.3752626175183
 21
391.9202987616177
 31
0.0
  0
LINE
  5
5B1
330
22
100
AcDbEntity
  8
_2-7_ビス
  6
Continuous
 62
     7
100
AcDbLine
 10
951.3752626175183
 20
391.9202987616177
 30
0.0
 11
951.4026730606223
 21
391.8940489495933
 31
0.0
  0
LINE
  5
5B2
330
22
100
AcDbEntity
  8
_2-7_ビス
  6
Continuous
 62
     7
100
AcDbLine
 10
951.4026730606223
 20
391.8940489495933
 30
0.0
 11
951.4338131289736
 21
391.8734308985436
 31
0.0
  0
LINE
  5
5B3
330
22
100
AcDbEntity
  8
_2-7_ビス
  6
Continuous
 62
     7
100
AcDbLine
 10
951.4338131289736
 20
391.8734308985436
 30
0.0
 11
951.4677366473538
 21
391.8590710775163
 31
0.0
  0
LINE
  5
5B4
330
22
100
AcDbEntity
  8
_2-7_ビス
  6
Continuous
 62
     7
100
AcDbLine
 10
951.4677366473538
 20
391.8590710775163
 30
0.0
 11
951.4776338643509
 21
391.8562261233228
 31
0.0
  0
LINE
  5
5B5
330
22
100
AcDbEntity
  8
_2-7_ビス
  6
Continuous
 62
     7
100
AcDbLine
 10
951.3501470674388
 20
390.5369278785227
 30
0.0
 11
951.3501470674388
 21
390.5369278785227
 31
0.0
  0
LINE
  5
5B6
330
22
100
AcDbEntity
  8
_2-7_ビス
  6
Continuous
 62
     7
100
AcDbLine
 10
951.3501470674388
 20
390.5369278785227
 30
0.0
 11
951.3494759618515
 21
390.4969697245344
 31
0.0
  0
LINE
  5
5B7
330
22
100
AcDbEntity
  8
_2-7_ビス
  6
Continuous
 62
     7
100
AcDbLine
 10
951.3494759618515
 20
390.4969697245344
 30
0.0
 11
951.3551262804156
 21
390.457490502952
 31
0.0
  0
LINE
  5
5B8
330
22
100
AcDbEntity
  8
_2-7_ビス
  6
Continuous
 62
     7
100
AcDbLine
 10
951.3551262804156
 20
390.457490502952
 30
0.0
 11
951.3669263410603
 21
390.4196897699462
 31
0.0
  0
LINE
  5
5B9
330
22
100
AcDbEntity
  8
_2-7_ビス
  6
Continuous
 62
     7
100
AcDbLine
 10
951.3669263410603
 20
390.4196897699462
 30
0.0
 11
951.3845176049144
 21
390.384716081661
 31
0.0
  0
LINE
  5
5BA
330
22
100
AcDbEntity
  8
_2-7_ビス
  6
Continuous
 62
     7
100
AcDbLine
 10
951.3845176049144
 20
390.384716081661
 30
0.0
 11
951.4073655703267
 21
390.3536320959176
 31
0.0
  0
LINE
  5
5BB
330
22
100
AcDbEntity
  8
_2-7_ビス
  6
Continuous
 62
     7
100
AcDbLine
 10
951.4073655703267
 20
390.3536320959176
 30
0.0
 11
951.4347760134308
 21
390.3273822838933
 31
0.0
  0
LINE
  5
5BC
330
22
100
AcDbEntity
  8
_2-7_ビス
  6
Continuous
 62
     7
100
AcDbLine
 10
951.4347760134308
 20
390.3273822838933
 30
0.0
 11
951.4659160817821
 21
390.3067642328435
 31
0.0
  0
LINE
  5
5BD
330
22
100
AcDbEntity
  8
_2-7_ビス
  6
Continuous
 62
     7
100
AcDbLine
 10
951.4659160817821
 20
390.3067642328435
 30
0.0
 11
951.4998396001622
 21
390.2924044118163
 31
0.0
  0
LINE
  5
5BE
330
22
100
AcDbEntity
  8
_2-7_ビス
  6
Continuous
 62
     7
100
AcDbLine
 10
951.4998396001622
 20
390.2924044118163
 30
0.0
 11
951.5097368171593
 21
390.2895594576228
 31
0.0
  0
LINE
  5
5BF
330
22
100
AcDbEntity
  8
_2-7_ビス
  6
Continuous
 62
     7
100
AcDbLine
 10
951.3724619984682
 20
388.9702612128238
 30
0.0
 11
951.3724619984682
 21
388.9702612128238
 31
0.0
  0
LINE
  5
5C0
330
22
100
AcDbEntity
  8
_2-7_ビス
  6
Continuous
 62
     7
100
AcDbLine
 10
951.3724619984682
 20
388.9702612128238
 30
0.0
 11
951.3717908928812
 21
388.9303030588355
 31
0.0
  0
LINE
  5
5C1
330
22
100
AcDbEntity
  8
_2-7_ビス
  6
Continuous
 62
     7
100
AcDbLine
 10
951.3717908928812
 20
388.9303030588355
 30
0.0
 11
951.3774412114452
 21
388.8908238372532
 31
0.0
  0
LINE
  5
5C2
330
22
100
AcDbEntity
  8
_2-7_ビス
  6
Continuous
 62
     7
100
AcDbLine
 10
951.3774412114452
 20
388.8908238372532
 30
0.0
 11
951.3892412720899
 21
388.8530231042473
 31
0.0
  0
LINE
  5
5C3
330
22
100
AcDbEntity
  8
_2-7_ビス
  6
Continuous
 62
     7
100
AcDbLine
 10
951.3892412720899
 20
388.8530231042473
 30
0.0
 11
951.4068325359438
 21
388.8180494159621
 31
0.0
  0
LINE
  5
5C4
330
22
100
AcDbEntity
  8
_2-7_ビス
  6
Continuous
 62
     7
100
AcDbLine
 10
951.4068325359438
 20
388.8180494159621
 30
0.0
 11
951.4296805013565
 21
388.7869654302186
 31
0.0
  0
LINE
  5
5C5
330
22
100
AcDbEntity
  8
_2-7_ビス
  6
Continuous
 62
     7
100
AcDbLine
 10
951.4296805013565
 20
388.7869654302186
 30
0.0
 11
951.45709094446
 21
388.7607156181943
 31
0.0
  0
LINE
  5
5C6
330
22
100
AcDbEntity
  8
_2-7_ビス
  6
Continuous
 62
     7
100
AcDbLine
 10
951.45709094446
 20
388.7607156181943
 30
0.0
 11
951.4882310128113
 21
388.7400975671446
 31
0.0
  0
LINE
  5
5C7
330
22
100
AcDbEntity
  8
_2-7_ビス
  6
Continuous
 62
     7
100
AcDbLine
 10
951.4882310128113
 20
388.7400975671446
 30
0.0
 11
951.5221545311915
 21
388.7257377461174
 31
0.0
  0
LINE
  5
5C8
330
22
100
AcDbEntity
  8
_2-7_ビス
  6
Continuous
 62
     7
100
AcDbLine
 10
951.5221545311915
 20
388.7257377461174
 30
0.0
 11
951.5320517481887
 21
388.7228927919238
 31
0.0
  0
LINE
  5
5C9
330
22
100
AcDbEntity
  8
_2-7_ビス
  6
Continuous
 62
     7
100
AcDbLine
 10
951.4059645774027
 20
387.428322868093
 30
0.0
 11
951.4059645774027
 21
387.428322868093
 31
0.0
  0
LINE
  5
5CA
330
22
100
AcDbEntity
  8
_2-7_ビス
  6
Continuous
 62
     7
100
AcDbLine
 10
951.4059645774027
 20
387.428322868093
 30
0.0
 11
951.3923024256527
 21
387.402034866116
 31
0.0
  0
LINE
  5
5CB
330
22
100
AcDbEntity
  8
_2-7_ビス
  6
Continuous
 62
     7
100
AcDbLine
 10
951.3923024256527
 20
387.402034866116
 30
0.0
 11
951.3829999161041
 21
387.3735379768023
 31
0.0
  0
LINE
  5
5CC
330
22
100
AcDbEntity
  8
_2-7_ビス
  6
Continuous
 62
     7
100
AcDbLine
 10
951.3829999161041
 20
387.3735379768023
 30
0.0
 11
951.378339700803
 21
387.343698063714
 31
0.0
  0
LINE
  5
5CD
330
22
100
AcDbEntity
  8
_2-7_ビス
  6
Continuous
 62
     7
100
AcDbLine
 10
951.378339700803
 20
387.343698063714
 30
0.0
 11
951.378463378032
 21
387.3134217975103
 31
0.0
  0
LINE
  5
5CE
330
22
100
AcDbEntity
  8
_2-7_ビス
  6
Continuous
 62
     7
100
AcDbLine
 10
951.378463378032
 20
387.3134217975103
 30
0.0
 11
951.3833671899217
 21
387.2836291072194
 31
0.0
  0
LINE
  5
5CF
330
22
100
AcDbEntity
  8
_2-7_ビス
  6
Continuous
 62
     7
100
AcDbLine
 10
951.3833671899217
 20
387.2836291072194
 30
0.0
 11
951.3929021366296
 21
387.25522522866
 31
0.0
  0
LINE
  5
5D0
330
22
100
AcDbEntity
  8
_2-7_ビス
  6
Continuous
 62
     7
100
AcDbLine
 10
951.3929021366296
 20
387.25522522866
 30
0.0
 11
951.4067785036244
 21
387.2290731993091
 31
0.0
  0
LINE
  5
5D1
330
22
100
AcDbEntity
  8
_2-7_ビス
  6
Continuous
 62
     7
100
AcDbLine
 10
951.4067785036244
 20
387.2290731993091
 30
0.0
 11
951.4245746645165
 21
387.2059676353448
 31
0.0
  0
LINE
  5
5D2
330
22
100
AcDbEntity
  8
_2-7_ビス
  6
Continuous
 62
     7
100
AcDbLine
 10
951.4245746645165
 20
387.2059676353448
 30
0.0
 11
951.4457498919631
 21
387.1866105876362
 31
0.0
  0
LINE
  5
5D3
330
22
100
AcDbEntity
  8
_2-7_ビス
  6
Continuous
 62
     7
100
AcDbLine
 10
951.4457498919631
 20
387.1866105876362
 30
0.0
 11
951.4696607873936
 21
387.1715902102828
 31
0.0
  0
LINE
  5
5D4
330
22
100
AcDbEntity
  8
_2-7_ビス
  6
Continuous
 62
     7
100
AcDbLine
 10
951.4696607873936
 20
387.1715902102828
 30
0.0
 11
951.495580830349
 21
387.16136288985
 31
0.0
  0
LINE
  5
5D5
330
22
100
AcDbEntity
  8
_2-7_ビス
  6
Continuous
 62
     7
100
AcDbLine
 10
951.495580830349
 20
387.16136288985
 30
0.0
 11
951.5227224534406
 21
387.1562393782936
 31
0.0
  0
LINE
  5
5D6
330
22
100
AcDbEntity
  8
_2-7_ビス
  6
Continuous
 62
     7
100
AcDbLine
 10
951.5227224534406
 20
387.1562393782936
 30
0.0
 11
951.5228685632566
 21
387.1562261262236
 31
0.0
  0
LINE
  5
5D7
330
22
100
AcDbEntity
  8
_2-7_ビス
  6
Continuous
 62
     7
100
AcDbLine
 10
951.8259773132575
 20
396.0614892786232
 30
0.0
 11
951.8259773132575
 21
396.0614892786232
 31
0.0
  0
LINE
  5
5D8
330
22
100
AcDbEntity
  8
_2-7_ビス
  6
Continuous
 62
     7
100
AcDbLine
 10
951.8259773132575
 20
396.0614892786232
 30
0.0
 11
951.741651482464
 21
396.0492293219755
 31
0.0
  0
LINE
  5
5D9
330
22
100
AcDbEntity
  8
_2-7_ビス
  6
Continuous
 62
     7
100
AcDbLine
 10
951.741651482464
 20
396.0492293219755
 30
0.0
 11
951.6605431610056
 21
396.0210568552684
 31
0.0
  0
LINE
  5
5DA
330
22
100
AcDbEntity
  8
_2-7_ビス
  6
Continuous
 62
     7
100
AcDbLine
 10
951.6605431610056
 20
396.0210568552684
 30
0.0
 11
951.5851167841875
 21
395.9778278846469
 31
0.0
  0
LINE
  5
5DB
330
22
100
AcDbEntity
  8
_2-7_ビス
  6
Continuous
 62
     7
100
AcDbLine
 10
951.5851167841875
 20
395.9778278846469
 30
0.0
 11
951.5176641443016
 21
395.9208559005083
 31
0.0
  0
LINE
  5
5DC
330
22
100
AcDbEntity
  8
_2-7_ビス
  6
Continuous
 62
     7
100
AcDbLine
 10
951.5176641443016
 20
395.9208559005083
 30
0.0
 11
951.4602347556783
 21
395.8518719677617
 31
0.0
  0
LINE
  5
5DD
330
22
100
AcDbEntity
  8
_2-7_ビス
  6
Continuous
 62
     7
100
AcDbLine
 10
951.4602347556783
 20
395.8518719677617
 30
0.0
 11
951.41457358123
 21
395.7729721282958
 31
0.0
  0
LINE
  5
5DE
330
22
100
AcDbEntity
  8
_2-7_ビス
  6
Continuous
 62
     7
100
AcDbLine
 10
951.41457358123
 20
395.7729721282958
 30
0.0
 11
951.3820680126368
 21
395.6865537138076
 31
0.0
  0
LINE
  5
5DF
330
22
100
AcDbEntity
  8
_2-7_ビス
  6
Continuous
 62
     7
100
AcDbLine
 10
951.3820680126368
 20
395.6865537138076
 30
0.0
 11
951.3637057151516
 21
395.5952425040915
 31
0.0
  0
LINE
  5
5E0
330
22
100
AcDbEntity
  8
_2-7_ビス
  6
Continuous
 62
     7
100
AcDbLine
 10
951.3637057151516
 20
395.5952425040915
 30
0.0
 11
951.3600446178919
 21
395.5018129440489
 31
0.0
  0
LINE
  5
5E1
330
22
100
AcDbEntity
  8
_2-7_ビス
  6
Continuous
 62
     7
100
AcDbLine
 10
951.3600446178919
 20
395.5018129440489
 30
0.0
 11
951.3711959614456
 21
395.4091038435844
 31
0.0
  0
LINE
  5
5E2
330
22
100
AcDbEntity
  8
_2-7_ビス
  6
Continuous
 62
     7
100
AcDbLine
 10
951.3711959614456
 20
395.4091038435844
 30
0.0
 11
951.3968209178811
 21
395.3199321218023
 31
0.0
  0
LINE
  5
5E3
330
22
100
AcDbEntity
  8
_2-7_ビス
  6
Continuous
 62
     7
100
AcDbLine
 10
951.3968209178811
 20
395.3199321218023
 30
0.0
 11
951.4361408858642
 21
395.2370072163458
 31
0.0
  0
LINE
  5
5E4
330
22
100
AcDbEntity
  8
_2-7_ビス
  6
Continuous
 62
     7
100
AcDbLine
 10
951.4361408858642
 20
395.2370072163458
 30
0.0
 11
951.4879611480647
 21
395.1628487585053
 31
0.0
  0
LINE
  5
5E5
330
22
100
AcDbEntity
  8
_2-7_ビス
  6
Continuous
 62
     7
100
AcDbLine
 10
951.4879611480647
 20
395.1628487585053
 30
0.0
 11
951.550707172038
 21
395.0997100154962
 31
0.0
  0
LINE
  5
5E6
330
22
100
AcDbEntity
  8
_2-7_ビス
  6
Continuous
 62
     7
100
AcDbLine
 10
951.550707172038
 20
395.0997100154962
 30
0.0
 11
951.6224724515964
 21
395.0495094260753
 31
0.0
  0
LINE
  5
5E7
330
22
100
AcDbEntity
  8
_2-7_ビス
  6
Continuous
 62
     7
100
AcDbLine
 10
951.6224724515964
 20
395.0495094260753
 30
0.0
 11
951.7010764350358
 21
395.0137723097493
 31
0.0
  0
LINE
  5
5E8
330
22
100
AcDbEntity
  8
_2-7_ビス
  6
Continuous
 62
     7
100
AcDbLine
 10
951.7010764350358
 20
395.0137723097493
 30
0.0
 11
951.7841307800948
 21
394.9935845207138
 31
0.0
  0
LINE
  5
5E9
330
22
100
AcDbEntity
  8
_2-7_ビス
  6
Continuous
 62
     7
100
AcDbLine
 10
951.7841307800948
 20
394.9935845207138
 30
0.0
 11
951.8259773132575
 21
394.9895594547233
 31
0.0
  0
LINE
  5
5EA
330
22
100
AcDbEntity
  8
_2-7_ビス
  6
Continuous
 62
     7
100
AcDbLine
 10
951.8259773132575
 20
403.8948226071234
 30
0.0
 11
951.8259773132575
 21
403.8948226071234
 31
0.0
  0
LINE
  5
5EB
330
22
100
AcDbEntity
  8
_2-7_ビス
  6
Continuous
 62
     7
100
AcDbLine
 10
951.8259773132575
 20
403.8948226071234
 30
0.0
 11
951.741651482464
 21
403.8825626504756
 31
0.0
  0
LINE
  5
5EC
330
22
100
AcDbEntity
  8
_2-7_ビス
  6
Continuous
 62
     7
100
AcDbLine
 10
951.741651482464
 20
403.8825626504756
 30
0.0
 11
951.6605431610056
 21
403.8543901837687
 31
0.0
  0
LINE
  5
5ED
330
22
100
AcDbEntity
  8
_2-7_ビス
  6
Continuous
 62
     7
100
AcDbLine
 10
951.6605431610056
 20
403.8543901837687
 30
0.0
 11
951.5851167841875
 21
403.8111612131471
 31
0.0
  0
LINE
  5
5EE
330
22
100
AcDbEntity
  8
_2-7_ビス
  6
Continuous
 62
     7
100
AcDbLine
 10
951.5851167841875
 20
403.8111612131471
 30
0.0
 11
951.5176641443016
 21
403.7541892290086
 31
0.0
  0
LINE
  5
5EF
330
22
100
AcDbEntity
  8
_2-7_ビス
  6
Continuous
 62
     7
100
AcDbLine
 10
951.5176641443016
 20
403.7541892290086
 30
0.0
 11
951.4602347556783
 21
403.6852052962619
 31
0.0
  0
LINE
  5
5F0
330
22
100
AcDbEntity
  8
_2-7_ビス
  6
Continuous
 62
     7
100
AcDbLine
 10
951.4602347556783
 20
403.6852052962619
 30
0.0
 11
951.41457358123
 21
403.606305456796
 31
0.0
  0
LINE
  5
5F1
330
22
100
AcDbEntity
  8
_2-7_ビス
  6
Continuous
 62
     7
100
AcDbLine
 10
951.41457358123
 20
403.606305456796
 30
0.0
 11
951.3820680126368
 21
403.5198870423077
 31
0.0
  0
LINE
  5
5F2
330
22
100
AcDbEntity
  8
_2-7_ビス
  6
Continuous
 62
     7
100
AcDbLine
 10
951.3820680126368
 20
403.5198870423077
 30
0.0
 11
951.3637057151516
 21
403.4285758325917
 31
0.0
  0
LINE
  5
5F3
330
22
100
AcDbEntity
  8
_2-7_ビス
  6
Continuous
 62
     7
100
AcDbLine
 10
951.3637057151516
 20
403.4285758325917
 30
0.0
 11
951.3600446178919
 21
403.3351462725492
 31
0.0
  0
LINE
  5
5F4
330
22
100
AcDbEntity
  8
_2-7_ビス
  6
Continuous
 62
     7
100
AcDbLine
 10
951.3600446178919
 20
403.3351462725492
 30
0.0
 11
951.3711959614456
 21
403.2424371720846
 31
0.0
  0
LINE
  5
5F5
330
22
100
AcDbEntity
  8
_2-7_ビス
  6
Continuous
 62
     7
100
AcDbLine
 10
951.3711959614456
 20
403.2424371720846
 30
0.0
 11
951.3968209178811
 21
403.1532654503025
 31
0.0
  0
LINE
  5
5F6
330
22
100
AcDbEntity
  8
_2-7_ビス
  6
Continuous
 62
     7
100
AcDbLine
 10
951.3968209178811
 20
403.1532654503025
 30
0.0
 11
951.4361408858642
 21
403.0703405448459
 31
0.0
  0
LINE
  5
5F7
330
22
100
AcDbEntity
  8
_2-7_ビス
  6
Continuous
 62
     7
100
AcDbLine
 10
951.4361408858642
 20
403.0703405448459
 30
0.0
 11
951.4879611480647
 21
402.9961820870055
 31
0.0
  0
LINE
  5
5F8
330
22
100
AcDbEntity
  8
_2-7_ビス
  6
Continuous
 62
     7
100
AcDbLine
 10
951.4879611480647
 20
402.9961820870055
 30
0.0
 11
951.550707172038
 21
402.9330433439965
 31
0.0
  0
LINE
  5
5F9
330
22
100
AcDbEntity
  8
_2-7_ビス
  6
Continuous
 62
     7
100
AcDbLine
 10
951.550707172038
 20
402.9330433439965
 30
0.0
 11
951.6224724515964
 21
402.8828427545756
 31
0.0
  0
LINE
  5
5FA
330
22
100
AcDbEntity
  8
_2-7_ビス
  6
Continuous
 62
     7
100
AcDbLine
 10
951.6224724515964
 20
402.8828427545756
 30
0.0
 11
951.7010764350358
 21
402.8471056382494
 31
0.0
  0
LINE
  5
5FB
330
22
100
AcDbEntity
  8
_2-7_ビス
  6
Continuous
 62
     7
100
AcDbLine
 10
951.7010764350358
 20
402.8471056382494
 30
0.0
 11
951.7841307800948
 21
402.826917849214
 31
0.0
  0
LINE
  5
5FC
330
22
100
AcDbEntity
  8
_2-7_ビス
  6
Continuous
 62
     7
100
AcDbLine
 10
951.7841307800948
 20
402.826917849214
 30
0.0
 11
951.8259773132575
 21
402.8228927832234
 31
0.0
  0
LINE
  5
5FD
330
22
100
AcDbEntity
  8
_2-7_ビス
  6
Continuous
 62
     7
100
AcDbLine
 10
951.5007605024552
 20
384.7649980575229
 30
0.0
 11
951.5007605024552
 21
384.7649980575229
 31
0.0
  0
LINE
  5
5FE
330
22
100
AcDbEntity
  8
_2-7_ビス
  6
Continuous
 62
     7
100
AcDbLine
 10
951.5007605024552
 20
384.7649980575229
 30
0.0
 11
951.4645752885535
 21
384.6314137307558
 31
0.0
  0
LINE
  5
5FF
330
22
100
AcDbEntity
  8
_2-7_ビス
  6
Continuous
 62
     7
100
AcDbLine
 10
951.4645752885535
 20
384.6314137307558
 30
0.0
 11
951.4500389126119
 21
384.4929506785403
 31
0.0
  0
LINE
  5
600
330
22
100
AcDbEntity
  8
_2-7_ビス
  6
Continuous
 62
     7
100
AcDbLine
 10
951.4500389126119
 20
384.4929506785403
 30
0.0
 11
951.450485169367
 21
384.4351734963229
 31
0.0
  0
LINE
  5
601
330
22
100
AcDbEntity
  8
_2-7_ビス
  6
Continuous
 62
     7
100
AcDbLine
 10
950.9429430632573
 20
382.4562261291232
 30
0.0
 11
950.9429430632573
 21
382.4562261291232
 31
0.0
  0
LINE
  5
602
330
22
100
AcDbEntity
  8
_2-7_ビス
  6
Continuous
 62
     7
100
AcDbLine
 10
950.9429430632573
 20
382.4562261291232
 30
0.0
 11
950.9369022857146
 21
382.5117567043009
 31
0.0
  0
LINE
  5
603
330
22
100
AcDbEntity
  8
_2-7_ビス
  6
Continuous
 62
     7
100
AcDbLine
 10
950.9369022857146
 20
382.5117567043009
 30
0.0
 11
950.9221824517647
 21
382.5652903916857
 31
0.0
  0
LINE
  5
604
330
22
100
AcDbEntity
  8
_2-7_ビス
  6
Continuous
 62
     7
100
AcDbLine
 10
950.9221824517647
 20
382.5652903916857
 30
0.0
 11
950.8992308161143
 21
382.6152005972751
 31
0.0
  0
LINE
  5
605
330
22
100
AcDbEntity
  8
_2-7_ビス
  6
Continuous
 62
     7
100
AcDbLine
 10
950.8992308161143
 20
382.6152005972751
 30
0.0
 11
950.8687447525982
 21
382.6599708247284
 31
0.0
  0
LINE
  5
606
330
22
100
AcDbEntity
  8
_2-7_ビス
  6
Continuous
 62
     7
100
AcDbLine
 10
950.8687447525982
 20
382.6599708247284
 30
0.0
 11
950.8316505648295
 21
382.6982407533394
 31
0.0
  0
LINE
  5
607
330
22
100
AcDbEntity
  8
_2-7_ビス
  6
Continuous
 62
     7
100
AcDbLine
 10
950.8316505648295
 20
382.6982407533394
 30
0.0
 11
950.7890753409331
 21
382.7288475706926
 31
0.0
  0
LINE
  5
608
330
22
100
AcDbEntity
  8
_2-7_ビス
  6
Continuous
 62
     7
100
AcDbLine
 10
950.7890753409331
 20
382.7288475706926
 30
0.0
 11
950.7423127075432
 21
382.7508613041305
 31
0.0
  0
LINE
  5
609
330
22
100
AcDbEntity
  8
_2-7_ビス
  6
Continuous
 62
     7
100
AcDbLine
 10
950.7423127075432
 20
382.7508613041305
 30
0.0
 11
950.6927835236121
 21
382.7636130775021
 31
0.0
  0
LINE
  5
60A
330
22
100
AcDbEntity
  8
_2-7_ビス
  6
Continuous
 62
     7
100
AcDbLine
 10
950.6927835236121
 20
382.7636130775021
 30
0.0
 11
950.6419927083307
 21
382.7667154346263
 31
0.0
  0
LINE
  5
60B
330
22
100
AcDbEntity
  8
_2-7_ビス
  6
Continuous
 62
     7
100
AcDbLine
 10
950.6419927083307
 20
382.7667154346263
 30
0.0
 11
950.5914835149198
 21
382.7600741119517
 31
0.0
  0
LINE
  5
60C
330
22
100
AcDbEntity
  8
_2-7_ビス
  6
Continuous
 62
     7
100
AcDbLine
 10
950.5914835149198
 20
382.7600741119517
 30
0.0
 11
950.5427906396624
 21
382.7438909027072
 31
0.0
  0
LINE
  5
60D
330
22
100
AcDbEntity
  8
_2-7_ビス
  6
Continuous
 62
     7
100
AcDbLine
 10
950.5427906396624
 20
382.7438909027072
 30
0.0
 11
950.497393590933
 21
382.7186575255162
 31
0.0
  0
LINE
  5
60E
330
22
100
AcDbEntity
  8
_2-7_ビス
  6
Continuous
 62
     7
100
AcDbLine
 10
950.497393590933
 20
382.7186575255162
 30
0.0
 11
950.456671735086
 21
382.6851406837764
 31
0.0
  0
LINE
  5
60F
330
22
100
AcDbEntity
  8
_2-7_ビス
  6
Continuous
 62
     7
100
AcDbLine
 10
950.456671735086
 20
382.6851406837764
 30
0.0
 11
950.4218623851047
 21
382.6443587697635
 31
0.0
  0
LINE
  5
610
330
22
100
AcDbEntity
  8
_2-7_ビス
  6
Continuous
 62
     7
100
AcDbLine
 10
950.4218623851047
 20
382.6443587697635
 30
0.0
 11
950.3940232054738
 21
382.5975509212983
 31
0.0
  0
LINE
  5
611
330
22
100
AcDbEntity
  8
_2-7_ビス
  6
Continuous
 62
     7
100
AcDbLine
 10
950.3940232054738
 20
382.5975509212983
 30
0.0
 11
950.374000075579
 21
382.5461393711703
 31
0.0
  0
LINE
  5
612
330
22
100
AcDbEntity
  8
_2-7_ビス
  6
Continuous
 62
     7
100
AcDbLine
 10
950.374000075579
 20
382.5461393711703
 30
0.0
 11
950.3624013880902
 21
382.4916862333146
 31
0.0
  0
LINE
  5
613
330
22
100
AcDbEntity
  8
_2-7_ビス
  6
Continuous
 62
     7
100
AcDbLine
 10
950.3624013880902
 20
382.4916862333146
 30
0.0
 11
950.3595795632575
 21
382.4358460387706
 31
0.0
  0
LINE
  5
614
330
22
100
AcDbEntity
  8
_2-7_ビス
  6
Continuous
 62
     7
100
AcDbLine
 10
950.3595795632575
 20
382.4358460387706
 30
0.0
 11
950.3595795632575
 21
382.4358460387706
 31
0.0
  0
LINE
  5
615
330
22
100
AcDbEntity
  8
_2-7_ビス
  6
Continuous
 62
     7
100
AcDbLine
 10
945.6572273132561
 20
419.4238988256114
 30
0.0
 11
945.6572273132561
 21
423.5193839985237
 31
0.0
  0
LINE
  5
616
330
22
100
AcDbEntity
  8
_2-7_ビス
  6
Continuous
 62
     7
100
AcDbLine
 10
945.6572273132561
 20
423.5193839985237
 30
0.0
 11
948.6572273132567
 21
423.5193839985237
 31
0.0
  0
LINE
  5
617
330
22
100
AcDbEntity
  8
_2-7_ビス
  6
Continuous
 62
     7
100
AcDbLine
 10
945.6572273132561
 20
419.4238988256114
 30
0.0
 11
944.9072273132568
 21
418.5993379054076
 31
0.0
  0
LINE
  5
618
330
22
100
AcDbEntity
  8
_2-7_ビス
  6
Continuous
 62
     7
100
AcDbLine
 10
944.9072273132568
 20
418.5993379054076
 30
0.0
 11
944.9072273132568
 21
416.5007321782928
 31
0.0
  0
LINE
  5
619
330
22
100
AcDbEntity
  8
_2-7_ビス
  6
Continuous
 62
     7
100
AcDbLine
 10
944.9072273132568
 20
416.5007321782928
 30
0.0
 11
945.4554465632575
 21
412.3831388650438
 31
0.0
  0
LINE
  5
61A
330
22
100
AcDbEntity
  8
_2-7_ビス
  6
Continuous
 62
     7
100
AcDbLine
 10
945.4554465632575
 20
412.3831388650438
 30
0.0
 11
945.6973703132572
 21
411.9755243565231
 31
0.0
  0
LINE
  5
61B
330
22
100
AcDbEntity
  8
_2-7_ビス
  6
Continuous
 62
     7
100
AcDbLine
 10
945.6973703132572
 20
411.9755243565231
 30
0.0
 11
945.6572273132561
 21
411.9755243565231
 31
0.0
  0
LINE
  5
61C
330
22
100
AcDbEntity
  8
_2-7_ビス
  6
Continuous
 62
     7
100
AcDbLine
 10
945.6572273132561
 20
411.9755243565231
 30
0.0
 11
945.6572273132561
 21
410.1614892699234
 31
0.0
  0
LINE
  5
61D
330
22
100
AcDbEntity
  8
_2-7_ビス
  6
Continuous
 62
     7
100
AcDbLine
 10
945.6572273132561
 20
410.1614892699234
 30
0.0
 11
946.0902398738243
 21
409.3369278669234
 31
0.0
  0
LINE
  5
61E
330
22
100
AcDbEntity
  8
_2-7_ビス
  6
Continuous
 62
     7
100
AcDbLine
 10
945.9603360632566
 20
409.0895594460226
 30
0.0
 11
944.9822273132575
 21
409.0895594460226
 31
0.0
  0
LINE
  5
61F
330
22
100
AcDbEntity
  8
_2-7_ビス
  6
Continuous
 62
     7
100
AcDbLine
 10
944.9822273132575
 20
409.0895594460226
 30
0.0
 11
944.9822273132575
 21
404.8561688521436
 31
0.0
  0
LINE
  5
620
330
22
100
AcDbEntity
  8
_2-7_ビス
  6
Continuous
 62
     7
100
AcDbLine
 10
944.9822273132575
 20
404.8561688521436
 30
0.0
 11
945.4836968132575
 21
403.8948226071232
 31
0.0
  0
LINE
  5
621
330
22
100
AcDbEntity
  8
_2-7_ビス
  6
Continuous
 62
     7
100
AcDbLine
 10
945.4836968132575
 20
403.8948226071232
 30
0.0
 11
945.4884773132572
 21
403.8948226071232
 31
0.0
  0
LINE
  5
622
330
22
100
AcDbEntity
  8
_2-7_ビス
  6
Continuous
 62
     7
100
AcDbLine
 10
945.4884814865417
 20
403.8948229609052
 30
0.0
 11
945.4884773132572
 21
403.8948226071232
 31
0.0
  0
LINE
  5
623
330
22
100
AcDbEntity
  8
_2-7_ビス
  6
Continuous
 62
     7
100
AcDbLine
 10
945.4884814865417
 20
403.8948229609052
 30
0.0
 11
945.4884773132572
 21
403.8948226071232
 31
0.0
  0
LINE
  5
624
330
22
100
AcDbEntity
  8
_2-7_ビス
  6
Continuous
 62
     7
100
AcDbLine
 10
945.5210685632572
 20
402.8228927832237
 30
0.0
 11
944.9822273132575
 21
402.8228927832237
 31
0.0
  0
LINE
  5
625
330
22
100
AcDbEntity
  8
_2-7_ビス
  6
Continuous
 62
     7
100
AcDbLine
 10
944.9822273132575
 20
402.8228927832237
 30
0.0
 11
944.9822273132575
 21
397.0256596464498
 31
0.0
  0
LINE
  5
626
330
22
100
AcDbEntity
  8
_2-7_ビス
  6
Continuous
 62
     7
100
AcDbLine
 10
944.9822273132575
 20
397.0256596464498
 30
0.0
 11
945.4884745003184
 21
396.061508276685
 31
0.0
  0
LINE
  5
627
330
22
100
AcDbEntity
  8
_2-7_ビス
  6
Continuous
 62
     7
100
AcDbLine
 10
945.4884773132572
 20
396.0614892786231
 30
0.0
 11
945.4920689436129
 21
396.5389406758635
 31
0.0
  0
LINE
  5
628
330
22
100
AcDbEntity
  8
_2-7_ビス
  6
Continuous
 62
     7
100
AcDbLine
 10
945.4920689436129
 20
396.5389406758635
 30
0.0
 11
945.8127489512365
 21
396.5562261204235
 31
0.0
  0
LINE
  5
629
330
22
100
AcDbEntity
  8
_2-7_ビス
  6
Continuous
 62
     7
100
AcDbLine
 10
945.9714109914045
 20
396.8035945413232
 30
0.0
 11
945.5210685632572
 21
397.6281559443231
 31
0.0
  0
LINE
  5
62A
330
22
100
AcDbEntity
  8
_2-7_ビス
  6
Continuous
 62
     7
100
AcDbLine
 10
945.5210685632572
 20
397.6281559443231
 30
0.0
 11
945.5210684111341
 21
398.1056074133181
 31
0.0
  0
LINE
  5
62B
330
22
100
AcDbEntity
  8
_2-7_ビス
  6
Continuous
 62
     7
100
AcDbLine
 10
945.5210684111341
 20
398.1056074133181
 30
0.0
 11
945.8691008132573
 21
398.1228927861235
 31
0.0
  0
LINE
  5
62C
330
22
100
AcDbEntity
  8
_2-7_ビス
  6
Continuous
 62
     7
100
AcDbLine
 10
946.0286905629775
 20
398.3702612070232
 30
0.0
 11
945.5210685632572
 21
399.1948226100232
 31
0.0
  0
LINE
  5
62D
330
22
100
AcDbEntity
  8
_2-7_ビス
  6
Continuous
 62
     7
100
AcDbLine
 10
945.5210685632572
 20
399.1948226100232
 30
0.0
 11
945.5210685632572
 21
399.6722741711317
 31
0.0
  0
LINE
  5
62E
330
22
100
AcDbEntity
  8
_2-7_ビス
  6
Continuous
 62
     7
100
AcDbLine
 10
945.5210685632572
 20
399.6722741711317
 30
0.0
 11
945.8691008132573
 21
399.6895594518236
 31
0.0
  0
LINE
  5
62F
330
22
100
AcDbEntity
  8
_2-7_ビス
  6
Continuous
 62
     7
100
AcDbLine
 10
946.0286905629775
 20
399.9369278727232
 30
0.0
 11
945.5210685632572
 21
400.7614892757231
 31
0.0
  0
LINE
  5
630
330
22
100
AcDbEntity
  8
_2-7_ビス
  6
Continuous
 62
     7
100
AcDbLine
 10
945.5210685632572
 20
400.7614892757231
 30
0.0
 11
945.5210685632572
 21
401.2389408368318
 31
0.0
  0
LINE
  5
631
330
22
100
AcDbEntity
  8
_2-7_ビス
  6
Continuous
 62
     7
100
AcDbLine
 10
945.5210685632572
 20
401.2389408368318
 30
0.0
 11
945.8691008132573
 21
401.2562261175236
 31
0.0
  0
LINE
  5
632
330
22
100
AcDbEntity
  8
_2-7_ビス
  6
Continuous
 62
     7
100
AcDbLine
 10
946.0286905629775
 20
401.5035945384232
 30
0.0
 11
945.5210684111341
 21
402.3281559414232
 31
0.0
  0
LINE
  5
633
330
22
100
AcDbEntity
  8
_2-7_ビス
  6
Continuous
 62
     7
100
AcDbLine
 10
945.5210684111341
 20
402.3281559414232
 30
0.0
 11
945.5210685632572
 21
402.8228927832237
 31
0.0
  0
LINE
  5
634
330
22
100
AcDbEntity
  8
_2-7_ビス
  6
Continuous
 62
     7
100
AcDbLine
 10
945.4884814865417
 20
403.8948229609052
 30
0.0
 11
945.4921666877872
 21
404.3722744298992
 31
0.0
  0
LINE
  5
635
330
22
100
AcDbEntity
  8
_2-7_ビス
  6
Continuous
 62
     7
100
AcDbLine
 10
945.4921666877872
 20
404.3722744298992
 30
0.0
 11
945.8096115632564
 21
404.3895594489237
 31
0.0
  0
LINE
  5
636
330
22
100
AcDbEntity
  8
_2-7_ビス
  6
Continuous
 62
     7
100
AcDbLine
 10
945.9717037035781
 20
404.6369278698233
 30
0.0
 11
945.5210684111341
 21
405.4614892728232
 31
0.0
  0
LINE
  5
637
330
22
100
AcDbEntity
  8
_2-7_ビス
  6
Continuous
 62
     7
100
AcDbLine
 10
945.5210684111341
 20
405.4614892728232
 30
0.0
 11
945.5210684111341
 21
405.9389407418171
 31
0.0
  0
LINE
  5
638
330
22
100
AcDbEntity
  8
_2-7_ビス
  6
Continuous
 62
     7
100
AcDbLine
 10
945.5210684111341
 20
405.9389407418171
 30
0.0
 11
945.8691008132573
 21
405.9562261146237
 31
0.0
  0
LINE
  5
639
330
22
100
AcDbEntity
  8
_2-7_ビス
  6
Continuous
 62
     7
100
AcDbLine
 10
946.0286905629775
 20
406.2035945355233
 30
0.0
 11
945.5210685632572
 21
407.0281559385234
 31
0.0
  0
LINE
  5
63A
330
22
100
AcDbEntity
  8
_2-7_ビス
  6
Continuous
 62
     7
100
AcDbLine
 10
945.5210685632572
 20
407.0281559385234
 30
0.0
 11
945.5210684111341
 21
407.5056074075171
 31
0.0
  0
LINE
  5
63B
330
22
100
AcDbEntity
  8
_2-7_ビス
  6
Continuous
 62
     7
100
AcDbLine
 10
945.5210684111341
 20
407.5056074075171
 30
0.0
 11
945.8699869057452
 21
407.5231243614831
 31
0.0
  0
LINE
  5
63C
330
22
100
AcDbEntity
  8
_2-7_ビス
  6
Continuous
 62
     7
100
AcDbLine
 10
946.0286905629775
 20
407.7702612012234
 30
0.0
 11
945.5210684111341
 21
408.5948226042233
 31
0.0
  0
LINE
  5
63D
330
22
100
AcDbEntity
  8
_2-7_ビス
  6
Continuous
 62
     7
100
AcDbLine
 10
945.5210684111341
 20
408.5948226042233
 30
0.0
 11
945.5210685687641
 21
409.0895594460226
 31
0.0
  0
LINE
  5
63E
330
22
100
AcDbEntity
  8
_2-7_ビス
  6
Continuous
 62
     7
100
AcDbLine
 10
945.5210685632572
 20
394.9895594547235
 30
0.0
 11
944.9822273132575
 21
394.9895594547235
 31
0.0
  0
LINE
  5
63F
330
22
100
AcDbEntity
  8
_2-7_ビス
  6
Continuous
 62
     7
100
AcDbLine
 10
944.9822273132575
 20
394.9895594547235
 30
0.0
 11
944.9822273132575
 21
391.7413177198858
 31
0.0
  0
LINE
  5
640
330
22
100
AcDbEntity
  8
_2-7_ビス
  6
Continuous
 62
     7
100
AcDbLine
 10
944.9822273132575
 20
391.7413177198858
 30
0.0
 11
945.4880130632567
 21
388.2281559501229
 31
0.0
  0
LINE
  5
641
330
22
100
AcDbEntity
  8
_2-7_ビス
  6
Continuous
 62
     7
100
AcDbLine
 10
945.4880130632567
 20
388.2281559501229
 30
0.0
 11
945.4887475809208
 21
388.7056070342641
 31
0.0
  0
LINE
  5
642
330
22
100
AcDbEntity
  8
_2-7_ビス
  6
Continuous
 62
     7
100
AcDbLine
 10
945.4887475809208
 20
388.7056070342641
 30
0.0
 11
945.7974360632578
 21
388.7228927919233
 31
0.0
  0
LINE
  5
643
330
22
100
AcDbEntity
  8
_2-7_ビス
  6
Continuous
 62
     7
100
AcDbLine
 10
945.4880130632567
 20
388.2281559501229
 30
0.0
 11
945.921489873824
 21
387.4035945471229
 31
0.0
  0
LINE
  5
644
330
22
100
AcDbEntity
  8
_2-7_ビス
  6
Continuous
 62
     7
100
AcDbLine
 10
945.941992628045
 20
388.970261212823
 30
0.0
 11
945.491390294585
 21
389.7948226158229
 31
0.0
  0
LINE
  5
645
330
22
100
AcDbEntity
  8
_2-7_ビス
  6
Continuous
 62
     7
100
AcDbLine
 10
945.491390294585
 20
389.7948226158229
 30
0.0
 11
945.4934751988467
 21
390.2722736999629
 31
0.0
  0
LINE
  5
646
330
22
100
AcDbEntity
  8
_2-7_ビス
  6
Continuous
 62
     7
100
AcDbLine
 10
945.4934751988467
 20
390.2722736999629
 30
0.0
 11
945.815802063257
 21
390.2895594576234
 31
0.0
  0
LINE
  5
647
330
22
100
AcDbEntity
  8
_2-7_ビス
  6
Continuous
 62
     7
100
AcDbLine
 10
945.9643075590754
 20
390.5369278785229
 30
0.0
 11
945.5004396997512
 21
391.3614888966692
 31
0.0
  0
LINE
  5
648
330
22
100
AcDbEntity
  8
_2-7_ビス
  6
Continuous
 62
     7
100
AcDbLine
 10
945.5004396997512
 20
391.3614888966692
 30
0.0
 11
945.5045025404476
 21
391.8389403656642
 31
0.0
  0
LINE
  5
649
330
22
100
AcDbEntity
  8
_2-7_ビス
  6
Continuous
 62
     7
100
AcDbLine
 10
945.5045025404476
 20
391.8389403656642
 30
0.0
 11
945.8391558957165
 21
391.8562261233234
 31
0.0
  0
LINE
  5
64A
330
22
100
AcDbEntity
  8
_2-7_ビス
  6
Continuous
 62
     7
100
AcDbLine
 10
945.9964105118841
 20
392.1035945442231
 30
0.0
 11
945.5162078876783
 21
392.9281555623692
 31
0.0
  0
LINE
  5
64B
330
22
100
AcDbEntity
  8
_2-7_ビス
  6
Continuous
 62
     7
100
AcDbLine
 10
945.5162078876783
 20
392.9281555623692
 30
0.0
 11
945.5210685632572
 21
393.4056075083316
 31
0.0
  0
LINE
  5
64C
330
22
100
AcDbEntity
  8
_2-7_ビス
  6
Continuous
 62
     7
100
AcDbLine
 10
945.5210685632572
 20
393.4056075083316
 30
0.0
 11
945.8691008132573
 21
393.4228927890234
 31
0.0
  0
LINE
  5
64D
330
22
100
AcDbEntity
  8
_2-7_ビス
  6
Continuous
 62
     7
100
AcDbLine
 10
946.0286905629775
 20
393.6702612099231
 30
0.0
 11
945.5210684111341
 21
394.4948226129231
 31
0.0
  0
LINE
  5
64E
330
22
100
AcDbEntity
  8
_2-7_ビス
  6
Continuous
 62
     7
100
AcDbLine
 10
945.5210684111341
 20
394.4948226129231
 30
0.0
 11
945.5210685632572
 21
394.9895594547235
 31
0.0
  0
LINE
  5
64F
330
22
100
AcDbEntity
  8
_2-7_ビス
  6
Continuous
 62
     7
100
AcDbLine
 10
945.7915860632576
 20
387.1562261262232
 30
0.0
 11
945.6572273132561
 21
387.1562261262232
 31
0.0
  0
LINE
  5
650
330
22
100
AcDbEntity
  8
_2-7_ビス
  6
Continuous
 62
     7
100
AcDbLine
 10
945.6572273132561
 20
387.1562261262232
 30
0.0
 11
945.6572273132561
 21
386.3728927933727
 31
0.0
  0
LINE
  5
651
330
22
100
AcDbEntity
  8
_2-7_ビス
  6
Continuous
 62
     7
100
AcDbLine
 10
945.6572273132561
 20
386.3728927933727
 30
0.0
 11
945.8072273132572
 21
386.3728927933727
 31
0.0
  0
LINE
  5
652
330
22
100
AcDbEntity
  8
_2-7_ビス
  6
Continuous
 62
     7
100
AcDbLine
 10
945.8072273132572
 20
386.3728927933727
 30
0.0
 11
945.8072273132572
 21
384.7649980575233
 31
0.0
  0
LINE
  5
653
330
22
100
AcDbEntity
  8
_2-7_ビス
  6
Continuous
 62
     7
100
AcDbLine
 10
945.8072273132572
 20
384.7649980575233
 30
0.0
 11
945.813694124058
 21
384.7649980575233
 31
0.0
  0
LINE
  5
654
330
22
100
AcDbEntity
  8
_2-7_ビス
  6
Continuous
 62
     7
100
AcDbLine
 10
945.8639693132564
 20
384.4351734963237
 30
0.0
 11
945.8639694597957
 21
378.4847319035037
 31
0.0
  0
LINE
  5
655
330
22
100
AcDbEntity
  8
_2-7_ビス
  6
Continuous
 62
     7
100
AcDbLine
 10
945.8639694597957
 20
378.4847319035037
 30
0.0
 11
946.3044068132568
 21
377.8333110793444
 31
0.0
  0
LINE
  5
656
330
22
100
AcDbEntity
  8
_2-7_ビス
  6
Continuous
 62
     7
100
AcDbLine
 10
946.3044068132568
 20
377.8333110793444
 30
0.0
 11
947.307227313257
 21
376.5193840275236
 31
0.0
  0
LINE
  5
657
330
22
100
AcDbEntity
  8
_2-7_ビス
  6
Continuous
 62
     7
100
AcDbLine
 10
947.307227313257
 20
376.5193840275236
 30
0.0
 11
947.4566057927519
 21
376.5193840275236
 31
0.0
  0
LINE
  5
658
330
22
100
AcDbEntity
  8
_2-7_ビス
  6
Continuous
 62
     7
100
AcDbLine
 10
947.4566057927519
 20
376.5193840275236
 30
0.0
 11
946.3715116834372
 21
378.4847319035037
 31
0.0
  0
LINE
  5
659
330
22
100
AcDbEntity
  8
_2-7_ビス
  6
Continuous
 62
     7
100
AcDbLine
 10
946.3715116834372
 20
378.4847319035037
 30
0.0
 11
946.3715115632565
 21
382.4562261291232
 31
0.0
  0
LINE
  5
65A
330
22
100
AcDbEntity
  8
_2-7_ビス
  6
Continuous
 62
     7
100
AcDbLine
 10
946.9548750632563
 20
382.4562261291232
 30
0.0
 11
946.9548747898246
 21
378.4847320562022
 31
0.0
  0
LINE
  5
65B
330
22
100
AcDbEntity
  8
_2-7_ビス
  6
Continuous
 62
     7
100
AcDbLine
 10
946.9548747898246
 20
378.4847320562022
 30
0.0
 11
948.0399691550584
 21
376.5193840275236
 31
0.0
  0
LINE
  5
65C
330
22
100
AcDbEntity
  8
_2-7_ビス
  6
Continuous
 62
     7
100
AcDbLine
 10
948.0399691550584
 20
376.5193840275236
 30
0.0
 11
948.6572273132567
 21
376.5193840275236
 31
0.0
  0
LINE
  5
65D
330
22
100
AcDbEntity
  8
_2-7_ビス
  6
Continuous
 62
     7
100
AcDbLine
 10
945.9603360632566
 20
409.0895594460226
 30
0.0
 11
945.9603360632566
 21
409.0895594460226
 31
0.0
  0
LINE
  5
65E
330
22
100
AcDbEntity
  8
_2-7_ビス
  6
Continuous
 62
     7
100
AcDbLine
 10
945.9603360632566
 20
409.0895594460226
 30
0.0
 11
945.9872945141571
 21
409.0942132307379
 31
0.0
  0
LINE
  5
65F
330
22
100
AcDbEntity
  8
_2-7_ビス
  6
Continuous
 62
     7
100
AcDbLine
 10
945.9872945141571
 20
409.0942132307379
 30
0.0
 11
946.0131083591702
 21
409.1039429908678
 31
0.0
  0
LINE
  5
660
330
22
100
AcDbEntity
  8
_2-7_ビス
  6
Continuous
 62
     7
100
AcDbLine
 10
946.0131083591702
 20
409.1039429908678
 30
0.0
 11
946.0369932576778
 21
409.1184530925743
 31
0.0
  0
LINE
  5
661
330
22
100
AcDbEntity
  8
_2-7_ビス
  6
Continuous
 62
     7
100
AcDbLine
 10
946.0369932576778
 20
409.1184530925743
 30
0.0
 11
946.0582234791246
 21
409.1373026537596
 31
0.0
  0
LINE
  5
662
330
22
100
AcDbEntity
  8
_2-7_ビス
  6
Continuous
 62
     7
100
AcDbLine
 10
946.0582234791246
 20
409.1373026537596
 30
0.0
 11
946.0761539539753
 21
409.1599189400454
 31
0.0
  0
LINE
  5
663
330
22
100
AcDbEntity
  8
_2-7_ビス
  6
Continuous
 62
     7
100
AcDbLine
 10
946.0761539539753
 20
409.1599189400454
 30
0.0
 11
946.0902398738243
 21
409.1856147670172
 31
0.0
  0
LINE
  5
664
330
22
100
AcDbEntity
  8
_2-7_ビス
  6
Continuous
 62
     7
100
AcDbLine
 10
946.0902398738243
 20
409.1856147670172
 30
0.0
 11
946.1000532451254
 21
409.2136093799753
 31
0.0
  0
LINE
  5
665
330
22
100
AcDbEntity
  8
_2-7_ビス
  6
Continuous
 62
     7
100
AcDbLine
 10
946.1000532451254
 20
409.2136093799753
 30
0.0
 11
946.1052958935576
 21
409.2430521767711
 31
0.0
  0
LINE
  5
666
330
22
100
AcDbEntity
  8
_2-7_ビス
  6
Continuous
 62
     7
100
AcDbLine
 10
946.1052958935576
 20
409.2430521767711
 30
0.0
 11
946.1058085239008
 21
409.2730485529222
 31
0.0
  0
LINE
  5
667
330
22
100
AcDbEntity
  8
_2-7_ビス
  6
Continuous
 62
     7
100
AcDbLine
 10
946.1058085239008
 20
409.2730485529222
 30
0.0
 11
946.1015755601414
 21
409.3026870837185
 31
0.0
  0
LINE
  5
668
330
22
100
AcDbEntity
  8
_2-7_ビス
  6
Continuous
 62
     7
100
AcDbLine
 10
946.1015755601414
 20
409.3026870837185
 30
0.0
 11
946.0927256187407
 21
409.3310672173997
 31
0.0
  0
LINE
  5
669
330
22
100
AcDbEntity
  8
_2-7_ビス
  6
Continuous
 62
     7
100
AcDbLine
 10
946.0927256187407
 20
409.3310672173997
 30
0.0
 11
946.0795276006912
 21
409.3573266379648
 31
0.0
  0
LINE
  5
66A
330
22
100
AcDbEntity
  8
_2-7_ビス
  6
Continuous
 62
     7
100
AcDbLine
 10
946.0795276006912
 20
409.3573266379648
 30
0.0
 11
946.0795272081737
 21
409.3573272795888
 31
0.0
  0
LINE
  5
66B
330
22
100
AcDbEntity
  8
_2-7_ビス
  6
Continuous
 62
     7
100
AcDbLine
 10
945.8691008132575
 20
407.5228927803231
 30
0.0
 11
945.8691008132575
 21
407.5228927803231
 31
0.0
  0
LINE
  5
66C
330
22
100
AcDbEntity
  8
_2-7_ビス
  6
Continuous
 62
     7
100
AcDbLine
 10
945.8691008132575
 20
407.5228927803231
 30
0.0
 11
945.9036240415926
 21
407.5354063305821
 31
0.0
  0
LINE
  5
66D
330
22
100
AcDbEntity
  8
_2-7_ビス
  6
Continuous
 62
     7
100
AcDbLine
 10
945.9036240415926
 20
407.5354063305821
 30
0.0
 11
945.9356463199457
 21
407.5543206513603
 31
0.0
  0
LINE
  5
66E
330
22
100
AcDbEntity
  8
_2-7_ビス
  6
Continuous
 62
     7
100
AcDbLine
 10
945.9356463199457
 20
407.5543206513603
 30
0.0
 11
945.9641946675931
 21
407.5790610405916
 31
0.0
  0
LINE
  5
66F
330
22
100
AcDbEntity
  8
_2-7_ビス
  6
Continuous
 62
     7
100
AcDbLine
 10
945.9641946675931
 20
407.5790610405916
 30
0.0
 11
945.9884016574381
 21
407.6088757740689
 31
0.0
  0
LINE
  5
670
330
22
100
AcDbEntity
  8
_2-7_ビス
  6
Continuous
 62
     7
100
AcDbLine
 10
945.9884016574381
 20
407.6088757740689
 30
0.0
 11
946.0075317723433
 21
407.6428589462022
 31
0.0
  0
LINE
  5
671
330
22
100
AcDbEntity
  8
_2-7_ビス
  6
Continuous
 62
     7
100
AcDbLine
 10
946.0075317723433
 20
407.6428589462022
 30
0.0
 11
946.0210037534473
 21
407.6799779955025
 31
0.0
  0
LINE
  5
672
330
22
100
AcDbEntity
  8
_2-7_ビス
  6
Continuous
 62
     7
100
AcDbLine
 10
946.0210037534473
 20
407.6799779955025
 30
0.0
 11
946.0284082614222
 21
407.71910507844
 31
0.0
  0
LINE
  5
673
330
22
100
AcDbEntity
  8
_2-7_ビス
  6
Continuous
 62
     7
100
AcDbLine
 10
946.0284082614222
 20
407.71910507844
 30
0.0
 11
946.029520314039
 21
407.7590513383991
 31
0.0
  0
LINE
  5
674
330
22
100
AcDbEntity
  8
_2-7_ビス
  6
Continuous
 62
     7
100
AcDbLine
 10
946.029520314039
 20
407.7590513383991
 30
0.0
 11
946.0286905629782
 21
407.7702612012232
 31
0.0
  0
LINE
  5
675
330
22
100
AcDbEntity
  8
_2-7_ビス
  6
Continuous
 62
     7
100
AcDbLine
 10
945.8691008132575
 20
405.9562261146231
 30
0.0
 11
945.8691008132575
 21
405.9562261146231
 31
0.0
  0
LINE
  5
676
330
22
100
AcDbEntity
  8
_2-7_ビス
  6
Continuous
 62
     7
100
AcDbLine
 10
945.8691008132575
 20
405.9562261146231
 30
0.0
 11
945.9036240415926
 21
405.9687396648822
 31
0.0
  0
LINE
  5
677
330
22
100
AcDbEntity
  8
_2-7_ビス
  6
Continuous
 62
     7
100
AcDbLine
 10
945.9036240415926
 20
405.9687396648822
 30
0.0
 11
945.9356463199457
 21
405.9876539856603
 31
0.0
  0
LINE
  5
678
330
22
100
AcDbEntity
  8
_2-7_ビス
  6
Continuous
 62
     7
100
AcDbLine
 10
945.9356463199457
 20
405.9876539856603
 30
0.0
 11
945.9641946675931
 21
406.0123943748916
 31
0.0
  0
LINE
  5
679
330
22
100
AcDbEntity
  8
_2-7_ビス
  6
Continuous
 62
     7
100
AcDbLine
 10
945.9641946675931
 20
406.0123943748916
 30
0.0
 11
945.9884016574381
 21
406.0422091083689
 31
0.0
  0
LINE
  5
67A
330
22
100
AcDbEntity
  8
_2-7_ビス
  6
Continuous
 62
     7
100
AcDbLine
 10
945.9884016574381
 20
406.0422091083689
 30
0.0
 11
946.0075317723433
 21
406.0761922805021
 31
0.0
  0
LINE
  5
67B
330
22
100
AcDbEntity
  8
_2-7_ビス
  6
Continuous
 62
     7
100
AcDbLine
 10
946.0075317723433
 20
406.0761922805021
 30
0.0
 11
946.0210037534473
 21
406.1133113298025
 31
0.0
  0
LINE
  5
67C
330
22
100
AcDbEntity
  8
_2-7_ビス
  6
Continuous
 62
     7
100
AcDbLine
 10
946.0210037534473
 20
406.1133113298025
 30
0.0
 11
946.0284082614222
 21
406.15243841274
 31
0.0
  0
LINE
  5
67D
330
22
100
AcDbEntity
  8
_2-7_ビス
  6
Continuous
 62
     7
100
AcDbLine
 10
946.0284082614222
 20
406.15243841274
 30
0.0
 11
946.029520314039
 21
406.192384672699
 31
0.0
  0
LINE
  5
67E
330
22
100
AcDbEntity
  8
_2-7_ビス
  6
Continuous
 62
     7
100
AcDbLine
 10
946.029520314039
 20
406.192384672699
 30
0.0
 11
946.0286905629782
 21
406.2035945355232
 31
0.0
  0
LINE
  5
67F
330
22
100
AcDbEntity
  8
_2-7_ビス
  6
Continuous
 62
     7
100
AcDbLine
 10
945.812113953856
 20
404.3895594489231
 30
0.0
 11
945.812113953856
 21
404.3895594489231
 31
0.0
  0
LINE
  5
680
330
22
100
AcDbEntity
  8
_2-7_ビス
  6
Continuous
 62
     7
100
AcDbLine
 10
945.812113953856
 20
404.3895594489231
 30
0.0
 11
945.8466371821909
 21
404.402072999182
 31
0.0
  0
LINE
  5
681
330
22
100
AcDbEntity
  8
_2-7_ビス
  6
Continuous
 62
     7
100
AcDbLine
 10
945.8466371821909
 20
404.402072999182
 30
0.0
 11
945.878659460544
 21
404.4209873199602
 31
0.0
  0
LINE
  5
682
330
22
100
AcDbEntity
  8
_2-7_ビス
  6
Continuous
 62
     7
100
AcDbLine
 10
945.878659460544
 20
404.4209873199602
 30
0.0
 11
945.9072078081916
 21
404.4457277091916
 31
0.0
  0
LINE
  5
683
330
22
100
AcDbEntity
  8
_2-7_ビス
  6
Continuous
 62
     7
100
AcDbLine
 10
945.9072078081916
 20
404.4457277091916
 30
0.0
 11
945.9314147980366
 21
404.4755424426687
 31
0.0
  0
LINE
  5
684
330
22
100
AcDbEntity
  8
_2-7_ビス
  6
Continuous
 62
     7
100
AcDbLine
 10
945.9314147980366
 20
404.4755424426687
 30
0.0
 11
945.9505449129416
 21
404.509525614802
 31
0.0
  0
LINE
  5
685
330
22
100
AcDbEntity
  8
_2-7_ビス
  6
Continuous
 62
     7
100
AcDbLine
 10
945.9505449129416
 20
404.509525614802
 30
0.0
 11
945.9640168940456
 21
404.5466446641023
 31
0.0
  0
LINE
  5
686
330
22
100
AcDbEntity
  8
_2-7_ビス
  6
Continuous
 62
     7
100
AcDbLine
 10
945.9640168940456
 20
404.5466446641023
 30
0.0
 11
945.9714214020205
 21
404.58577174704
 31
0.0
  0
LINE
  5
687
330
22
100
AcDbEntity
  8
_2-7_ビス
  6
Continuous
 62
     7
100
AcDbLine
 10
945.9714214020205
 20
404.58577174704
 30
0.0
 11
945.9725334546375
 21
404.625718006999
 31
0.0
  0
LINE
  5
688
330
22
100
AcDbEntity
  8
_2-7_ビス
  6
Continuous
 62
     7
100
AcDbLine
 10
945.9725334546375
 20
404.625718006999
 30
0.0
 11
945.9717037035765
 21
404.6369278698231
 31
0.0
  0
LINE
  5
689
330
22
100
AcDbEntity
  8
_2-7_ビス
  6
Continuous
 62
     7
100
AcDbLine
 10
945.8691008132575
 20
401.2562261175229
 30
0.0
 11
945.8691008132575
 21
401.2562261175229
 31
0.0
  0
LINE
  5
68A
330
22
100
AcDbEntity
  8
_2-7_ビス
  6
Continuous
 62
     7
100
AcDbLine
 10
945.8691008132575
 20
401.2562261175229
 30
0.0
 11
945.9036240415926
 21
401.268739667782
 31
0.0
  0
LINE
  5
68B
330
22
100
AcDbEntity
  8
_2-7_ビス
  6
Continuous
 62
     7
100
AcDbLine
 10
945.9036240415926
 20
401.268739667782
 30
0.0
 11
945.9356463199457
 21
401.2876539885601
 31
0.0
  0
LINE
  5
68C
330
22
100
AcDbEntity
  8
_2-7_ビス
  6
Continuous
 62
     7
100
AcDbLine
 10
945.9356463199457
 20
401.2876539885601
 30
0.0
 11
945.9641946675931
 21
401.3123943777915
 31
0.0
  0
LINE
  5
68D
330
22
100
AcDbEntity
  8
_2-7_ビス
  6
Continuous
 62
     7
100
AcDbLine
 10
945.9641946675931
 20
401.3123943777915
 30
0.0
 11
945.9884016574381
 21
401.3422091112688
 31
0.0
  0
LINE
  5
68E
330
22
100
AcDbEntity
  8
_2-7_ビス
  6
Continuous
 62
     7
100
AcDbLine
 10
945.9884016574381
 20
401.3422091112688
 30
0.0
 11
946.0075317723433
 21
401.376192283402
 31
0.0
  0
LINE
  5
68F
330
22
100
AcDbEntity
  8
_2-7_ビス
  6
Continuous
 62
     7
100
AcDbLine
 10
946.0075317723433
 20
401.376192283402
 30
0.0
 11
946.0210037534473
 21
401.4133113327024
 31
0.0
  0
LINE
  5
690
330
22
100
AcDbEntity
  8
_2-7_ビス
  6
Continuous
 62
     7
100
AcDbLine
 10
946.0210037534473
 20
401.4133113327024
 30
0.0
 11
946.0284082614222
 21
401.4524384156398
 31
0.0
  0
LINE
  5
691
330
22
100
AcDbEntity
  8
_2-7_ビス
  6
Continuous
 62
     7
100
AcDbLine
 10
946.0284082614222
 20
401.4524384156398
 30
0.0
 11
946.029520314039
 21
401.4923846755989
 31
0.0
  0
LINE
  5
692
330
22
100
AcDbEntity
  8
_2-7_ビス
  6
Continuous
 62
     7
100
AcDbLine
 10
946.029520314039
 20
401.4923846755989
 30
0.0
 11
946.0286905629782
 21
401.5035945384229
 31
0.0
  0
LINE
  5
693
330
22
100
AcDbEntity
  8
_2-7_ビス
  6
Continuous
 62
     7
100
AcDbLine
 10
945.8691008132575
 20
399.689559451823
 30
0.0
 11
945.8691008132575
 21
399.689559451823
 31
0.0
  0
LINE
  5
694
330
22
100
AcDbEntity
  8
_2-7_ビス
  6
Continuous
 62
     7
100
AcDbLine
 10
945.8691008132575
 20
399.689559451823
 30
0.0
 11
945.9036240415926
 21
399.702073002082
 31
0.0
  0
LINE
  5
695
330
22
100
AcDbEntity
  8
_2-7_ビス
  6
Continuous
 62
     7
100
AcDbLine
 10
945.9036240415926
 20
399.702073002082
 30
0.0
 11
945.9356463199457
 21
399.7209873228602
 31
0.0
  0
LINE
  5
696
330
22
100
AcDbEntity
  8
_2-7_ビス
  6
Continuous
 62
     7
100
AcDbLine
 10
945.9356463199457
 20
399.7209873228602
 30
0.0
 11
945.9641946675931
 21
399.7457277120915
 31
0.0
  0
LINE
  5
697
330
22
100
AcDbEntity
  8
_2-7_ビス
  6
Continuous
 62
     7
100
AcDbLine
 10
945.9641946675931
 20
399.7457277120915
 30
0.0
 11
945.9884016574381
 21
399.7755424455689
 31
0.0
  0
LINE
  5
698
330
22
100
AcDbEntity
  8
_2-7_ビス
  6
Continuous
 62
     7
100
AcDbLine
 10
945.9884016574381
 20
399.7755424455689
 30
0.0
 11
946.0075317723433
 21
399.8095256177021
 31
0.0
  0
LINE
  5
699
330
22
100
AcDbEntity
  8
_2-7_ビス
  6
Continuous
 62
     7
100
AcDbLine
 10
946.0075317723433
 20
399.8095256177021
 30
0.0
 11
946.0210037534473
 21
399.8466446670024
 31
0.0
  0
LINE
  5
69A
330
22
100
AcDbEntity
  8
_2-7_ビス
  6
Continuous
 62
     7
100
AcDbLine
 10
946.0210037534473
 20
399.8466446670024
 30
0.0
 11
946.0284082614222
 21
399.88577174994
 31
0.0
  0
LINE
  5
69B
330
22
100
AcDbEntity
  8
_2-7_ビス
  6
Continuous
 62
     7
100
AcDbLine
 10
946.0284082614222
 20
399.88577174994
 30
0.0
 11
946.029520314039
 21
399.9257180098989
 31
0.0
  0
LINE
  5
69C
330
22
100
AcDbEntity
  8
_2-7_ビス
  6
Continuous
 62
     7
100
AcDbLine
 10
946.029520314039
 20
399.9257180098989
 30
0.0
 11
946.0286905629782
 21
399.9369278727229
 31
0.0
  0
LINE
  5
69D
330
22
100
AcDbEntity
  8
_2-7_ビス
  6
Continuous
 62
     7
100
AcDbLine
 10
945.8691008132575
 20
398.1228927861229
 30
0.0
 11
945.8691008132575
 21
398.1228927861229
 31
0.0
  0
LINE
  5
69E
330
22
100
AcDbEntity
  8
_2-7_ビス
  6
Continuous
 62
     7
100
AcDbLine
 10
945.8691008132575
 20
398.1228927861229
 30
0.0
 11
945.9036240415926
 21
398.135406336382
 31
0.0
  0
LINE
  5
69F
330
22
100
AcDbEntity
  8
_2-7_ビス
  6
Continuous
 62
     7
100
AcDbLine
 10
945.9036240415926
 20
398.135406336382
 30
0.0
 11
945.9356463199457
 21
398.1543206571601
 31
0.0
  0
LINE
  5
6A0
330
22
100
AcDbEntity
  8
_2-7_ビス
  6
Continuous
 62
     7
100
AcDbLine
 10
945.9356463199457
 20
398.1543206571601
 30
0.0
 11
945.9641946675931
 21
398.1790610463916
 31
0.0
  0
LINE
  5
6A1
330
22
100
AcDbEntity
  8
_2-7_ビス
  6
Continuous
 62
     7
100
AcDbLine
 10
945.9641946675931
 20
398.1790610463916
 30
0.0
 11
945.9884016574381
 21
398.2088757798688
 31
0.0
  0
LINE
  5
6A2
330
22
100
AcDbEntity
  8
_2-7_ビス
  6
Continuous
 62
     7
100
AcDbLine
 10
945.9884016574381
 20
398.2088757798688
 30
0.0
 11
946.0075317723433
 21
398.2428589520019
 31
0.0
  0
LINE
  5
6A3
330
22
100
AcDbEntity
  8
_2-7_ビス
  6
Continuous
 62
     7
100
AcDbLine
 10
946.0075317723433
 20
398.2428589520019
 30
0.0
 11
946.0210037534473
 21
398.2799780013023
 31
0.0
  0
LINE
  5
6A4
330
22
100
AcDbEntity
  8
_2-7_ビス
  6
Continuous
 62
     7
100
AcDbLine
 10
946.0210037534473
 20
398.2799780013023
 30
0.0
 11
946.0284082614222
 21
398.3191050842398
 31
0.0
  0
LINE
  5
6A5
330
22
100
AcDbEntity
  8
_2-7_ビス
  6
Continuous
 62
     7
100
AcDbLine
 10
946.0284082614222
 20
398.3191050842398
 30
0.0
 11
946.029520314039
 21
398.3590513441989
 31
0.0
  0
LINE
  5
6A6
330
22
100
AcDbEntity
  8
_2-7_ビス
  6
Continuous
 62
     7
100
AcDbLine
 10
946.029520314039
 20
398.3590513441989
 30
0.0
 11
946.0286905629782
 21
398.3702612070229
 31
0.0
  0
LINE
  5
6A7
330
22
100
AcDbEntity
  8
_2-7_ビス
  6
Continuous
 62
     7
100
AcDbLine
 10
945.8118212416833
 20
396.5562261204229
 30
0.0
 11
945.8118212416833
 21
396.5562261204229
 31
0.0
  0
LINE
  5
6A8
330
22
100
AcDbEntity
  8
_2-7_ビス
  6
Continuous
 62
     7
100
AcDbLine
 10
945.8118212416833
 20
396.5562261204229
 30
0.0
 11
945.8463444700182
 21
396.5687396706819
 31
0.0
  0
LINE
  5
6A9
330
22
100
AcDbEntity
  8
_2-7_ビス
  6
Continuous
 62
     7
100
AcDbLine
 10
945.8463444700182
 20
396.5687396706819
 30
0.0
 11
945.8783667483713
 21
396.5876539914601
 31
0.0
  0
LINE
  5
6AA
330
22
100
AcDbEntity
  8
_2-7_ビス
  6
Continuous
 62
     7
100
AcDbLine
 10
945.8783667483713
 20
396.5876539914601
 30
0.0
 11
945.9069150960187
 21
396.6123943806914
 31
0.0
  0
LINE
  5
6AB
330
22
100
AcDbEntity
  8
_2-7_ビス
  6
Continuous
 62
     7
100
AcDbLine
 10
945.9069150960187
 20
396.6123943806914
 30
0.0
 11
945.9311220858635
 21
396.6422091141688
 31
0.0
  0
LINE
  5
6AC
330
22
100
AcDbEntity
  8
_2-7_ビス
  6
Continuous
 62
     7
100
AcDbLine
 10
945.9311220858635
 20
396.6422091141688
 30
0.0
 11
945.9502522007687
 21
396.6761922863019
 31
0.0
  0
LINE
  5
6AD
330
22
100
AcDbEntity
  8
_2-7_ビス
  6
Continuous
 62
     7
100
AcDbLine
 10
945.9502522007687
 20
396.6761922863019
 30
0.0
 11
945.9637241818729
 21
396.7133113356023
 31
0.0
  0
LINE
  5
6AE
330
22
100
AcDbEntity
  8
_2-7_ビス
  6
Continuous
 62
     7
100
AcDbLine
 10
945.9637241818729
 20
396.7133113356023
 30
0.0
 11
945.9711286898475
 21
396.7524384185397
 31
0.0
  0
LINE
  5
6AF
330
22
100
AcDbEntity
  8
_2-7_ビス
  6
Continuous
 62
     7
100
AcDbLine
 10
945.9711286898475
 20
396.7524384185397
 30
0.0
 11
945.9722407424647
 21
396.7923846784988
 31
0.0
  0
LINE
  5
6B0
330
22
100
AcDbEntity
  8
_2-7_ビス
  6
Continuous
 62
     7
100
AcDbLine
 10
945.9722407424647
 20
396.7923846784988
 30
0.0
 11
945.971410991404
 21
396.8035945413229
 31
0.0
  0
LINE
  5
6B1
330
22
100
AcDbEntity
  8
_2-7_ビス
  6
Continuous
 62
     7
100
AcDbLine
 10
945.8691008132575
 20
393.4228927890229
 30
0.0
 11
945.8691008132575
 21
393.4228927890229
 31
0.0
  0
LINE
  5
6B2
330
22
100
AcDbEntity
  8
_2-7_ビス
  6
Continuous
 62
     7
100
AcDbLine
 10
945.8691008132575
 20
393.4228927890229
 30
0.0
 11
945.9036240415926
 21
393.4354063392818
 31
0.0
  0
LINE
  5
6B3
330
22
100
AcDbEntity
  8
_2-7_ビス
  6
Continuous
 62
     7
100
AcDbLine
 10
945.9036240415926
 20
393.4354063392818
 30
0.0
 11
945.9356463199457
 21
393.45432066006
 31
0.0
  0
LINE
  5
6B4
330
22
100
AcDbEntity
  8
_2-7_ビス
  6
Continuous
 62
     7
100
AcDbLine
 10
945.9356463199457
 20
393.45432066006
 30
0.0
 11
945.9641946675931
 21
393.4790610492914
 31
0.0
  0
LINE
  5
6B5
330
22
100
AcDbEntity
  8
_2-7_ビス
  6
Continuous
 62
     7
100
AcDbLine
 10
945.9641946675931
 20
393.4790610492914
 30
0.0
 11
945.9884016574381
 21
393.5088757827687
 31
0.0
  0
LINE
  5
6B6
330
22
100
AcDbEntity
  8
_2-7_ビス
  6
Continuous
 62
     7
100
AcDbLine
 10
945.9884016574381
 20
393.5088757827687
 30
0.0
 11
946.0075317723433
 21
393.5428589549017
 31
0.0
  0
LINE
  5
6B7
330
22
100
AcDbEntity
  8
_2-7_ビス
  6
Continuous
 62
     7
100
AcDbLine
 10
946.0075317723433
 20
393.5428589549017
 30
0.0
 11
946.0210037534473
 21
393.579978004202
 31
0.0
  0
LINE
  5
6B8
330
22
100
AcDbEntity
  8
_2-7_ビス
  6
Continuous
 62
     7
100
AcDbLine
 10
946.0210037534473
 20
393.579978004202
 30
0.0
 11
946.0284082614222
 21
393.6191050871396
 31
0.0
  0
LINE
  5
6B9
330
22
100
AcDbEntity
  8
_2-7_ビス
  6
Continuous
 62
     7
100
AcDbLine
 10
946.0284082614222
 20
393.6191050871396
 30
0.0
 11
946.029520314039
 21
393.6590513470988
 31
0.0
  0
LINE
  5
6BA
330
22
100
AcDbEntity
  8
_2-7_ビス
  6
Continuous
 62
     7
100
AcDbLine
 10
946.029520314039
 20
393.6590513470988
 30
0.0
 11
946.0286905629782
 21
393.6702612099228
 31
0.0
  0
LINE
  5
6BB
330
22
100
AcDbEntity
  8
_2-7_ビス
  6
Continuous
 62
     7
100
AcDbLine
 10
945.836820762163
 20
391.8562261233228
 30
0.0
 11
945.836820762163
 21
391.8562261233228
 31
0.0
  0
LINE
  5
6BC
330
22
100
AcDbEntity
  8
_2-7_ビス
  6
Continuous
 62
     7
100
AcDbLine
 10
945.836820762163
 20
391.8562261233228
 30
0.0
 11
945.8713439904979
 21
391.8687396735818
 31
0.0
  0
LINE
  5
6BD
330
22
100
AcDbEntity
  8
_2-7_ビス
  6
Continuous
 62
     7
100
AcDbLine
 10
945.8713439904979
 20
391.8687396735818
 30
0.0
 11
945.903366268851
 21
391.88765399436
 31
0.0
  0
LINE
  5
6BE
330
22
100
AcDbEntity
  8
_2-7_ビス
  6
Continuous
 62
     7
100
AcDbLine
 10
945.903366268851
 20
391.88765399436
 30
0.0
 11
945.9319146164986
 21
391.9123943835912
 31
0.0
  0
LINE
  5
6BF
330
22
100
AcDbEntity
  8
_2-7_ビス
  6
Continuous
 62
     7
100
AcDbLine
 10
945.9319146164986
 20
391.9123943835912
 30
0.0
 11
945.9561216063432
 21
391.9422091170686
 31
0.0
  0
LINE
  5
6C0
330
22
100
AcDbEntity
  8
_2-7_ビス
  6
Continuous
 62
     7
100
AcDbLine
 10
945.9561216063432
 20
391.9422091170686
 30
0.0
 11
945.9752517212484
 21
391.9761922892017
 31
0.0
  0
LINE
  5
6C1
330
22
100
AcDbEntity
  8
_2-7_ビス
  6
Continuous
 62
     7
100
AcDbLine
 10
945.9752517212484
 20
391.9761922892017
 30
0.0
 11
945.9887237023526
 21
392.013311338502
 31
0.0
  0
LINE
  5
6C2
330
22
100
AcDbEntity
  8
_2-7_ビス
  6
Continuous
 62
     7
100
AcDbLine
 10
945.9887237023526
 20
392.013311338502
 30
0.0
 11
945.9961282103273
 21
392.0524384214397
 31
0.0
  0
LINE
  5
6C3
330
22
100
AcDbEntity
  8
_2-7_ビス
  6
Continuous
 62
     7
100
AcDbLine
 10
945.9961282103273
 20
392.0524384214397
 30
0.0
 11
945.9972402629444
 21
392.0923846813987
 31
0.0
  0
LINE
  5
6C4
330
22
100
AcDbEntity
  8
_2-7_ビス
  6
Continuous
 62
     7
100
AcDbLine
 10
945.9972402629444
 20
392.0923846813987
 30
0.0
 11
945.9964105118837
 21
392.1035945442227
 31
0.0
  0
LINE
  5
6C5
330
22
100
AcDbEntity
  8
_2-7_ビス
  6
Continuous
 62
     7
100
AcDbLine
 10
945.8047178093544
 20
390.2895594576228
 30
0.0
 11
945.8047178093544
 21
390.2895594576228
 31
0.0
  0
LINE
  5
6C6
330
22
100
AcDbEntity
  8
_2-7_ビス
  6
Continuous
 62
     7
100
AcDbLine
 10
945.8047178093544
 20
390.2895594576228
 30
0.0
 11
945.8392410376898
 21
390.3020730078818
 31
0.0
  0
LINE
  5
6C7
330
22
100
AcDbEntity
  8
_2-7_ビス
  6
Continuous
 62
     7
100
AcDbLine
 10
945.8392410376898
 20
390.3020730078818
 30
0.0
 11
945.8712633160429
 21
390.3209873286599
 31
0.0
  0
LINE
  5
6C8
330
22
100
AcDbEntity
  8
_2-7_ビス
  6
Continuous
 62
     7
100
AcDbLine
 10
945.8712633160429
 20
390.3209873286599
 30
0.0
 11
945.8998116636902
 21
390.3457277178913
 31
0.0
  0
LINE
  5
6C9
330
22
100
AcDbEntity
  8
_2-7_ビス
  6
Continuous
 62
     7
100
AcDbLine
 10
945.8998116636902
 20
390.3457277178913
 30
0.0
 11
945.9240186535353
 21
390.3755424513684
 31
0.0
  0
LINE
  5
6CA
330
22
100
AcDbEntity
  8
_2-7_ビス
  6
Continuous
 62
     7
100
AcDbLine
 10
945.9240186535353
 20
390.3755424513684
 30
0.0
 11
945.9431487684399
 21
390.4095256235017
 31
0.0
  0
LINE
  5
6CB
330
22
100
AcDbEntity
  8
_2-7_ビス
  6
Continuous
 62
     7
100
AcDbLine
 10
945.9431487684399
 20
390.4095256235017
 30
0.0
 11
945.9566207495443
 21
390.4466446728021
 31
0.0
  0
LINE
  5
6CC
330
22
100
AcDbEntity
  8
_2-7_ビス
  6
Continuous
 62
     7
100
AcDbLine
 10
945.9566207495443
 20
390.4466446728021
 30
0.0
 11
945.9640252575187
 21
390.4857717557396
 31
0.0
  0
LINE
  5
6CD
330
22
100
AcDbEntity
  8
_2-7_ビス
  6
Continuous
 62
     7
100
AcDbLine
 10
945.9640252575187
 20
390.4857717557396
 30
0.0
 11
945.9651373101358
 21
390.5257180156986
 31
0.0
  0
LINE
  5
6CE
330
22
100
AcDbEntity
  8
_2-7_ビス
  6
Continuous
 62
     7
100
AcDbLine
 10
945.9651373101358
 20
390.5257180156986
 30
0.0
 11
945.9643075590753
 21
390.5369278785227
 31
0.0
  0
LINE
  5
6CF
330
22
100
AcDbEntity
  8
_2-7_ビス
  6
Continuous
 62
     7
100
AcDbLine
 10
945.782402878325
 20
388.7228927919238
 30
0.0
 11
945.782402878325
 21
388.7228927919238
 31
0.0
  0
LINE
  5
6D0
330
22
100
AcDbEntity
  8
_2-7_ビス
  6
Continuous
 62
     7
100
AcDbLine
 10
945.782402878325
 20
388.7228927919238
 30
0.0
 11
945.8169261066601
 21
388.7354063421828
 31
0.0
  0
LINE
  5
6D1
330
22
100
AcDbEntity
  8
_2-7_ビス
  6
Continuous
 62
     7
100
AcDbLine
 10
945.8169261066601
 20
388.7354063421828
 30
0.0
 11
945.8489483850131
 21
388.754320662961
 31
0.0
  0
LINE
  5
6D2
330
22
100
AcDbEntity
  8
_2-7_ビス
  6
Continuous
 62
     7
100
AcDbLine
 10
945.8489483850131
 20
388.754320662961
 30
0.0
 11
945.8774967326606
 21
388.7790610521924
 31
0.0
  0
LINE
  5
6D3
330
22
100
AcDbEntity
  8
_2-7_ビス
  6
Continuous
 62
     7
100
AcDbLine
 10
945.8774967326606
 20
388.7790610521924
 30
0.0
 11
945.9017037225056
 21
388.8088757856696
 31
0.0
  0
LINE
  5
6D4
330
22
100
AcDbEntity
  8
_2-7_ビス
  6
Continuous
 62
     7
100
AcDbLine
 10
945.9017037225056
 20
388.8088757856696
 30
0.0
 11
945.9208338374104
 21
388.8428589578028
 31
0.0
  0
LINE
  5
6D5
330
22
100
AcDbEntity
  8
_2-7_ビス
  6
Continuous
 62
     7
100
AcDbLine
 10
945.9208338374104
 20
388.8428589578028
 30
0.0
 11
945.9343058185149
 21
388.8799780071032
 31
0.0
  0
LINE
  5
6D6
330
22
100
AcDbEntity
  8
_2-7_ビス
  6
Continuous
 62
     7
100
AcDbLine
 10
945.9343058185149
 20
388.8799780071032
 30
0.0
 11
945.9417103264895
 21
388.9191050900407
 31
0.0
  0
LINE
  5
6D7
330
22
100
AcDbEntity
  8
_2-7_ビス
  6
Continuous
 62
     7
100
AcDbLine
 10
945.9417103264895
 20
388.9191050900407
 30
0.0
 11
945.9428223791064
 21
388.9590513499998
 31
0.0
  0
LINE
  5
6D8
330
22
100
AcDbEntity
  8
_2-7_ビス
  6
Continuous
 62
     7
100
AcDbLine
 10
945.9428223791064
 20
388.9590513499998
 30
0.0
 11
945.9419926280459
 21
388.9702612128238
 31
0.0
  0
LINE
  5
6D9
330
22
100
AcDbEntity
  8
_2-7_ビス
  6
Continuous
 62
     7
100
AcDbLine
 10
945.7915860632569
 20
387.1562261262236
 30
0.0
 11
945.7915860632569
 21
387.1562261262236
 31
0.0
  0
LINE
  5
6DA
330
22
100
AcDbEntity
  8
_2-7_ビス
  6
Continuous
 62
     7
100
AcDbLine
 10
945.7915860632569
 20
387.1562261262236
 30
0.0
 11
945.818731999196
 21
387.1613219450723
 31
0.0
  0
LINE
  5
6DB
330
22
100
AcDbEntity
  8
_2-7_ビス
  6
Continuous
 62
     7
100
AcDbLine
 10
945.818731999196
 20
387.1613219450723
 30
0.0
 11
945.8446606634275
 21
387.1715228168839
 31
0.0
  0
LINE
  5
6DC
330
22
100
AcDbEntity
  8
_2-7_ビス
  6
Continuous
 62
     7
100
AcDbLine
 10
945.8446606634275
 20
387.1715228168839
 30
0.0
 11
945.8685842266103
 21
387.1865187933303
 31
0.0
  0
LINE
  5
6DD
330
22
100
AcDbEntity
  8
_2-7_ビス
  6
Continuous
 62
     7
100
AcDbLine
 10
945.8685842266103
 20
387.1865187933303
 30
0.0
 11
945.889775783382
 21
387.2058542292553
 31
0.0
  0
LINE
  5
6DE
330
22
100
AcDbEntity
  8
_2-7_ビス
  6
Continuous
 62
     7
100
AcDbLine
 10
945.889775783382
 20
387.2058542292553
 30
0.0
 11
945.907591439014
 21
387.2289416272229
 31
0.0
  0
LINE
  5
6DF
330
22
100
AcDbEntity
  8
_2-7_ビス
  6
Continuous
 62
     7
100
AcDbLine
 10
945.907591439014
 20
387.2289416272229
 30
0.0
 11
945.9214898738251
 21
387.2550794883283
 31
0.0
  0
LINE
  5
6E0
330
22
100
AcDbEntity
  8
_2-7_ビス
  6
Continuous
 62
     7
100
AcDbLine
 10
945.9214898738251
 20
387.2550794883283
 30
0.0
 11
945.9310487909064
 21
387.2834736268883
 31
0.0
  0
LINE
  5
6E1
330
22
100
AcDbEntity
  8
_2-7_ビス
  6
Continuous
 62
     7
100
AcDbLine
 10
945.9310487909064
 20
387.2834736268883
 30
0.0
 11
945.9359777473997
 21
387.3132613013711
 31
0.0
  0
LINE
  5
6E2
330
22
100
AcDbEntity
  8
_2-7_ビス
  6
Continuous
 62
     7
100
AcDbLine
 10
945.9359777473997
 20
387.3132613013711
 30
0.0
 11
945.9361269794557
 21
387.3435374283606
 31
0.0
  0
LINE
  5
6E3
330
22
100
AcDbEntity
  8
_2-7_ビス
  6
Continuous
 62
     7
100
AcDbLine
 10
945.9361269794557
 20
387.3435374283606
 30
0.0
 11
945.931491952734
 21
387.3733820830586
 31
0.0
  0
LINE
  5
6E4
330
22
100
AcDbEntity
  8
_2-7_ビス
  6
Continuous
 62
     7
100
AcDbLine
 10
945.931491952734
 20
387.3733820830586
 30
0.0
 11
945.9222135001761
 21
387.4018884507345
 31
0.0
  0
LINE
  5
6E5
330
22
100
AcDbEntity
  8
_2-7_ビス
  6
Continuous
 62
     7
100
AcDbLine
 10
945.9222135001761
 20
387.4018884507345
 30
0.0
 11
945.9085735428683
 21
387.4281903798312
 31
0.0
  0
LINE
  5
6E6
330
22
100
AcDbEntity
  8
_2-7_ビス
  6
Continuous
 62
     7
100
AcDbLine
 10
945.9085735428683
 20
387.4281903798312
 30
0.0
 11
945.9084900491111
 21
387.428322868093
 31
0.0
  0
LINE
  5
6E7
330
22
100
AcDbEntity
  8
_2-7_ビス
  6
Continuous
 62
     7
100
AcDbLine
 10
945.4884773132572
 20
394.9895594547233
 30
0.0
 11
945.4884773132572
 21
394.9895594547233
 31
0.0
  0
LINE
  5
6E8
330
22
100
AcDbEntity
  8
_2-7_ビス
  6
Continuous
 62
     7
100
AcDbLine
 10
945.4884773132572
 20
394.9895594547233
 30
0.0
 11
945.5728031440511
 21
395.001819411371
 31
0.0
  0
LINE
  5
6E9
330
22
100
AcDbEntity
  8
_2-7_ビス
  6
Continuous
 62
     7
100
AcDbLine
 10
945.5728031440511
 20
395.001819411371
 30
0.0
 11
945.6539114655093
 21
395.0299918780781
 31
0.0
  0
LINE
  5
6EA
330
22
100
AcDbEntity
  8
_2-7_ビス
  6
Continuous
 62
     7
100
AcDbLine
 10
945.6539114655093
 20
395.0299918780781
 30
0.0
 11
945.7293378423273
 21
395.0732208486996
 31
0.0
  0
LINE
  5
6EB
330
22
100
AcDbEntity
  8
_2-7_ビス
  6
Continuous
 62
     7
100
AcDbLine
 10
945.7293378423273
 20
395.0732208486996
 30
0.0
 11
945.7967904822133
 21
395.1301928328381
 31
0.0
  0
LINE
  5
6EC
330
22
100
AcDbEntity
  8
_2-7_ビス
  6
Continuous
 62
     7
100
AcDbLine
 10
945.7967904822133
 20
395.1301928328381
 30
0.0
 11
945.8542198708368
 21
395.1991767655848
 31
0.0
  0
LINE
  5
6ED
330
22
100
AcDbEntity
  8
_2-7_ビス
  6
Continuous
 62
     7
100
AcDbLine
 10
945.8542198708368
 20
395.1991767655848
 30
0.0
 11
945.899881045285
 21
395.2780766050507
 31
0.0
  0
LINE
  5
6EE
330
22
100
AcDbEntity
  8
_2-7_ビス
  6
Continuous
 62
     7
100
AcDbLine
 10
945.899881045285
 20
395.2780766050507
 30
0.0
 11
945.9323866138783
 21
395.3644950195389
 31
0.0
  0
LINE
  5
6EF
330
22
100
AcDbEntity
  8
_2-7_ビス
  6
Continuous
 62
     7
100
AcDbLine
 10
945.9323866138783
 20
395.3644950195389
 30
0.0
 11
945.9507489113631
 21
395.4558062292551
 31
0.0
  0
LINE
  5
6F0
330
22
100
AcDbEntity
  8
_2-7_ビス
  6
Continuous
 62
     7
100
AcDbLine
 10
945.9507489113631
 20
395.4558062292551
 30
0.0
 11
945.9544100086228
 21
395.5492357892977
 31
0.0
  0
LINE
  5
6F1
330
22
100
AcDbEntity
  8
_2-7_ビス
  6
Continuous
 62
     7
100
AcDbLine
 10
945.9544100086228
 20
395.5492357892977
 30
0.0
 11
945.9432586650695
 21
395.6419448897621
 31
0.0
  0
LINE
  5
6F2
330
22
100
AcDbEntity
  8
_2-7_ビス
  6
Continuous
 62
     7
100
AcDbLine
 10
945.9432586650695
 20
395.6419448897621
 30
0.0
 11
945.9176337086338
 21
395.7311166115443
 31
0.0
  0
LINE
  5
6F3
330
22
100
AcDbEntity
  8
_2-7_ビス
  6
Continuous
 62
     7
100
AcDbLine
 10
945.9176337086338
 20
395.7311166115443
 30
0.0
 11
945.8783137406509
 21
395.8140415170007
 31
0.0
  0
LINE
  5
6F4
330
22
100
AcDbEntity
  8
_2-7_ビス
  6
Continuous
 62
     7
100
AcDbLine
 10
945.8783137406509
 20
395.8140415170007
 30
0.0
 11
945.8264934784503
 21
395.8881999748411
 31
0.0
  0
LINE
  5
6F5
330
22
100
AcDbEntity
  8
_2-7_ビス
  6
Continuous
 62
     7
100
AcDbLine
 10
945.8264934784503
 20
395.8881999748411
 30
0.0
 11
945.7637474544771
 21
395.9513387178503
 31
0.0
  0
LINE
  5
6F6
330
22
100
AcDbEntity
  8
_2-7_ビス
  6
Continuous
 62
     7
100
AcDbLine
 10
945.7637474544771
 20
395.9513387178503
 30
0.0
 11
945.6919821749183
 21
396.0015393072712
 31
0.0
  0
LINE
  5
6F7
330
22
100
AcDbEntity
  8
_2-7_ビス
  6
Continuous
 62
     7
100
AcDbLine
 10
945.6919821749183
 20
396.0015393072712
 30
0.0
 11
945.6133781914791
 21
396.0372764235972
 31
0.0
  0
LINE
  5
6F8
330
22
100
AcDbEntity
  8
_2-7_ビス
  6
Continuous
 62
     7
100
AcDbLine
 10
945.6133781914791
 20
396.0372764235972
 30
0.0
 11
945.53032384642
 21
396.0574642126329
 31
0.0
  0
LINE
  5
6F9
330
22
100
AcDbEntity
  8
_2-7_ビス
  6
Continuous
 62
     7
100
AcDbLine
 10
945.53032384642
 20
396.0574642126329
 30
0.0
 11
945.4884773132572
 21
396.0614892786232
 31
0.0
  0
LINE
  5
6FA
330
22
100
AcDbEntity
  8
_2-7_ビス
  6
Continuous
 62
     7
100
AcDbLine
 10
945.4884773132572
 20
402.8228927832234
 30
0.0
 11
945.4884773132572
 21
402.8228927832234
 31
0.0
  0
LINE
  5
6FB
330
22
100
AcDbEntity
  8
_2-7_ビス
  6
Continuous
 62
     7
100
AcDbLine
 10
945.4884773132572
 20
402.8228927832234
 30
0.0
 11
945.5728031440511
 21
402.8351527398712
 31
0.0
  0
LINE
  5
6FC
330
22
100
AcDbEntity
  8
_2-7_ビス
  6
Continuous
 62
     7
100
AcDbLine
 10
945.5728031440511
 20
402.8351527398712
 30
0.0
 11
945.6539114655093
 21
402.8633252065782
 31
0.0
  0
LINE
  5
6FD
330
22
100
AcDbEntity
  8
_2-7_ビス
  6
Continuous
 62
     7
100
AcDbLine
 10
945.6539114655093
 20
402.8633252065782
 30
0.0
 11
945.7293378423273
 21
402.9065541771998
 31
0.0
  0
LINE
  5
6FE
330
22
100
AcDbEntity
  8
_2-7_ビス
  6
Continuous
 62
     7
100
AcDbLine
 10
945.7293378423273
 20
402.9065541771998
 30
0.0
 11
945.7967904822133
 21
402.9635261613383
 31
0.0
  0
LINE
  5
6FF
330
22
100
AcDbEntity
  8
_2-7_ビス
  6
Continuous
 62
     7
100
AcDbLine
 10
945.7967904822133
 20
402.9635261613383
 30
0.0
 11
945.8542198708368
 21
403.0325100940849
 31
0.0
  0
LINE
  5
700
330
22
100
AcDbEntity
  8
_2-7_ビス
  6
Continuous
 62
     7
100
AcDbLine
 10
945.8542198708368
 20
403.0325100940849
 30
0.0
 11
945.899881045285
 21
403.1114099335509
 31
0.0
  0
LINE
  5
701
330
22
100
AcDbEntity
  8
_2-7_ビス
  6
Continuous
 62
     7
100
AcDbLine
 10
945.899881045285
 20
403.1114099335509
 30
0.0
 11
945.9323866138783
 21
403.1978283480391
 31
0.0
  0
LINE
  5
702
330
22
100
AcDbEntity
  8
_2-7_ビス
  6
Continuous
 62
     7
100
AcDbLine
 10
945.9323866138783
 20
403.1978283480391
 30
0.0
 11
945.9507489113631
 21
403.2891395577552
 31
0.0
  0
LINE
  5
703
330
22
100
AcDbEntity
  8
_2-7_ビス
  6
Continuous
 62
     7
100
AcDbLine
 10
945.9507489113631
 20
403.2891395577552
 30
0.0
 11
945.9544100086228
 21
403.3825691177978
 31
0.0
  0
LINE
  5
704
330
22
100
AcDbEntity
  8
_2-7_ビス
  6
Continuous
 62
     7
100
AcDbLine
 10
945.9544100086228
 20
403.3825691177978
 30
0.0
 11
945.9432586650695
 21
403.4752782182622
 31
0.0
  0
LINE
  5
705
330
22
100
AcDbEntity
  8
_2-7_ビス
  6
Continuous
 62
     7
100
AcDbLine
 10
945.9432586650695
 20
403.4752782182622
 30
0.0
 11
945.9176337086338
 21
403.5644499400445
 31
0.0
  0
LINE
  5
706
330
22
100
AcDbEntity
  8
_2-7_ビス
  6
Continuous
 62
     7
100
AcDbLine
 10
945.9176337086338
 20
403.5644499400445
 30
0.0
 11
945.8783137406509
 21
403.6473748455008
 31
0.0
  0
LINE
  5
707
330
22
100
AcDbEntity
  8
_2-7_ビス
  6
Continuous
 62
     7
100
AcDbLine
 10
945.8783137406509
 20
403.6473748455008
 30
0.0
 11
945.8264934784503
 21
403.7215333033413
 31
0.0
  0
LINE
  5
708
330
22
100
AcDbEntity
  8
_2-7_ビス
  6
Continuous
 62
     7
100
AcDbLine
 10
945.8264934784503
 20
403.7215333033413
 30
0.0
 11
945.7637474544771
 21
403.7846720463504
 31
0.0
  0
LINE
  5
709
330
22
100
AcDbEntity
  8
_2-7_ビス
  6
Continuous
 62
     7
100
AcDbLine
 10
945.7637474544771
 20
403.7846720463504
 30
0.0
 11
945.6919821749183
 21
403.8348726357714
 31
0.0
  0
LINE
  5
70A
330
22
100
AcDbEntity
  8
_2-7_ビス
  6
Continuous
 62
     7
100
AcDbLine
 10
945.6919821749183
 20
403.8348726357714
 30
0.0
 11
945.6133781914791
 21
403.8706097520974
 31
0.0
  0
LINE
  5
70B
330
22
100
AcDbEntity
  8
_2-7_ビス
  6
Continuous
 62
     7
100
AcDbLine
 10
945.6133781914791
 20
403.8706097520974
 30
0.0
 11
945.53032384642
 21
403.8907975411329
 31
0.0
  0
LINE
  5
70C
330
22
100
AcDbEntity
  8
_2-7_ビス
  6
Continuous
 62
     7
100
AcDbLine
 10
945.53032384642
 20
403.8907975411329
 30
0.0
 11
945.4884773132572
 21
403.8948226071234
 31
0.0
  0
LINE
  5
70D
330
22
100
AcDbEntity
  8
_2-7_ビス
  6
Continuous
 62
     7
100
AcDbLine
 10
945.863969457147
 20
384.4351734963229
 30
0.0
 11
945.863969457147
 21
384.4351734963229
 31
0.0
  0
LINE
  5
70E
330
22
100
AcDbEntity
  8
_2-7_ビス
  6
Continuous
 62
     7
100
AcDbLine
 10
945.863969457147
 20
384.4351734963229
 30
0.0
 11
945.8585655327206
 21
384.5744291182382
 31
0.0
  0
LINE
  5
70F
330
22
100
AcDbEntity
  8
_2-7_ビス
  6
Continuous
 62
     7
100
AcDbLine
 10
945.8585655327206
 20
384.5744291182382
 30
0.0
 11
945.8312488447012
 21
384.7105374633209
 31
0.0
  0
LINE
  5
710
330
22
100
AcDbEntity
  8
_2-7_ビス
  6
Continuous
 62
     7
100
AcDbLine
 10
945.8312488447012
 20
384.7105374633209
 30
0.0
 11
945.8136941240585
 21
384.7649980575229
 31
0.0
  0
LINE
  5
711
330
22
100
AcDbEntity
  8
_2-7_ビス
  6
Continuous
 62
     7
100
AcDbLine
 10
946.9548750632563
 20
382.4358460387706
 30
0.0
 11
946.9548750632563
 21
382.4358460387706
 31
0.0
  0
LINE
  5
712
330
22
100
AcDbEntity
  8
_2-7_ビス
  6
Continuous
 62
     7
100
AcDbLine
 10
946.9548750632563
 20
382.4358460387706
 30
0.0
 11
946.9520532384235
 21
382.4916862333146
 31
0.0
  0
LINE
  5
713
330
22
100
AcDbEntity
  8
_2-7_ビス
  6
Continuous
 62
     7
100
AcDbLine
 10
946.9520532384235
 20
382.4916862333146
 30
0.0
 11
946.9404545509346
 21
382.5461393711702
 31
0.0
  0
LINE
  5
714
330
22
100
AcDbEntity
  8
_2-7_ビス
  6
Continuous
 62
     7
100
AcDbLine
 10
946.9404545509346
 20
382.5461393711702
 30
0.0
 11
946.9204314210399
 21
382.5975509212981
 31
0.0
  0
LINE
  5
715
330
22
100
AcDbEntity
  8
_2-7_ビス
  6
Continuous
 62
     7
100
AcDbLine
 10
946.9204314210399
 20
382.5975509212981
 30
0.0
 11
946.8925922414092
 21
382.6443587697634
 31
0.0
  0
LINE
  5
716
330
22
100
AcDbEntity
  8
_2-7_ビス
  6
Continuous
 62
     7
100
AcDbLine
 10
946.8925922414092
 20
382.6443587697634
 30
0.0
 11
946.8577828914273
 21
382.6851406837764
 31
0.0
  0
LINE
  5
717
330
22
100
AcDbEntity
  8
_2-7_ビス
  6
Continuous
 62
     7
100
AcDbLine
 10
946.8577828914273
 20
382.6851406837764
 30
0.0
 11
946.8170610355807
 21
382.7186575255162
 31
0.0
  0
LINE
  5
718
330
22
100
AcDbEntity
  8
_2-7_ビス
  6
Continuous
 62
     7
100
AcDbLine
 10
946.8170610355807
 20
382.7186575255162
 30
0.0
 11
946.7716639868514
 21
382.7438909027072
 31
0.0
  0
LINE
  5
719
330
22
100
AcDbEntity
  8
_2-7_ビス
  6
Continuous
 62
     7
100
AcDbLine
 10
946.7716639868514
 20
382.7438909027072
 30
0.0
 11
946.7229711115939
 21
382.7600741119517
 31
0.0
  0
LINE
  5
71A
330
22
100
AcDbEntity
  8
_2-7_ビス
  6
Continuous
 62
     7
100
AcDbLine
 10
946.7229711115939
 20
382.7600741119517
 30
0.0
 11
946.6724619181833
 21
382.7667154346263
 31
0.0
  0
LINE
  5
71B
330
22
100
AcDbEntity
  8
_2-7_ビス
  6
Continuous
 62
     7
100
AcDbLine
 10
946.6724619181833
 20
382.7667154346263
 30
0.0
 11
946.6216711029018
 21
382.7636130775021
 31
0.0
  0
LINE
  5
71C
330
22
100
AcDbEntity
  8
_2-7_ビス
  6
Continuous
 62
     7
100
AcDbLine
 10
946.6216711029018
 20
382.7636130775021
 30
0.0
 11
946.5721419189708
 21
382.7508613041305
 31
0.0
  0
LINE
  5
71D
330
22
100
AcDbEntity
  8
_2-7_ビス
  6
Continuous
 62
     7
100
AcDbLine
 10
946.5721419189708
 20
382.7508613041305
 30
0.0
 11
946.5253792855806
 21
382.7288475706926
 31
0.0
  0
LINE
  5
71E
330
22
100
AcDbEntity
  8
_2-7_ビス
  6
Continuous
 62
     7
100
AcDbLine
 10
946.5253792855806
 20
382.7288475706926
 30
0.0
 11
946.4828040616845
 21
382.6982407533394
 31
0.0
  0
LINE
  5
71F
330
22
100
AcDbEntity
  8
_2-7_ビス
  6
Continuous
 62
     7
100
AcDbLine
 10
946.4828040616845
 20
382.6982407533394
 30
0.0
 11
946.4457098739156
 21
382.6599708247285
 31
0.0
  0
LINE
  5
720
330
22
100
AcDbEntity
  8
_2-7_ビス
  6
Continuous
 62
     7
100
AcDbLine
 10
946.4457098739156
 20
382.6599708247285
 30
0.0
 11
946.4152238103997
 21
382.6152005972751
 31
0.0
  0
LINE
  5
721
330
22
100
AcDbEntity
  8
_2-7_ビス
  6
Continuous
 62
     7
100
AcDbLine
 10
946.4152238103997
 20
382.6152005972751
 30
0.0
 11
946.392272174749
 21
382.5652903916857
 31
0.0
  0
LINE
  5
722
330
22
100
AcDbEntity
  8
_2-7_ビス
  6
Continuous
 62
     7
100
AcDbLine
 10
946.392272174749
 20
382.5652903916857
 30
0.0
 11
946.3775523407992
 21
382.5117567043012
 31
0.0
  0
LINE
  5
723
330
22
100
AcDbEntity
  8
_2-7_ビス
  6
Continuous
 62
     7
100
AcDbLine
 10
946.3775523407992
 20
382.5117567043012
 30
0.0
 11
946.3715115632565
 21
382.4562261291234
 31
0.0
  0
LINE
  5
724
330
22
100
AcDbEntity
  8
_2-7_ビス
  6
Continuous
 62
     7
100
AcDbLine
 10
946.3715115632565
 20
382.4562261291234
 30
0.0
 11
946.3715115632565
 21
382.4562261291232
 31
0.0
  0
LINE
  5
725
330
22
100
AcDbEntity
  8
_2-2_IN_LINE
  6
Continuous
 62
     7
100
AcDbLine
 10
968.6783019866368
 20
472.0193839985251
 30
0.0
 11
974.7404798131324
 21
468.5193839985237
 31
0.0
  0
LINE
  5
726
330
22
100
AcDbEntity
  8
_2-4_OUT_LINE
  6
Continuous
 62
     2
100
AcDbLine
 10
976.0802257752892
 20
473.5193839985237
 30
0.0
 11
1016.074985031619
 21
473.5193839985237
 31
0.0
  0
LINE
  5
727
330
22
100
AcDbEntity
  8
_2-4_OUT_LINE
  6
Continuous
 62
     2
100
AcDbLine
 10
970.0180479487984
 20
477.0193839985227
 30
0.0
 11
976.0802257752892
 21
473.5193839985237
 31
0.0
  0
LINE
  5
728
330
22
100
AcDbEntity
  8
_2-4_OUT_LINE
  6
Continuous
 62
     2
100
AcDbLine
 10
880.1922785369653
 20
477.0193839985227
 30
0.0
 11
970.0180479487984
 21
477.0193839985227
 31
0.0
  0
LINE
  5
729
330
22
100
AcDbEntity
  8
_2-2_IN_LINE
  6
Continuous
 62
     7
100
AcDbLine
 10
950.657227313256
 20
463.5193839985237
 30
0.0
 11
1366.711480536965
 21
463.5193839985237
 31
0.0
  0
LINE
  5
72A
330
22
100
AcDbEntity
  8
_2-D_ハッチ他
  6
Continuous
 62
     4
100
AcDbLine
 10
950.657227313256
 20
457.3477335737612
 30
0.0
 11
956.8288777380198
 21
463.5193839985237
 31
0.0
  0
LINE
  5
72B
330
22
100
AcDbEntity
  8
_2-2_IN_LINE
  6
Continuous
 62
     7
100
AcDbLine
 10
950.657227313256
 20
453.5193839985237
 30
0.0
 11
1366.711480536965
 21
453.5193839985237
 31
0.0
  0
LINE
  5
72C
330
22
100
AcDbEntity
  8
_2-D_ハッチ他
  6
Continuous
 62
     4
100
AcDbLine
 10
950.657227313256
 20
429.6971579930191
 30
0.0
 11
956.8350013077516
 21
423.5193839985237
 31
0.0
  0
LINE
  5
72D
330
22
100
AcDbEntity
  8
_2-D_ハッチ他
  6
Continuous
 62
     4
100
AcDbLine
 10
950.657227313256
 20
426.4183876004249
 30
0.0
 11
977.7582237113549
 21
453.5193839985237
 31
0.0
  0
LINE
  5
72E
330
22
100
AcDbEntity
  8
_2-D_ハッチ他
  6
Continuous
 62
     4
100
AcDbLine
 10
926.8350013077526
 20
453.5193839985237
 30
0.0
 11
946.6572273132564
 21
433.6971579930177
 31
0.0
  0
LINE
  5
72F
330
22
100
AcDbEntity
  8
_2-D_ハッチ他
  6
Continuous
 62
     4
100
AcDbLine
 10
919.4739524638883
 20
423.5193839985237
 30
0.0
 11
946.6572273132564
 21
450.7026588478908
 31
0.0
  0
LINE
  5
730
330
22
100
AcDbEntity
  8
_2-2_IN_LINE
  6
Continuous
 62
     7
100
AcDbLine
 10
866.7114805369656
 20
463.5193839985237
 30
0.0
 11
946.6572273132564
 21
463.5193839985237
 31
0.0
  0
LINE
  5
731
330
22
100
AcDbEntity
  8
_2-2_IN_LINE
  6
Continuous
 62
     7
100
AcDbLine
 10
866.7114805369656
 20
453.5193839985237
 30
0.0
 11
946.6572273132564
 21
453.5193839985237
 31
0.0
  0
LINE
  5
732
330
22
100
AcDbEntity
  8
_2-2_IN_LINE
  6
Continuous
 62
     7
100
AcDbLine
 10
869.0677186701737
 20
495.005348634848
 30
0.0
 11
866.7114805369656
 21
503.7989490627154
 31
0.0
  0
LINE
  5
733
330
22
100
AcDbEntity
  8
_2-4_OUT_LINE
  6
Continuous
 62
     2
100
AcDbLine
 10
874.2810234271415
 20
494.8675469322887
 30
0.0
 11
875.2230407432294
 21
482.3119716232196
 31
0.0
  0
LINE
  5
734
330
22
100
AcDbEntity
  8
_2-4_OUT_LINE
  6
Continuous
 62
     2
100
AcDbLine
 10
874.2810234271415
 20
494.8675469322887
 30
0.0
 11
871.7114805369655
 21
504.457211550652
 31
0.0
  0
LINE
  5
735
330
22
100
AcDbEntity
  8
_2-4_OUT_LINE
  6
Continuous
 62
     2
100
AcDbLine
 10
871.7114805369655
 20
504.457211550652
 30
0.0
 11
871.7114805369655
 21
673.5193839985235
 31
0.0
  0
LINE
  5
736
330
22
100
AcDbEntity
  8
_2-D_ハッチ他
  6
Continuous
 62
     4
100
AcDbLine
 10
866.7114805369646
 20
278.0105604946726
 30
0.0
 11
871.2026570331145
 21
273.5193839985237
 31
0.0
  0
LINE
  5
737
330
22
100
AcDbEntity
  8
_2-D_ハッチ他
  6
Continuous
 62
     4
100
AcDbLine
 10
866.7114805369656
 20
292.152696118406
 30
0.0
 11
885.3447926568467
 21
273.5193839985237
 31
0.0
  0
LINE
  5
738
330
22
100
AcDbEntity
  8
_2-D_ハッチ他
  6
Continuous
 62
     4
100
AcDbLine
 10
866.7114805369646
 20
412.6578610733104
 30
0.0
 11
877.573003462181
 21
423.5193839985259
 31
0.0
  0
LINE
  5
739
330
22
100
AcDbEntity
  8
_2-3_
  6
Continuous
 62
     3
100
AcDbLine
 10
866.7114805369656
 20
273.5193839985237
 30
0.0
 11
866.7114805369656
 21
223.5193839985237
 31
0.0
  0
LINE
  5
73A
330
22
100
AcDbEntity
  8
_2-5_金属
  6
Continuous
 62
     3
100
AcDbLine
 10
976.7114805369656
 20
273.5193839985237
 30
0.0
 11
976.7114805369656
 21
266.5193839985233
 31
0.0
  0
LINE
  5
73B
330
22
100
AcDbEntity
  8
_2-5_金属
  6
Continuous
 62
     3
100
AcDbLine
 10
876.7114805369656
 20
273.5193839985237
 30
0.0
 11
876.7114805369656
 21
266.5193839985233
 31
0.0
  0
LINE
  5
73C
330
22
100
AcDbEntity
  8
_2-5_金属
  6
Continuous
 62
     3
100
AcDbLine
 10
939.9864805369654
 20
266.4443839985239
 30
0.0
 11
976.7114805369656
 21
266.5193839985233
 31
0.0
  0
ARC
  5
73D
330
22
100
AcDbEntity
  8
_2-5_金属
  6
Continuous
 62
     3
100
AcDbCircle
 10
939.9864805369654
 20
255.4443839985248
 30
0.0
 40
11.0
100
AcDbArc
 50
90.0
 51
180.0
  0
ARC
  5
73E
330
22
100
AcDbEntity
  8
_2-5_金属
  6
Continuous
 62
     3
100
AcDbCircle
 10
913.4364805369656
 20
255.5193839985242
 30
0.0
 40
11.0
100
AcDbArc
 50
0.0
 51
90.0
  0
LINE
  5
73F
330
22
100
AcDbEntity
  8
_2-5_金属
  6
Continuous
 62
     3
100
AcDbLine
 10
913.4364805369656
 20
266.5193839985233
 30
0.0
 11
876.7114805369656
 21
266.5193839985233
 31
0.0
  0
LINE
  5
740
330
22
100
AcDbEntity
  8
_2-5_金属
  6
Continuous
 62
     3
100
AcDbLine
 10
876.7114805369656
 20
273.5193839985237
 30
0.0
 11
976.7114805369656
 21
273.5193839985237
 31
0.0
  0
LINE
  5
741
330
22
100
AcDbEntity
  8
_2-D_ハッチ他
  6
Continuous
 62
     4
100
AcDbLine
 10
968.2436222011707
 20
266.5020908909633
 30
0.0
 11
975.2609153087338
 21
273.5193839985237
 31
0.0
  0
LINE
  5
742
330
22
100
AcDbEntity
  8
_2-D_ハッチ他
  6
Continuous
 62
     4
100
AcDbLine
 10
924.4364805369674
 20
229.766017038624
 30
0.0
 11
928.9864805369663
 21
234.3160170386233
 31
0.0
  0
LINE
  5
743
330
22
100
AcDbEntity
  8
_2-D_ハッチ他
  6
Continuous
 62
     4
100
AcDbLine
 10
961.1580842641783
 20
266.4876207658364
 30
0.0
 11
968.1898474968644
 21
273.5193839985237
 31
0.0
  0
LINE
  5
744
330
22
100
AcDbEntity
  8
_2-D_ハッチ他
  6
Continuous
 62
     4
100
AcDbLine
 10
924.4364805369674
 20
250.9792204742149
 30
0.0
 11
928.9868102363264
 21
255.5295501735741
 31
0.0
  0
LINE
  5
745
330
22
100
AcDbEntity
  8
_2-D_ハッチ他
  6
Continuous
 62
     4
100
AcDbLine
 10
939.9013143619024
 20
266.4440542991503
 30
0.0
 11
946.9766440612758
 21
273.5193839985237
 31
0.0
  0
LINE
  5
746
330
22
100
AcDbEntity
  8
_2-D_ハッチ他
  6
Continuous
 62
     4
100
AcDbLine
 10
924.1954903980806
 20
257.8092981471952
 30
0.0
 11
939.9055762494091
 21
273.519383998526
 31
0.0
  0
LINE
  5
747
330
22
100
AcDbEntity
  8
_2-D_ハッチ他
  6
Continuous
 62
     4
100
AcDbLine
 10
911.692372813809
 20
266.5193839985233
 30
0.0
 11
918.6923728138104
 21
273.519383998526
 31
0.0
  0
LINE
  5
748
330
22
100
AcDbEntity
  8
_2-D_ハッチ他
  6
Continuous
 62
     4
100
AcDbLine
 10
904.6213050019536
 20
266.5193839985256
 30
0.0
 11
911.6213050019492
 21
273.5193839985237
 31
0.0
  0
LINE
  5
749
330
22
100
AcDbEntity
  8
_2-D_ハッチ他
  6
Continuous
 62
     4
100
AcDbLine
 10
883.4081015663523
 20
266.5193839985256
 30
0.0
 11
890.4081015663516
 21
273.5193839985237
 31
0.0
  0
LINE
  5
74A
330
22
100
AcDbEntity
  8
_2-D_ハッチ他
  6
Continuous
 62
     4
100
AcDbLine
 10
876.7114805369645
 20
266.8938307810032
 30
0.0
 11
883.3370337544852
 21
273.519383998526
 31
0.0
  0
LINE
  5
74B
330
22
100
AcDbEntity
  8
_2-5_金属
  6
Continuous
 62
     3
100
AcDbLine
 10
928.9864805369663
 20
223.5193839985237
 30
0.0
 11
928.9864805369663
 21
255.4443839985248
 31
0.0
  0
LINE
  5
74C
330
22
100
AcDbEntity
  8
_2-5_金属
  6
Continuous
 62
     3
100
AcDbLine
 10
924.4364805369647
 20
255.5193839985242
 30
0.0
 11
924.4364805369647
 21
223.5193839985237
 31
0.0
  0
LINE
  5
74D
330
22
100
AcDbEntity
  8
_2-D_ハッチ他
  6
Continuous
 62
     4
100
AcDbLine
 10
925.2609153087325
 20
223.5193839985237
 30
0.0
 11
928.9864805369663
 21
227.2449492267589
 31
0.0
  0
LINE
  5
74E
330
22
100
AcDbEntity
  8
_2-2_IN_LINE
  6
Continuous
 62
     7
100
AcDbLine
 10
906.7114805369655
 20
423.5193839985237
 30
0.0
 11
906.7114805369655
 21
273.5193839985237
 31
0.0
  0
LINE
  5
74F
330
22
100
AcDbEntity
  8
_2-D_ハッチ他
  6
Continuous
 62
     4
100
AcDbLine
 10
876.7661488941527
 20
423.5193839985237
 30
0.0
 11
906.7114805369655
 21
393.5740523557143
 31
0.0
  0
LINE
  5
750
330
22
100
AcDbEntity
  8
_2-D_ハッチ他
  6
Continuous
 62
     4
100
AcDbLine
 10
883.1364953232194
 20
273.519383998526
 30
0.0
 11
906.7114805369655
 21
297.0943692122643
 31
0.0
  0
LINE
  5
751
330
22
100
AcDbEntity
  8
_2-D_ハッチ他
  6
Continuous
 62
     4
100
AcDbLine
 10
866.7114805369646
 20
306.2948317421416
 30
0.0
 11
906.7114805369655
 21
266.2948317421359
 31
0.0
  0
LINE
  5
752
330
22
100
AcDbEntity
  8
_2-D_ハッチ他
  6
Continuous
 62
     4
100
AcDbLine
 10
866.7114805369667
 20
320.4369673658636
 30
0.0
 11
906.7114805369655
 21
280.4369673658624
 31
0.0
  0
LINE
  5
753
330
22
100
AcDbEntity
  8
_2-D_ハッチ他
  6
Continuous
 62
     4
100
AcDbLine
 10
866.7114805369656
 20
334.5791029895969
 30
0.0
 11
906.7114805369655
 21
294.5791029895969
 31
0.0
  0
LINE
  5
754
330
22
100
AcDbEntity
  8
_2-D_ハッチ他
  6
Continuous
 62
     4
100
AcDbLine
 10
866.7114805369646
 20
348.7212386133302
 30
0.0
 11
906.7114805369655
 21
308.721238613329
 31
0.0
  0
LINE
  5
755
330
22
100
AcDbEntity
  8
_2-D_ハッチ他
  6
Continuous
 62
     4
100
AcDbLine
 10
866.7114805369646
 20
362.8633742370636
 30
0.0
 11
906.7114805369655
 21
322.863374237067
 31
0.0
  0
LINE
  5
756
330
22
100
AcDbEntity
  8
_2-D_ハッチ他
  6
Continuous
 62
     4
100
AcDbLine
 10
866.7114805369656
 20
377.0055098607878
 30
0.0
 11
906.7114805369655
 21
337.0055098607878
 31
0.0
  0
LINE
  5
757
330
22
100
AcDbEntity
  8
_2-D_ハッチ他
  6
Continuous
 62
     4
100
AcDbLine
 10
866.7114805369656
 20
391.1476454845212
 30
0.0
 11
906.7114805369655
 21
351.1476454845189
 31
0.0
  0
LINE
  5
758
330
22
100
AcDbEntity
  8
_2-D_ハッチ他
  6
Continuous
 62
     4
100
AcDbLine
 10
866.7114805369646
 20
405.2897811082544
 30
0.0
 11
906.7114805369655
 21
365.2897811082556
 31
0.0
  0
LINE
  5
759
330
22
100
AcDbEntity
  8
_2-D_ハッチ他
  6
Continuous
 62
     4
100
AcDbLine
 10
866.7114805369633
 20
419.4319167319901
 30
0.0
 11
906.7114805369655
 21
379.4319167319878
 31
0.0
  0
LINE
  5
75A
330
22
100
AcDbEntity
  8
_2-D_ハッチ他
  6
Continuous
 62
     4
100
AcDbLine
 10
868.9943596994975
 20
273.519383998526
 30
0.0
 11
906.7114805369655
 21
311.2365048359965
 31
0.0
  0
LINE
  5
75B
330
22
100
AcDbEntity
  8
_2-D_ハッチ他
  6
Continuous
 62
     4
100
AcDbLine
 10
866.7114805369678
 20
285.3786404597309
 30
0.0
 11
906.7114805369655
 21
325.378640459731
 31
0.0
  0
LINE
  5
75C
330
22
100
AcDbEntity
  8
_2-D_ハッチ他
  6
Continuous
 62
     4
100
AcDbLine
 10
866.7114805369656
 20
299.520776083462
 30
0.0
 11
906.7114805369655
 21
339.520776083462
 31
0.0
  0
LINE
  5
75D
330
22
100
AcDbEntity
  8
_2-D_ハッチ他
  6
Continuous
 62
     4
100
AcDbLine
 10
866.7114805369646
 20
313.6629117071862
 30
0.0
 11
906.7114805369655
 21
353.6629117071873
 31
0.0
  0
LINE
  5
75E
330
22
100
AcDbEntity
  8
_2-D_ハッチ他
  6
Continuous
 62
     4
100
AcDbLine
 10
866.7114805369633
 20
327.8050473309173
 30
0.0
 11
906.7114805369655
 21
367.8050473309196
 31
0.0
  0
LINE
  5
75F
330
22
100
AcDbEntity
  8
_2-D_ハッチ他
  6
Continuous
 62
     4
100
AcDbLine
 10
866.7114805369667
 20
341.9471829546529
 30
0.0
 11
906.7114805369655
 21
381.9471829546517
 31
0.0
  0
LINE
  5
760
330
22
100
AcDbEntity
  8
_2-D_ハッチ他
  6
Continuous
 62
     4
100
AcDbLine
 10
866.7114805369656
 20
356.0893185783862
 30
0.0
 11
906.7114805369655
 21
396.0893185783863
 31
0.0
  0
LINE
  5
761
330
22
100
AcDbEntity
  8
_2-D_ハッチ他
  6
Continuous
 62
     4
100
AcDbLine
 10
866.7114805369656
 20
370.2314542021105
 30
0.0
 11
906.7114805369655
 21
410.2314542021128
 31
0.0
  0
LINE
  5
762
330
22
100
AcDbEntity
  8
_2-D_ハッチ他
  6
Continuous
 62
     4
100
AcDbLine
 10
866.7114805369646
 20
384.3735898258416
 30
0.0
 11
905.8572747096444
 21
423.5193839985237
 31
0.0
  0
LINE
  5
763
330
22
100
AcDbEntity
  8
_2-D_ハッチ他
  6
Continuous
 62
     4
100
AcDbLine
 10
866.7114805369656
 20
398.5157254495772
 30
0.0
 11
891.7151390859121
 21
423.5193839985237
 31
0.0
  0
LINE
  5
764
330
22
100
AcDbEntity
  8
_2-D_ハッチ他
  6
Continuous
 62
     4
100
AcDbLine
 10
897.278630946948
 20
273.519383998526
 30
0.0
 11
906.7114805369655
 21
282.9522335885401
 31
0.0
  0
LINE
  5
765
330
22
100
AcDbEntity
  8
_2-D_ハッチ他
  6
Continuous
 62
     4
100
AcDbLine
 10
890.9082845178815
 20
423.5193839985237
 30
0.0
 11
906.7114805369655
 21
407.7161879794419
 31
0.0
  0
LINE
  5
766
330
22
100
AcDbEntity
  8
_2-E_CON他
  6
Continuous
 62
     4
100
AcDbLine
 10
906.7114805369655
 20
285.6859101278684
 30
0.0
 11
1044.544954407619
 21
423.5193839985237
 31
0.0
  0
LINE
  5
767
330
22
100
AcDbEntity
  8
_2-E_CON他
  6
Continuous
 62
     4
100
AcDbLine
 10
906.7114805369655
 20
278.614842316004
 30
0.0
 11
1051.616022219485
 21
423.5193839985237
 31
0.0
  0
ENDSEC
  0
SECTION
  2
OBJECTS
  0
DICTIONARY
  5
C
330
0
100
AcDbDictionary
281
     1
  3
ACAD_COLOR
350
1B
  3
ACAD_GROUP
350
D
  3
ACAD_LAYOUT
350
19
  3
ACAD_MATERIAL
350
1A
  3
ACAD_MLINESTYLE
350
16
  3
ACAD_PLOTSETTINGS
350
18
  3
ACAD_PLOTSTYLENAME
350
E
  3
ACAD_TABLESTYLE
350
1C
  3
ACDBHEADERROUNDTRIPXREC
350
76F
  3
AcDbVariableDictionary
350
76A
  0
DICTIONARY
  5
1B
102
{ACAD_REACTORS
330
C
102
}
330
C
100
AcDbDictionary
281
     1
  0
DICTIONARY
  5
D
102
{ACAD_REACTORS
330
C
102
}
330
C
100
AcDbDictionary
281
     1
  0
DICTIONARY
  5
19
102
{ACAD_REACTORS
330
C
102
}
330
C
100
AcDbDictionary
281
     1
  3
Model
350
25
  3
レイアウト1
350
21
  0
DICTIONARY
  5
1A
102
{ACAD_REACTORS
330
C
102
}
330
C
100
AcDbDictionary
281
     1
  0
DICTIONARY
  5
16
102
{ACAD_REACTORS
330
C
102
}
330
C
100
AcDbDictionary
281
     1
  3
Standard
350
17
  0
DICTIONARY
  5
18
102
{ACAD_REACTORS
330
C
102
}
330
C
100
AcDbDictionary
281
     1
  0
ACDBDICTIONARYWDFLT
  5
E
102
{ACAD_REACTORS
330
C
102
}
330
C
100
AcDbDictionary
281
     1
  3
Normal
350
F
100
AcDbDictionaryWithDefault
340
F
  0
DICTIONARY
  5
1C
102
{ACAD_REACTORS
330
C
102
}
330
C
100
AcDbDictionary
281
     1
  3
Standard
350
1D
  0
DICTIONARY
  5
76F
102
{ACAD_REACTORS
330
C
102
}
330
C
100
AcDbDictionary
281
     1
  0
DICTIONARY
  5
76A
102
{ACAD_REACTORS
330
C
102
}
330
C
100
AcDbDictionary
281
     1
  3
CTABLESTYLE
350
76B
  3
DIMASSOC
350
76C
  3
PROJECTNAME
350
76D
  0
LAYOUT
  5
25
102
{ACAD_XDICTIONARY
360
772
102
}
102
{ACAD_REACTORS
330
19
102
}
330
19
100
AcDbPlotSettings
  1

  2
PC1665
  4

  6

 40
0.0
 41
0.0
 42
0.0
 43
0.0
 44
0.0
 45
0.0
 46
0.0
 47
0.0
 48
0.0
 49
0.0
140
0.0
141
0.0
142
1.0
143
1.0
 70
  1712
 72
     0
 73
     0
 74
     0
  7

 75
     0
147
1.0
148
0.0
149
0.0
100
AcDbLayout
  1
Model
 70
     1
 71
     0
 10
0.0
 20
0.0
 11
12.0
 21
9.0
 12
0.0
 22
0.0
 32
0.0
 14
0.0
 24
0.0
 34
0.0
 15
0.0
 25
0.0
 35
0.0
146
0.0
 13
0.0
 23
0.0
 33
0.0
 16
1.0
 26
0.0
 36
0.0
 17
0.0
 27
1.0
 37
0.0
 76
     0
330
22
  0
LAYOUT
  5
21
102
{ACAD_XDICTIONARY
360
770
102
}
102
{ACAD_REACTORS
330
19
102
}
330
19
100
AcDbPlotSettings
  1

  2
PC1665
  4

  6

 40
0.0
 41
0.0
 42
0.0
 43
0.0
 44
0.0
 45
0.0
 46
0.0
 47
0.0
 48
0.0
 49
0.0
140
0.0
141
0.0
142
1.0
143
1.0
 70
   688
 72
     0
 73
     0
 74
     5
  7

 75
    16
147
1.0
148
0.0
149
0.0
100
AcDbLayout
  1
レイアウト1
 70
     1
 71
     1
 10
0.0
 20
0.0
 11
12.0
 21
9.0
 12
0.0
 22
0.0
 32
0.0
 14
1.000000000000000E+20
 24
1.000000000000000E+20
 34
1.000000000000000E+20
 15
-1.000000000000000E+20
 25
-1.000000000000000E+20
 35
-1.000000000000000E+20
146
0.0
 13
0.0
 23
0.0
 33
0.0
 16
1.0
 26
0.0
 36
0.0
 17
0.0
 27
1.0
 37
0.0
 76
     0
330
1E
  0
MLINESTYLE
  5
17
102
{ACAD_REACTORS
330
16
102
}
330
16
100
AcDbMlineStyle
  2
STANDARD
 70
     0
  3

 62
   256
 51
90.0
 52
90.0
 71
     2
 49
0.5
 62
   256
  6
BYLAYER
 49
-0.5
 62
   256
  6
BYLAYER
  0
ACDBPLACEHOLDER
  5
F
102
{ACAD_REACTORS
330
E
102
}
330
E
  0
TABLESTYLE
  5
1D
102
{ACAD_REACTORS
330
1C
102
}
330
1C
100
AcDbTableStyle
  3
Standard
 70
     0
 71
     0
 40
0.06
 41
0.06
280
     0
281
     0
  7
STANDARD
140
0.18
170
     2
 62
     0
 63
     7
283
     0
274
    -2
284
     1
 64
     0
275
    -2
285
     1
 65
     0
276
    -2
286
     1
 66
     0
277
    -2
287
     1
 67
     0
278
    -2
288
     1
 68
     0
279
    -2
289
     1
 69
     0
  7
STANDARD
140
0.25
170
     5
 62
     0
 63
     7
283
     0
274
    -2
284
     1
 64
     0
275
    -2
285
     1
 65
     0
276
    -2
286
     1
 66
     0
277
    -2
287
     1
 67
     0
278
    -2
288
     1
 68
     0
279
    -2
289
     1
 69
     0
  7
STANDARD
140
0.18
170
     5
 62
     0
 63
     7
283
     0
274
    -2
284
     1
 64
     0
275
    -2
285
     1
 65
     0
276
    -2
286
     1
 66
     0
277
    -2
287
     1
 67
     0
278
    -2
288
     1
 68
     0
279
    -2
289
     1
 69
     0
  0
DICTIONARYVAR
  5
76B
102
{ACAD_REACTORS
330
76A
102
}
330
76A
100
DictionaryVariables
280
     0
  1
STANDARD
  0
DICTIONARYVAR
  5
76C
102
{ACAD_REACTORS
330
76A
102
}
330
76A
100
DictionaryVariables
280
     0
  1
1
  0
DICTIONARYVAR
  5
76D
102
{ACAD_REACTORS
330
76A
102
}
330
76A
100
DictionaryVariables
280
     0
  1

  0
DICTIONARY
  5
772
330
25
100
AcDbDictionary
280
     1
281
     1
  3
ACAD_XREC_ROUNDTRIP
360
773
  0
DICTIONARY
  5
770
330
21
100
AcDbDictionary
280
     1
281
     1
  3
ACAD_XREC_ROUNDTRIP
360
771
  0
XRECORD
  5
773
102
{ACAD_REACTORS
330
772
102
}
330
772
100
AcDbXrecord
280
     1
102
SHADEPLOT
 70
     0
102
SHADEPLOTRESLEVEL
 70
     2
102
SHADEPLOTCUSTOMDPI
 70
   300
  0
XRECORD
  5
771
102
{ACAD_REACTORS
330
770
102
}
330
770
100
AcDbXrecord
280
     1
102
SHADEPLOT
 70
     0
102
SHADEPLOTRESLEVEL
 70
     2
102
SHADEPLOTCUSTOMDPI
 70
   300
  0
ENDSEC
  0
EOF
