  0
SECTION
  2
HEADER
  9
$ACADVER
  1
AC1015
  9
$ACADMAINTVER
 70
    20
  9
$DWGCODEPAGE
  3
ANSI_932
  9
$INSBASE
 10
0.0
 20
0.0
 30
0.0
  9
$EXTMIN
 10
642.247014914461
 20
32.923968949965
 30
-0.0015258207003583
  9
$EXTMAX
 10
1642.483524864637
 20
1463.065799330437
 30
0.0000000349246037
  9
$LIMMIN
 10
0.0
 20
0.0
  9
$LIMMAX
 10
2100.0
 20
1485.0
  9
$ORTHOMODE
 70
     0
  9
$REGENMODE
 70
     1
  9
$FILLMODE
 70
     1
  9
$QTEXTMODE
 70
     0
  9
$MIRRTEXT
 70
     0
  9
$LTSCALE
 40
5.0
  9
$ATTMODE
 70
     1
  9
$TEXTSIZE
 40
0.2
  9
$TRACEWID
 40
0.05
  9
$TEXTSTYLE
  7
STANDARD
  9
$CLAYER
  8
0
  9
$CELTYPE
  6
CONTINUOUS
  9
$CECOLOR
 62
   256
  9
$CELTSCALE
 40
1.0
  9
$DISPSILH
 70
     0
  9
$DIMSCALE
 40
1.0
  9
$DIMASZ
 40
0.18
  9
$DIMEXO
 40
0.0625
  9
$DIMDLI
 40
0.38
  9
$DIMRND
 40
0.0
  9
$DIMDLE
 40
0.0
  9
$DIMEXE
 40
0.18
  9
$DIMTP
 40
0.0
  9
$DIMTM
 40
0.0
  9
$DIMTXT
 40
0.18
  9
$DIMCEN
 40
0.09
  9
$DIMTSZ
 40
0.0
  9
$DIMTOL
 70
     0
  9
$DIMLIM
 70
     0
  9
$DIMTIH
 70
     1
  9
$DIMTOH
 70
     1
  9
$DIMSE1
 70
     0
  9
$DIMSE2
 70
     0
  9
$DIMTAD
 70
     0
  9
$DIMZIN
 70
     0
  9
$DIMBLK
  1

  9
$DIMASO
 70
     1
  9
$DIMSHO
 70
     1
  9
$DIMPOST
  1

  9
$DIMAPOST
  1

  9
$DIMALT
 70
     0
  9
$DIMALTD
 70
     2
  9
$DIMALTF
 40
25.4
  9
$DIMLFAC
 40
1.0
  9
$DIMTOFL
 70
     0
  9
$DIMTVP
 40
0.0
  9
$DIMTIX
 70
     0
  9
$DIMSOXD
 70
     0
  9
$DIMSAH
 70
     0
  9
$DIMBLK1
  1

  9
$DIMBLK2
  1

  9
$DIMSTYLE
  2
Standard
  9
$DIMCLRD
 70
     0
  9
$DIMCLRE
 70
     0
  9
$DIMCLRT
 70
     0
  9
$DIMTFAC
 40
1.0
  9
$DIMGAP
 40
0.09
  9
$DIMJUST
 70
     0
  9
$DIMSD1
 70
     0
  9
$DIMSD2
 70
     0
  9
$DIMTOLJ
 70
     1
  9
$DIMTZIN
 70
     0
  9
$DIMALTZ
 70
     0
  9
$DIMALTTZ
 70
     0
  9
$DIMUPT
 70
     0
  9
$DIMDEC
 70
     4
  9
$DIMTDEC
 70
     4
  9
$DIMALTU
 70
     2
  9
$DIMALTTD
 70
     2
  9
$DIMTXSTY
  7
STANDARD
  9
$DIMAUNIT
 70
     0
  9
$DIMADEC
 70
     0
  9
$DIMALTRND
 40
0.0
  9
$DIMAZIN
 70
     0
  9
$DIMDSEP
 70
    46
  9
$DIMATFIT
 70
     3
  9
$DIMFRAC
 70
     0
  9
$DIMLDRBLK
  1

  9
$DIMLUNIT
 70
     2
  9
$DIMLWD
 70
    -2
  9
$DIMLWE
 70
    -2
  9
$DIMTMOVE
 70
     0
  9
$LUNITS
 70
     2
  9
$LUPREC
 70
     4
  9
$SKETCHINC
 40
0.1
  9
$FILLETRAD
 40
0.0
  9
$AUNITS
 70
     0
  9
$AUPREC
 70
     0
  9
$MENU
  1
.
  9
$ELEVATION
 40
0.0
  9
$PELEVATION
 40
0.0
  9
$THICKNESS
 40
0.0
  9
$LIMCHECK
 70
     0
  9
$CHAMFERA
 40
0.0
  9
$CHAMFERB
 40
0.0
  9
$CHAMFERC
 40
0.0
  9
$CHAMFERD
 40
0.0
  9
$SKPOLY
 70
     0
  9
$TDCREATE
 40
2454846.619296180
  9
$TDUCREATE
 40
2454846.244296181
  9
$TDUPDATE
 40
2454846.619557859
  9
$TDUUPDATE
 40
2454846.244557859
  9
$TDINDWG
 40
0.0002638542
  9
$TDUSRTIMER
 40
0.0002638542
  9
$USRTIMER
 70
     1
  9
$ANGBASE
 50
0.0
  9
$ANGDIR
 70
     0
  9
$PDMODE
 70
     0
  9
$PDSIZE
 40
0.0
  9
$PLINEWID
 40
0.0
  9
$SPLFRAME
 70
     0
  9
$SPLINETYPE
 70
     6
  9
$SPLINESEGS
 70
     8
  9
$HANDSEED
  5
6F2
  9
$SURFTAB1
 70
     6
  9
$SURFTAB2
 70
     6
  9
$SURFTYPE
 70
     6
  9
$SURFU
 70
     6
  9
$SURFV
 70
     6
  9
$UCSBASE
  2

  9
$UCSNAME
  2

  9
$UCSORG
 10
0.0
 20
0.0
 30
0.0
  9
$UCSXDIR
 10
1.0
 20
0.0
 30
0.0
  9
$UCSYDIR
 10
0.0
 20
1.0
 30
0.0
  9
$UCSORTHOREF
  2

  9
$UCSORTHOVIEW
 70
     0
  9
$UCSORGTOP
 10
0.0
 20
0.0
 30
0.0
  9
$UCSORGBOTTOM
 10
0.0
 20
0.0
 30
0.0
  9
$UCSORGLEFT
 10
0.0
 20
0.0
 30
0.0
  9
$UCSORGRIGHT
 10
0.0
 20
0.0
 30
0.0
  9
$UCSORGFRONT
 10
0.0
 20
0.0
 30
0.0
  9
$UCSORGBACK
 10
0.0
 20
0.0
 30
0.0
  9
$PUCSBASE
  2

  9
$PUCSNAME
  2

  9
$PUCSORG
 10
0.0
 20
0.0
 30
0.0
  9
$PUCSXDIR
 10
1.0
 20
0.0
 30
0.0
  9
$PUCSYDIR
 10
0.0
 20
1.0
 30
0.0
  9
$PUCSORTHOREF
  2

  9
$PUCSORTHOVIEW
 70
     0
  9
$PUCSORGTOP
 10
0.0
 20
0.0
 30
0.0
  9
$PUCSORGBOTTOM
 10
0.0
 20
0.0
 30
0.0
  9
$PUCSORGLEFT
 10
0.0
 20
0.0
 30
0.0
  9
$PUCSORGRIGHT
 10
0.0
 20
0.0
 30
0.0
  9
$PUCSORGFRONT
 10
0.0
 20
0.0
 30
0.0
  9
$PUCSORGBACK
 10
0.0
 20
0.0
 30
0.0
  9
$USERI1
 70
     0
  9
$USERI2
 70
     0
  9
$USERI3
 70
     0
  9
$USERI4
 70
     0
  9
$USERI5
 70
     0
  9
$USERR1
 40
0.0
  9
$USERR2
 40
0.0
  9
$USERR3
 40
0.0
  9
$USERR4
 40
0.0
  9
$USERR5
 40
0.0
  9
$WORLDVIEW
 70
     1
  9
$SHADEDGE
 70
     3
  9
$SHADEDIF
 70
    70
  9
$TILEMODE
 70
     1
  9
$MAXACTVP
 70
    64
  9
$PINSBASE
 10
0.0
 20
0.0
 30
0.0
  9
$PLIMCHECK
 70
     0
  9
$PEXTMIN
 10
1.000000000000000E+20
 20
1.000000000000000E+20
 30
1.000000000000000E+20
  9
$PEXTMAX
 10
-1.000000000000000E+20
 20
-1.000000000000000E+20
 30
-1.000000000000000E+20
  9
$PLIMMIN
 10
0.0
 20
0.0
  9
$PLIMMAX
 10
12.0
 20
9.0
  9
$UNITMODE
 70
     0
  9
$VISRETAIN
 70
     1
  9
$PLINEGEN
 70
     0
  9
$PSLTSCALE
 70
     1
  9
$TREEDEPTH
 70
  3020
  9
$CMLSTYLE
  2
Standard
  9
$CMLJUST
 70
     0
  9
$CMLSCALE
 40
1.0
  9
$PROXYGRAPHICS
 70
     1
  9
$MEASUREMENT
 70
     0
  9
$CELWEIGHT
370
    -1
  9
$ENDCAPS
280
     0
  9
$JOINSTYLE
280
     0
  9
$LWDISPLAY
290
     0
  9
$INSUNITS
 70
     0
  9
$HYPERLINKBASE
  1

  9
$STYLESHEET
  1

  9
$XEDIT
290
     1
  9
$CEPSNTYPE
380
     0
  9
$PSTYLEMODE
290
     1
  9
$FINGERPRINTGUID
  2
{C71D379E-C0A1-49AC-A5C5-FA2A8C538525}
  9
$VERSIONGUID
  2
{4CD2FF77-5492-4887-89A6-2EA5D289B996}
  9
$EXTNAMES
290
     1
  9
$PSVPSCALE
 40
0.0
  9
$OLESTARTUP
290
     0
  0
ENDSEC
  0
SECTION
  2
CLASSES
  0
CLASS
  1
ACDBDICTIONARYWDFLT
  2
AcDbDictionaryWithDefault
  3
ObjectDBX Classes
 90
        0
280
     0
281
     0
  0
CLASS
  1
TABLESTYLE
  2
AcDbTableStyle
  3
ObjectDBX Classes
 90
     2047
280
     0
281
     0
  0
CLASS
  1
DICTIONARYVAR
  2
AcDbDictionaryVar
  3
ObjectDBX Classes
 90
        0
280
     0
281
     0
  0
CLASS
  1
ACDBPLACEHOLDER
  2
AcDbPlaceHolder
  3
ObjectDBX Classes
 90
        0
280
     0
281
     0
  0
CLASS
  1
LAYOUT
  2
AcDbLayout
  3
ObjectDBX Classes
 90
        0
280
     0
281
     0
  0
ENDSEC
  0
SECTION
  2
TABLES
  0
TABLE
  2
VPORT
  5
8
330
0
100
AcDbSymbolTable
 70
     2
  0
VPORT
  5
6EC
330
8
100
AcDbSymbolTableRecord
100
AcDbViewportTableRecord
  2
*Active
 70
     0
 10
0.0
 20
0.0
 11
1.0
 21
1.0
 12
1142.365269889549
 22
747.9948841402014
 13
0.0
 23
0.0
 14
1.0
 24
1.0
 15
0.0
 25
0.0
 16
0.0
 26
0.0
 36
1.0
 17
0.0
 27
0.0
 37
0.0
 40
1443.123450625984
 41
2.069696969696969
 42
50.0
 43
0.0
 44
0.0
 50
0.0
 51
0.0
 71
     0
 72
   100
 73
     1
 74
     1
 75
     0
 76
     0
 77
     0
 78
     0
281
     0
 65
     1
110
0.0
120
0.0
130
0.0
111
1.0
121
0.0
131
0.0
112
0.0
122
1.0
132
0.0
 79
     0
146
0.0
  0
ENDTAB
  0
TABLE
  2
LTYPE
  5
5
330
0
100
AcDbSymbolTable
 70
    35
  0
LTYPE
  5
13
330
5
100
AcDbSymbolTableRecord
100
AcDbLinetypeTableRecord
  2
ByBlock
 70
     0
  3

 72
    65
 73
     0
 40
0.0
  0
LTYPE
  5
14
330
5
100
AcDbSymbolTableRecord
100
AcDbLinetypeTableRecord
  2
ByLayer
 70
     0
  3

 72
    65
 73
     0
 40
0.0
  0
LTYPE
  5
15
330
5
100
AcDbSymbolTableRecord
100
AcDbLinetypeTableRecord
  2
CONTINUOUS
 70
     0
  3
実線
 72
    65
 73
     0
 40
0.0
  0
LTYPE
  5
26
330
5
100
AcDbSymbolTableRecord
100
AcDbLinetypeTableRecord
  2
DASHED1
 70
     0
  3
--  --  --  --  --  --  --  --  
 72
    65
 73
     2
 40
2.5
 49
1.25
 74
     0
 49
-1.25
 74
     0
  0
LTYPE
  5
27
330
5
100
AcDbSymbolTableRecord
100
AcDbLinetypeTableRecord
  2
DASHED2
 70
     0
  3
----    ----    ----    ----    
 72
    65
 73
     2
 40
5.0
 49
2.5
 74
     0
 49
-2.5
 74
     0
  0
LTYPE
  5
28
330
5
100
AcDbSymbolTableRecord
100
AcDbLinetypeTableRecord
  2
DASHED3
 70
     0
  3
------  ------  ------  ------  
 72
    65
 73
     2
 40
5.0
 49
3.75
 74
     0
 49
-1.25
 74
     0
  0
LTYPE
  5
29
330
5
100
AcDbSymbolTableRecord
100
AcDbLinetypeTableRecord
  2
CENTER1
 70
     0
  3
----- - ----- - ----- - ----- - 
 72
    65
 73
     4
 40
10.0
 49
6.25
 74
     0
 49
-1.25
 74
     0
 49
1.25
 74
     0
 49
-1.25
 74
     0
  0
LTYPE
  5
2A
330
5
100
AcDbSymbolTableRecord
100
AcDbLinetypeTableRecord
  2
CENTER2
 70
     0
  3
----------  --  ----------  --  
 72
    65
 73
     4
 40
20.0
 49
12.5
 74
     0
 49
-2.5
 74
     0
 49
2.5
 74
     0
 49
-2.5
 74
     0
  0
LTYPE
  5
2B
330
5
100
AcDbSymbolTableRecord
100
AcDbLinetypeTableRecord
  2
PHANTOM1
 70
     0
  3
--- - - --- - - --- - - --- - - 
 72
    65
 73
     6
 40
10.0
 49
3.25
 74
     0
 49
-1.25
 74
     0
 49
1.25
 74
     0
 49
-1.25
 74
     0
 49
1.25
 74
     0
 49
-1.25
 74
     0
  0
LTYPE
  5
2C
330
5
100
AcDbSymbolTableRecord
100
AcDbLinetypeTableRecord
  2
PHANTOM2
 70
     0
  3
--------  -  -  --------  -  -  
 72
    65
 73
     6
 40
20.0
 49
10.0
 74
     0
 49
-2.5
 74
     0
 49
1.25
 74
     0
 49
-2.5
 74
     0
 49
1.25
 74
     0
 49
-2.5
 74
     0
  0
LTYPE
  5
2D
330
5
100
AcDbSymbolTableRecord
100
AcDbLinetypeTableRecord
  2
DOT
 70
     0
  3
-   -   -   -   -   -   -   -   
 72
    65
 73
     2
 40
2.5
 49
0.625
 74
     0
 49
-1.875
 74
     0
  0
LTYPE
  5
2E
330
5
100
AcDbSymbolTableRecord
100
AcDbLinetypeTableRecord
  2
DUMMY
 70
     0
  3
ダミー
 72
    65
 73
     0
 40
0.0
  0
LTYPE
  5
2F
330
5
100
AcDbSymbolTableRecord
100
AcDbLinetypeTableRecord
  2
RAND1
 70
     0
  3
ランダム線1
 72
    65
 73
     4
 40
10.0
 49
1.0
 74
     0
 49
-2.0
 74
     0
 49
3.0
 74
     0
 49
-4.0
 74
     0
  0
LTYPE
  5
30
330
5
100
AcDbSymbolTableRecord
100
AcDbLinetypeTableRecord
  2
RAND2
 70
     0
  3
ランダム線2
 72
    65
 73
     4
 40
14.0
 49
2.0
 74
     0
 49
-3.0
 74
     0
 49
4.0
 74
     0
 49
-5.0
 74
     0
  0
LTYPE
  5
31
330
5
100
AcDbSymbolTableRecord
100
AcDbLinetypeTableRecord
  2
RAND3
 70
     0
  3
ランダム線3
 72
    65
 73
     4
 40
18.0
 49
3.0
 74
     0
 49
-4.0
 74
     0
 49
5.0
 74
     0
 49
-6.0
 74
     0
  0
LTYPE
  5
32
330
5
100
AcDbSymbolTableRecord
100
AcDbLinetypeTableRecord
  2
RAND4
 70
     0
  3
ランダム線4
 72
    65
 73
     4
 40
22.0
 49
4.0
 74
     0
 49
-5.0
 74
     0
 49
6.0
 74
     0
 49
-7.0
 74
     0
  0
LTYPE
  5
33
330
5
100
AcDbSymbolTableRecord
100
AcDbLinetypeTableRecord
  2
RAND5
 70
     0
  3
ランダム線5
 72
    65
 73
     4
 40
26.0
 49
5.0
 74
     0
 49
-6.0
 74
     0
 49
7.0
 74
     0
 49
-8.0
 74
     0
  0
LTYPE
  5
34
330
5
100
AcDbSymbolTableRecord
100
AcDbLinetypeTableRecord
  2
LONG1
 70
     0
  3
----------  --  ----------  --  
 72
    65
 73
     4
 40
40.0
 49
32.5
 74
     0
 49
-2.5
 74
     0
 49
2.5
 74
     0
 49
-2.5
 74
     0
  0
LTYPE
  5
35
330
5
100
AcDbSymbolTableRecord
100
AcDbLinetypeTableRecord
  2
LONG2
 70
     0
  3
--------  -  -  --------  -  -  
 72
    65
 73
     6
 40
40.0
 49
30.0
 74
     0
 49
-2.5
 74
     0
 49
1.25
 74
     0
 49
-2.5
 74
     0
 49
1.25
 74
     0
 49
-2.5
 74
     0
  0
LTYPE
  5
36
330
5
100
AcDbSymbolTableRecord
100
AcDbLinetypeTableRecord
  2
LONG3
 70
     0
  3
+++++++++++++++..+++++++++++++++
 72
    65
 73
     2
 40
40.0
 49
37.5
 74
     0
 49
-2.5
 74
     0
  0
LTYPE
  5
37
330
5
100
AcDbSymbolTableRecord
100
AcDbLinetypeTableRecord
  2
LONG4
 70
     0
  3
+++++++++++++++..+++++++++++++++
 72
    65
 73
     2
 40
80.0
 49
75.0
 74
     0
 49
-5.0
 74
     0
  0
LTYPE
  5
38
330
5
100
AcDbSymbolTableRecord
100
AcDbLinetypeTableRecord
  2
LONG5
 70
     0
  3
----------  --  ----------  --  
 72
    65
 73
     4
 40
60.0
 49
37.5
 74
     0
 49
-7.5
 74
     0
 49
7.5
 74
     0
 49
-7.5
 74
     0
  0
LTYPE
  5
39
330
5
100
AcDbSymbolTableRecord
100
AcDbLinetypeTableRecord
  2
DASHED
 70
     0
  3
-------   -------------   ------
 72
    65
 73
     2
 40
7.5
 49
6.0
 74
     0
 49
-1.5
 74
     0
  0
LTYPE
  5
3A
330
5
100
AcDbSymbolTableRecord
100
AcDbLinetypeTableRecord
  2
DASHED_SPACED
 70
     0
  3
----        --------        ----
 72
    65
 73
     2
 40
12.0
 49
6.0
 74
     0
 49
-6.0
 74
     0
  0
LTYPE
  5
3B
330
5
100
AcDbSymbolTableRecord
100
AcDbLinetypeTableRecord
  2
LONG_DASHED_DOTTED
 70
     0
  3
------------- --- --------------
 72
    65
 73
     4
 40
15.25
 49
12.0
 74
     0
 49
-1.5
 74
     0
 49
0.25
 74
     0
 49
-1.5
 74
     0
  0
LTYPE
  5
3C
330
5
100
AcDbSymbolTableRecord
100
AcDbLinetypeTableRecord
  2
LONG_DASHED_DOUBLE-DOTTED
 70
     0
  3
----------- --- --- ------------
 72
    65
 73
     6
 40
17.0
 49
12.0
 74
     0
 49
-1.5
 74
     0
 49
0.25
 74
     0
 49
-1.5
 74
     0
 49
0.25
 74
     0
 49
-1.5
 74
     0
  0
LTYPE
  5
3D
330
5
100
AcDbSymbolTableRecord
100
AcDbLinetypeTableRecord
  2
LONG_DASHED_TRIPLICATE-DOTTED
 70
     0
  3
--------- --- --- --- ----------
 72
    65
 73
     8
 40
18.75
 49
12.0
 74
     0
 49
-1.5
 74
     0
 49
0.25
 74
     0
 49
-1.5
 74
     0
 49
0.25
 74
     0
 49
-1.5
 74
     0
 49
0.25
 74
     0
 49
-1.5
 74
     0
  0
LTYPE
  5
3E
330
5
100
AcDbSymbolTableRecord
100
AcDbLinetypeTableRecord
  2
DOTTED
 70
     0
  3
   -       -       -       -    
 72
    65
 73
     2
 40
1.75
 49
0.25
 74
     0
 49
-1.5
 74
     0
  0
LTYPE
  5
3F
330
5
100
AcDbSymbolTableRecord
100
AcDbLinetypeTableRecord
  2
CHAIN
 70
     0
  3
-------------- -- --------------
 72
    65
 73
     4
 40
18.5
 49
12.0
 74
     0
 49
-1.5
 74
     0
 49
3.5
 74
     0
 49
-1.5
 74
     0
  0
LTYPE
  5
40
330
5
100
AcDbSymbolTableRecord
100
AcDbLinetypeTableRecord
  2
CHAIN_DOUBLE_DASH
 70
     0
  3
------------ -- -- -------------
 72
    65
 73
     6
 40
23.5
 49
12.0
 74
     0
 49
-1.5
 74
     0
 49
3.5
 74
     0
 49
-1.5
 74
     0
 49
3.5
 74
     0
 49
-1.5
 74
     0
  0
LTYPE
  5
41
330
5
100
AcDbSymbolTableRecord
100
AcDbLinetypeTableRecord
  2
DASHED_DOTTED
 70
     0
  3
-----------     -     ----------
 72
    65
 73
     4
 40
9.25
 49
6.0
 74
     0
 49
-1.5
 74
     0
 49
0.25
 74
     0
 49
-1.5
 74
     0
  0
LTYPE
  5
42
330
5
100
AcDbSymbolTableRecord
100
AcDbLinetypeTableRecord
  2
DOUBLE-DASHED_DOTTED
 70
     0
  3
------   -----------   -   -----
 72
    65
 73
     6
 40
16.75
 49
6.0
 74
     0
 49
-1.5
 74
     0
 49
6.0
 74
     0
 49
-1.5
 74
     0
 49
0.25
 74
     0
 49
-1.5
 74
     0
  0
LTYPE
  5
43
330
5
100
AcDbSymbolTableRecord
100
AcDbLinetypeTableRecord
  2
DASHED_DOUBLE-DOTTED
 70
     0
  3
---------    -    -    ---------
 72
    65
 73
     6
 40
11.0
 49
6.0
 74
     0
 49
-1.5
 74
     0
 49
0.25
 74
     0
 49
-1.5
 74
     0
 49
0.25
 74
     0
 49
-1.5
 74
     0
  0
LTYPE
  5
44
330
5
100
AcDbSymbolTableRecord
100
AcDbLinetypeTableRecord
  2
DOUBLE-DASHED_DOUBLE-DOTTED
 70
     0
  3
-----   ---------   -   -   ----
 72
    65
 73
     8
 40
18.5
 49
6.0
 74
     0
 49
-1.5
 74
     0
 49
6.0
 74
     0
 49
-1.5
 74
     0
 49
0.25
 74
     0
 49
-1.5
 74
     0
 49
0.25
 74
     0
 49
-1.5
 74
     0
  0
LTYPE
  5
45
330
5
100
AcDbSymbolTableRecord
100
AcDbLinetypeTableRecord
  2
DASHED_TRIPLICATE-DOTTED
 70
     0
  3
-------    -    -    -    ------
 72
    65
 73
     8
 40
12.75
 49
6.0
 74
     0
 49
-1.5
 74
     0
 49
0.25
 74
     0
 49
-1.5
 74
     0
 49
0.25
 74
     0
 49
-1.5
 74
     0
 49
0.25
 74
     0
 49
-1.5
 74
     0
  0
LTYPE
  5
46
330
5
100
AcDbSymbolTableRecord
100
AcDbLinetypeTableRecord
  2
DOUBLE-DASHED_TRIPLICATE-DOTTED
 70
     0
  3
-----  ---------  -  -  -  -----
 72
    65
 73
    10
 40
20.25
 49
6.0
 74
     0
 49
-1.5
 74
     0
 49
6.0
 74
     0
 49
-1.5
 74
     0
 49
0.25
 74
     0
 49
-1.5
 74
     0
 49
0.25
 74
     0
 49
-1.5
 74
     0
 49
0.25
 74
     0
 49
-1.5
 74
     0
  0
LTYPE
  5
47
330
5
100
AcDbSymbolTableRecord
100
AcDbLinetypeTableRecord
  2
UNDEFINED
 70
     0
  3
--------------------------------
 72
    65
 73
     0
 40
0.0
  0
ENDTAB
  0
TABLE
  2
LAYER
  5
2
330
0
100
AcDbSymbolTable
 70
    17
  0
LAYER
  5
10
330
2
100
AcDbSymbolTableRecord
100
AcDbLayerTableRecord
  2
0
 70
     0
 62
     7
  6
CONTINUOUS
370
    -3
390
F
  0
LAYER
  5
49
330
2
100
AcDbSymbolTableRecord
100
AcDbLayerTableRecord
  2
_4-2_
 70
     0
 62
     7
  6
CONTINUOUS
370
    -3
390
F
  0
LAYER
  5
4A
330
2
100
AcDbSymbolTableRecord
100
AcDbLayerTableRecord
  2
_4-3_
 70
     0
 62
     7
  6
CONTINUOUS
370
    -3
390
F
  0
LAYER
  5
4B
330
2
100
AcDbSymbolTableRecord
100
AcDbLayerTableRecord
  2
_4-4_
 70
     0
 62
     7
  6
CONTINUOUS
370
    -3
390
F
  0
LAYER
  5
4C
330
2
100
AcDbSymbolTableRecord
100
AcDbLayerTableRecord
  2
_4-5_
 70
     0
 62
     7
  6
CONTINUOUS
370
    -3
390
F
  0
LAYER
  5
4D
330
2
100
AcDbSymbolTableRecord
100
AcDbLayerTableRecord
  2
_4-6_
 70
     0
 62
     7
  6
CONTINUOUS
370
    -3
390
F
  0
LAYER
  5
4E
330
2
100
AcDbSymbolTableRecord
100
AcDbLayerTableRecord
  2
_4-7_
 70
     0
 62
     7
  6
CONTINUOUS
370
    -3
390
F
  0
LAYER
  5
4F
330
2
100
AcDbSymbolTableRecord
100
AcDbLayerTableRecord
  2
_4-A_
 70
     0
 62
     7
  6
CONTINUOUS
370
    -3
390
F
  0
LAYER
  5
50
330
2
100
AcDbSymbolTableRecord
100
AcDbLayerTableRecord
  2
_4-B_
 70
     0
 62
     7
  6
CONTINUOUS
370
    -3
390
F
  0
LAYER
  5
51
330
2
100
AcDbSymbolTableRecord
100
AcDbLayerTableRecord
  2
_4-D_
 70
     0
 62
     7
  6
CONTINUOUS
370
    -3
390
F
  0
LAYER
  5
52
330
2
100
AcDbSymbolTableRecord
100
AcDbLayerTableRecord
  2
_4-E_
 70
     0
 62
     7
  6
CONTINUOUS
370
    -3
390
F
  0
LAYER
  5
53
330
2
100
AcDbSymbolTableRecord
100
AcDbLayerTableRecord
  2
_F-2_
 70
     0
 62
     7
  6
CONTINUOUS
370
    -3
390
F
  0
LAYER
  5
54
330
2
100
AcDbSymbolTableRecord
100
AcDbLayerTableRecord
  2
_F-5_
 70
     0
 62
     7
  6
CONTINUOUS
370
    -3
390
F
  0
LAYER
  5
55
330
2
100
AcDbSymbolTableRecord
100
AcDbLayerTableRecord
  2
_F-7_
 70
     0
 62
     7
  6
CONTINUOUS
370
    -3
390
F
  0
LAYER
  5
56
330
2
100
AcDbSymbolTableRecord
100
AcDbLayerTableRecord
  2
_F-8_
 70
     0
 62
     7
  6
CONTINUOUS
370
    -3
390
F
  0
LAYER
  5
57
330
2
100
AcDbSymbolTableRecord
100
AcDbLayerTableRecord
  2
_F-A_
 70
     0
 62
     7
  6
CONTINUOUS
370
    -3
390
F
  0
LAYER
  5
58
330
2
100
AcDbSymbolTableRecord
100
AcDbLayerTableRecord
  2
ADD_LINE
 70
     0
 62
     7
  6
CONTINUOUS
370
    -3
390
F
  0
ENDTAB
  0
TABLE
  2
STYLE
  5
3
330
0
100
AcDbSymbolTable
 70
     2
  0
STYLE
  5
11
330
3
100
AcDbSymbolTableRecord
100
AcDbTextStyleTableRecord
  2
STANDARD
 70
     0
 40
0.0
 41
1.0
 50
0.0
 71
     0
 42
0.2
  3
txt
  4
bigfont.shx
  0
STYLE
  5
48
330
3
100
AcDbSymbolTableRecord
100
AcDbTextStyleTableRecord
  2
TATEGAKI
 70
     4
 40
0.0
 41
1.0
 50
0.0
 71
     0
 42
1.0
  3
txt
  4
bigfont.shx
  0
ENDTAB
  0
TABLE
  2
VIEW
  5
6
330
0
100
AcDbSymbolTable
 70
     0
  0
ENDTAB
  0
TABLE
  2
UCS
  5
7
330
0
100
AcDbSymbolTable
 70
     0
  0
ENDTAB
  0
TABLE
  2
APPID
  5
9
330
0
100
AcDbSymbolTable
 70
     1
  0
APPID
  5
12
330
9
100
AcDbSymbolTableRecord
100
AcDbRegAppTableRecord
  2
ACAD
 70
     0
  0
ENDTAB
  0
TABLE
  2
DIMSTYLE
  5
A
330
0
100
AcDbSymbolTable
 70
     1
100
AcDbDimStyleTable
 71
     0
  0
DIMSTYLE
105
6E6
330
A
100
AcDbSymbolTableRecord
100
AcDbDimStyleTableRecord
  2
Standard
 70
     0
340
11
  0
ENDTAB
  0
TABLE
  2
BLOCK_RECORD
  5
1
330
0
100
AcDbSymbolTable
 70
     0
  0
BLOCK_RECORD
  5
22
330
1
100
AcDbSymbolTableRecord
100
AcDbBlockTableRecord
  2
*Model_Space
340
25
  0
BLOCK_RECORD
  5
1E
330
1
100
AcDbSymbolTableRecord
100
AcDbBlockTableRecord
  2
*Paper_Space
340
21
  0
ENDTAB
  0
ENDSEC
  0
SECTION
  2
BLOCKS
  0
BLOCK
  5
23
330
22
100
AcDbEntity
  8
0
100
AcDbBlockBegin
  2
*Model_Space
 70
     0
 10
0.0
 20
0.0
 30
0.0
  3
*Model_Space
  1

  0
ENDBLK
  5
24
330
22
100
AcDbEntity
  8
0
100
AcDbBlockEnd
  0
BLOCK
  5
1F
330
1E
100
AcDbEntity
 67
     1
  8
0
100
AcDbBlockBegin
  2
*Paper_Space
 70
     0
 10
0.0
 20
0.0
 30
0.0
  3
*Paper_Space
  1

  0
ENDBLK
  5
20
330
1E
100
AcDbEntity
 67
     1
  8
0
100
AcDbBlockEnd
  0
ENDSEC
  0
SECTION
  2
ENTITIES
  0
LINE
  5
5C
330
22
100
AcDbEntity
  8
ADD_LINE
  6
DOT
 62
   136
100
AcDbLine
 10
642.3650753081967
 20
1463.007168971194
 30
0.0
 11
642.3650753081967
 21
33.00716897119485
 31
0.0
  0
LINE
  5
5D
330
22
100
AcDbEntity
  8
ADD_LINE
  6
DOT
 62
   136
100
AcDbLine
 10
642.3650753081967
 20
1463.007168971194
 30
0.0
 11
1642.365075308196
 21
1463.007168971194
 31
0.0
  0
LINE
  5
5E
330
22
100
AcDbEntity
  8
ADD_LINE
  6
DOT
 62
   136
100
AcDbLine
 10
1642.365075308196
 20
1463.007168971194
 30
0.0
 11
1642.365075308196
 21
33.00716897119485
 31
0.0
  0
LINE
  5
5F
330
22
100
AcDbEntity
  8
ADD_LINE
  6
DOT
 62
   136
100
AcDbLine
 10
1642.365075308196
 20
33.00716897119485
 30
0.0
 11
642.3650753081943
 21
33.00716897119485
 31
0.0
  0
LINE
  5
60
330
22
100
AcDbEntity
  8
_F-7_
  6
Continuous
 62
     1
100
AcDbLine
 10
742.3650753081965
 20
1363.007168971194
 30
0.0
 11
1542.365075308196
 21
1363.007168971194
 31
0.0
  0
LINE
  5
61
330
22
100
AcDbEntity
  8
_F-7_
  6
Continuous
 62
     1
100
AcDbLine
 10
742.3650753081965
 20
773.0071689711943
 30
0.0
 11
1542.365075308196
 21
773.0071689711943
 31
0.0
  0
LINE
  5
62
330
22
100
AcDbEntity
  8
_F-7_
  6
Continuous
 62
     1
100
AcDbLine
 10
1542.365075308196
 20
1363.007168971194
 30
0.0
 11
1542.365075308196
 21
773.0071689711943
 31
0.0
  0
LINE
  5
63
330
22
100
AcDbEntity
  8
_F-7_
  6
Continuous
 62
     1
100
AcDbLine
 10
742.3650753081965
 20
1363.007168971194
 30
0.0
 11
742.3650753081965
 21
773.0071689711943
 31
0.0
  0
LINE
  5
64
330
22
100
AcDbEntity
  8
ADD_LINE
  6
DOT
 62
   136
100
AcDbLine
 10
742.3650753081965
 20
793.0071689711943
 30
0.0
 11
1542.365075308196
 21
793.0071689711943
 31
0.0
  0
LINE
  5
65
330
22
100
AcDbEntity
  8
_F-5_
  6
Continuous
 62
     6
100
AcDbLine
 10
742.3650753081965
 20
813.0071689711943
 30
0.0
 11
1542.365075308196
 21
813.0071689711943
 31
0.0
  0
LINE
  5
66
330
22
100
AcDbEntity
  8
ADD_LINE
  6
DOT
 62
   136
100
AcDbLine
 10
762.3650753081965
 20
813.0071689711943
 30
0.0
 11
762.3650753081965
 21
773.0071689711943
 31
0.0
  0
LINE
  5
67
330
22
100
AcDbEntity
  8
_F-2_
  6
Continuous
 62
     7
100
AcDbLine
 10
1112.365075308196
 20
813.0071689711943
 30
0.0
 11
1112.365075308196
 21
773.0071689711943
 31
0.0
  0
LINE
  5
68
330
22
100
AcDbEntity
  8
ADD_LINE
  6
DOT
 62
   136
100
AcDbLine
 10
1127.365075308196
 20
813.0071689711943
 30
0.0
 11
1127.365075308196
 21
773.0071689711943
 31
0.0
  0
LINE
  5
69
330
22
100
AcDbEntity
  8
ADD_LINE
  6
DOT
 62
   136
100
AcDbLine
 10
977.3650753081964
 20
813.0071689711943
 30
0.0
 11
977.3650753081964
 21
773.0071689711943
 31
0.0
  0
TEXT
  5
6A
330
22
100
AcDbEntity
  8
_F-A_
 62
     7
100
AcDbText
 10
977.3650753081964
 20
783.0071689711943
 30
0.0
 40
17.5
  1
下地：ＲＣ
100
AcDbText
  0
LINE
  5
6B
330
22
100
AcDbEntity
  8
_F-5_
  6
Continuous
 62
     6
100
AcDbLine
 10
962.3650753081966
 20
813.0071689711943
 30
0.0
 11
962.3650753081966
 21
773.0071689711943
 31
0.0
  0
LINE
  5
6C
330
22
100
AcDbEntity
  8
_F-5_
  6
Continuous
 62
     6
100
AcDbLine
 10
959.8650753081965
 20
813.0071689711943
 30
0.0
 11
959.8650753081965
 21
773.0071689711943
 31
0.0
  0
TEXT
  5
6D
330
22
100
AcDbEntity
  8
_F-A_
 62
     7
100
AcDbText
 10
762.3650753081965
 20
783.0071689711943
 30
0.0
 40
20.0
  1
１２５・１２７仕様
100
AcDbText
  0
LINE
  5
6E
330
22
100
AcDbEntity
  8
ADD_LINE
  6
DOT
 62
   136
100
AcDbLine
 10
1427.365075308196
 20
813.0071689711943
 30
0.0
 11
1427.365075308196
 21
773.0071689711943
 31
0.0
  0
LINE
  5
6F
330
22
100
AcDbEntity
  8
_F-2_
  6
Continuous
 62
     7
100
AcDbLine
 10
1412.365075308196
 20
813.0071689711943
 30
0.0
 11
1412.365075308196
 21
773.0071689711943
 31
0.0
  0
LINE
  5
70
330
22
100
AcDbEntity
  8
ADD_LINE
  6
DOT
 62
   136
100
AcDbLine
 10
1322.365075308196
 20
813.0071689711943
 30
0.0
 11
1322.365075308196
 21
773.0071689711943
 31
0.0
  0
LINE
  5
71
330
22
100
AcDbEntity
  8
_F-2_
  6
Continuous
 62
     7
100
AcDbLine
 10
1307.365075308196
 20
813.0071689711943
 30
0.0
 11
1307.365075308196
 21
773.0071689711943
 31
0.0
  0
TEXT
  5
72
330
22
100
AcDbEntity
  8
_F-A_
 62
     7
100
AcDbText
 10
1427.365075308196
 20
783.0071689711943
 30
0.0
 40
15.0
  1
図番
100
AcDbText
  0
TEXT
  5
73
330
22
100
AcDbEntity
  8
_F-A_
 62
     7
100
AcDbText
 10
1322.365075308196
 20
783.0071689711943
 30
0.0
 40
15.0
  1
Ｓ＝１：８
100
AcDbText
  0
TEXT
  5
74
330
22
100
AcDbEntity
  8
_F-A_
 62
     7
100
AcDbText
 10
1473.782744032303
 20
783.0071689711943
 30
0.0
 40
15.0
  1
３－７
100
AcDbText
  0
TEXT
  5
75
330
22
100
AcDbEntity
  8
_F-A_
 62
     7
100
AcDbText
 10
1127.365075308196
 20
783.0071689711943
 30
0.0
 40
17.5
  1
部位：パイプ廻り
100
AcDbText
  0
LINE
  5
76
330
22
100
AcDbEntity
  8
_4-4_
  6
Continuous
 62
     2
100
AcDbLine
 10
1142.365075308196
 20
987.6932224390975
 30
0.0
 11
1142.365075308196
 21
990.8182224390975
 31
0.0
  0
LINE
  5
77
330
22
100
AcDbEntity
  8
_4-2_
  6
Continuous
 62
     7
100
AcDbLine
 10
1079.865075308196
 20
987.6932224390975
 30
0.0
 11
1142.365075308196
 21
987.6932224390975
 31
0.0
  0
LINE
  5
78
330
22
100
AcDbEntity
  8
_4-2_
  6
Continuous
 62
     7
100
AcDbLine
 10
1079.865075308196
 20
1228.318222439098
 30
0.0
 11
1085.490075308195
 21
1228.318222439098
 31
0.0
  0
LINE
  5
79
330
22
100
AcDbEntity
  8
_4-D_
  6
Continuous
 62
     7
100
AcDbLine
 10
1081.115075308196
 20
1228.318222439098
 30
0.0
 11
1081.115075308196
 21
1207.280563665445
 31
0.0
  0
LINE
  5
7A
330
22
100
AcDbEntity
  8
_4-D_
  6
Continuous
 62
     7
100
AcDbLine
 10
1081.115075308196
 20
1207.280563665445
 30
0.0
 11
1079.865075308196
 21
1205.115500155985
 31
0.0
  0
LINE
  5
7B
330
22
100
AcDbEntity
  8
_4-D_
  6
Continuous
 62
     4
100
AcDbLine
 10
1085.455606511539
 20
1228.318222439095
 30
0.0
 11
1085.474256490777
 21
1228.336872418333
 31
0.0
  0
LINE
  5
7C
330
22
100
AcDbEntity
  8
_4-D_
  6
Continuous
 62
     4
100
AcDbLine
 10
1082.803956082091
 20
1228.318222439098
 30
0.0
 11
1084.298103510166
 21
1229.812369867171
 31
0.0
  0
LINE
  5
7D
330
22
100
AcDbEntity
  8
_4-D_
  6
Continuous
 62
     4
100
AcDbLine
 10
1080.152305652646
 20
1228.318222439098
 30
0.0
 11
1083.203714227772
 21
1231.369631014222
 31
0.0
  0
LINE
  5
7E
330
22
100
AcDbEntity
  8
_4-D_
  6
Continuous
 62
     4
100
AcDbLine
 10
1079.865075308196
 20
1230.682642524096
 30
0.0
 11
1082.193739270064
 21
1233.011306485964
 31
0.0
  0
LINE
  5
7F
330
22
100
AcDbEntity
  8
_4-D_
  6
Continuous
 62
     4
100
AcDbLine
 10
1079.865075308194
 20
1233.334292953553
 30
0.0
 11
1081.271985038557
 21
1234.741202683915
 31
0.0
  0
LINE
  5
80
330
22
100
AcDbEntity
  8
_4-D_
  6
Continuous
 62
     4
100
AcDbLine
 10
1079.865075308192
 20
1235.985943382998
 30
0.0
 11
1080.443663915764
 21
1236.564531990571
 31
0.0
  0
LINE
  5
81
330
22
100
AcDbEntity
  8
_4-D_
  6
Continuous
 62
     4
100
AcDbLine
 10
1079.865075308196
 20
1206.655413611729
 30
0.0
 11
1080.428722752629
 21
1206.091766167297
 31
0.0
  0
LINE
  5
82
330
22
100
AcDbEntity
  8
_4-D_
  6
Continuous
 62
     4
100
AcDbLine
 10
1079.865075308194
 20
1210.19094751766
 30
0.0
 11
1081.115075308196
 21
1208.940947517658
 31
0.0
  0
LINE
  5
83
330
22
100
AcDbEntity
  8
_4-D_
  6
Continuous
 62
     4
100
AcDbLine
 10
1079.865075308194
 20
1213.726481423598
 30
0.0
 11
1081.1150753082
 21
1212.476481423591
 31
0.0
  0
LINE
  5
84
330
22
100
AcDbEntity
  8
_4-D_
  6
Continuous
 62
     4
100
AcDbLine
 10
1079.865075308195
 20
1217.262015329523
 30
0.0
 11
1081.115075308195
 21
1216.012015329522
 31
0.0
  0
LINE
  5
85
330
22
100
AcDbEntity
  8
_4-D_
  6
Continuous
 62
     4
100
AcDbLine
 10
1079.865075308196
 20
1220.797549235458
 30
0.0
 11
1081.115075308199
 21
1219.547549235458
 31
0.0
  0
LINE
  5
86
330
22
100
AcDbEntity
  8
_4-D_
  6
Continuous
 62
     4
100
AcDbLine
 10
1079.865075308192
 20
1224.333083141391
 30
0.0
 11
1081.115075308199
 21
1223.083083141385
 31
0.0
  0
LINE
  5
87
330
22
100
AcDbEntity
  8
_4-D_
  6
Continuous
 62
     4
100
AcDbLine
 10
1079.865075308195
 20
1227.868617047325
 30
0.0
 11
1081.115075308196
 21
1226.618617047325
 31
0.0
  0
LINE
  5
88
330
22
100
AcDbEntity
  8
_4-2_
  6
Continuous
 62
     7
100
AcDbLine
 10
1017.365075308197
 20
1228.318222439098
 30
0.0
 11
1011.740075308197
 21
1228.318222439098
 31
0.0
  0
LINE
  5
89
330
22
100
AcDbEntity
  8
_4-D_
  6
Continuous
 62
     7
100
AcDbLine
 10
1016.115075308197
 20
1228.318222439098
 30
0.0
 11
1016.115075308197
 21
1207.280563665445
 31
0.0
  0
LINE
  5
8A
330
22
100
AcDbEntity
  8
_4-D_
  6
Continuous
 62
     7
100
AcDbLine
 10
1016.115075308197
 20
1207.280563665445
 30
0.0
 11
1017.365075308197
 21
1205.115500155985
 31
0.0
  0
LINE
  5
8B
330
22
100
AcDbEntity
  8
_4-D_
  6
Continuous
 62
     4
100
AcDbLine
 10
1011.774544104851
 20
1228.318222439095
 30
0.0
 11
1011.755894125615
 21
1228.336872418333
 31
0.0
  0
LINE
  5
8C
330
22
100
AcDbEntity
  8
_4-D_
  6
Continuous
 62
     4
100
AcDbLine
 10
1014.426194534299
 20
1228.318222439098
 30
0.0
 11
1012.932047106225
 21
1229.812369867171
 31
0.0
  0
LINE
  5
8D
330
22
100
AcDbEntity
  8
_4-D_
  6
Continuous
 62
     4
100
AcDbLine
 10
1017.077844963747
 20
1228.318222439098
 30
0.0
 11
1014.02643638862
 21
1231.369631014222
 31
0.0
  0
LINE
  5
8E
330
22
100
AcDbEntity
  8
_4-D_
  6
Continuous
 62
     4
100
AcDbLine
 10
1017.365075308197
 20
1230.682642524096
 30
0.0
 11
1015.036411346328
 21
1233.011306485964
 31
0.0
  0
LINE
  5
8F
330
22
100
AcDbEntity
  8
_4-D_
  6
Continuous
 62
     4
100
AcDbLine
 10
1017.365075308198
 20
1233.334292953553
 30
0.0
 11
1015.958165577835
 21
1234.741202683915
 31
0.0
  0
LINE
  5
90
330
22
100
AcDbEntity
  8
_4-D_
  6
Continuous
 62
     4
100
AcDbLine
 10
1017.365075308201
 20
1235.985943382998
 30
0.0
 11
1016.786486700628
 21
1236.564531990571
 31
0.0
  0
LINE
  5
91
330
22
100
AcDbEntity
  8
_4-D_
  6
Continuous
 62
     4
100
AcDbLine
 10
1017.365075308195
 20
1206.655413611729
 30
0.0
 11
1016.801427863761
 21
1206.091766167297
 31
0.0
  0
LINE
  5
92
330
22
100
AcDbEntity
  8
_4-D_
  6
Continuous
 62
     4
100
AcDbLine
 10
1017.365075308197
 20
1210.19094751766
 30
0.0
 11
1016.115075308196
 21
1208.940947517658
 31
0.0
  0
LINE
  5
93
330
22
100
AcDbEntity
  8
_4-D_
  6
Continuous
 62
     4
100
AcDbLine
 10
1017.365075308197
 20
1213.726481423598
 30
0.0
 11
1016.115075308193
 21
1212.476481423591
 31
0.0
  0
LINE
  5
94
330
22
100
AcDbEntity
  8
_4-D_
  6
Continuous
 62
     4
100
AcDbLine
 10
1017.365075308197
 20
1217.262015329523
 30
0.0
 11
1016.115075308197
 21
1216.012015329522
 31
0.0
  0
LINE
  5
95
330
22
100
AcDbEntity
  8
_4-D_
  6
Continuous
 62
     4
100
AcDbLine
 10
1017.365075308197
 20
1220.797549235458
 30
0.0
 11
1016.115075308194
 21
1219.547549235458
 31
0.0
  0
LINE
  5
96
330
22
100
AcDbEntity
  8
_4-D_
  6
Continuous
 62
     4
100
AcDbLine
 10
1017.365075308198
 20
1224.333083141391
 30
0.0
 11
1016.115075308194
 21
1223.083083141385
 31
0.0
  0
LINE
  5
97
330
22
100
AcDbEntity
  8
_4-D_
  6
Continuous
 62
     4
100
AcDbLine
 10
1017.365075308197
 20
1227.868617047325
 30
0.0
 11
1016.115075308194
 21
1226.618617047325
 31
0.0
  0
LINE
  5
98
330
22
100
AcDbEntity
  8
_4-2_
  6
Continuous
 62
     7
100
AcDbLine
 10
1017.365075308197
 20
959.5682224390975
 30
0.0
 11
767.3650753081965
 21
959.5682224390975
 31
0.0
  0
LINE
  5
99
330
22
100
AcDbEntity
  8
_4-D_
  6
Continuous
 62
     4
100
AcDbLine
 10
1079.865075308198
 20
972.5319942446096
 30
0.0
 11
1092.82884711371
 21
959.5682224390955
 31
0.0
  0
LINE
  5
9A
330
22
100
AcDbEntity
  8
_4-D_
  6
Continuous
 62
     4
100
AcDbLine
 10
1100.595351408198
 20
978.3182224390975
 30
0.0
 11
1119.345351408195
 21
959.5682224391
 31
0.0
  0
LINE
  5
9B
330
22
100
AcDbEntity
  8
_4-D_
  6
Continuous
 62
     4
100
AcDbLine
 10
1127.111855702698
 20
978.3182224390975
 30
0.0
 11
1145.861855702699
 21
959.5682224390955
 31
0.0
  0
LINE
  5
9C
330
22
100
AcDbEntity
  8
_4-D_
  6
Continuous
 62
     4
100
AcDbLine
 10
1153.628359997197
 20
978.3182224390975
 30
0.0
 11
1172.378359997199
 21
959.5682224390955
 31
0.0
  0
LINE
  5
9D
330
22
100
AcDbEntity
  8
_4-D_
  6
Continuous
 62
     4
100
AcDbLine
 10
1180.144864291685
 20
978.3182224390975
 30
0.0
 11
1198.894864291683
 21
959.5682224391
 31
0.0
  0
LINE
  5
9E
330
22
100
AcDbEntity
  8
_4-D_
  6
Continuous
 62
     4
100
AcDbLine
 10
1206.661368586188
 20
978.3182224390955
 30
0.0
 11
1225.411368586188
 21
959.5682224390955
 31
0.0
  0
LINE
  5
9F
330
22
100
AcDbEntity
  8
_4-D_
  6
Continuous
 62
     4
100
AcDbLine
 10
1233.177872880675
 20
978.3182224390975
 30
0.0
 11
1251.927872880673
 21
959.5682224390975
 31
0.0
  0
LINE
  5
A0
330
22
100
AcDbEntity
  8
_4-D_
  6
Continuous
 62
     4
100
AcDbLine
 10
1259.694377175176
 20
978.3182224390975
 30
0.0
 11
1278.444377175177
 21
959.5682224390955
 31
0.0
  0
LINE
  5
A1
330
22
100
AcDbEntity
  8
_4-D_
  6
Continuous
 62
     4
100
AcDbLine
 10
1286.210881469674
 20
978.3182224390975
 30
0.0
 11
1304.960881469676
 21
959.5682224390975
 31
0.0
  0
LINE
  5
A2
330
22
100
AcDbEntity
  8
_4-D_
  6
Continuous
 62
     4
100
AcDbLine
 10
1312.727385764163
 20
978.3182224390975
 30
0.0
 11
1331.477385764161
 21
959.5682224391
 31
0.0
  0
LINE
  5
A3
330
22
100
AcDbEntity
  8
_4-D_
  6
Continuous
 62
     4
100
AcDbLine
 10
1339.243890058664
 20
978.3182224390975
 30
0.0
 11
1357.993890058666
 21
959.568222439093
 31
0.0
  0
LINE
  5
A4
330
22
100
AcDbEntity
  8
_4-D_
  6
Continuous
 62
     4
100
AcDbLine
 10
1365.760394353153
 20
978.3182224390975
 30
0.0
 11
1384.510394353151
 21
959.5682224390975
 31
0.0
  0
LINE
  5
A5
330
22
100
AcDbEntity
  8
_4-D_
  6
Continuous
 62
     4
100
AcDbLine
 10
1392.276898647653
 20
978.3182224390975
 30
0.0
 11
1411.026898647654
 21
959.5682224390955
 31
0.0
  0
LINE
  5
A6
330
22
100
AcDbEntity
  8
_4-D_
  6
Continuous
 62
     4
100
AcDbLine
 10
1418.793402942151
 20
978.3182224390975
 30
0.0
 11
1437.543402942154
 21
959.5682224390955
 31
0.0
  0
LINE
  5
A7
330
22
100
AcDbEntity
  8
_4-D_
  6
Continuous
 62
     4
100
AcDbLine
 10
1445.30990723664
 20
978.3182224390975
 30
0.0
 11
1464.05990723664
 21
959.5682224390975
 31
0.0
  0
LINE
  5
A8
330
22
100
AcDbEntity
  8
_4-D_
  6
Continuous
 62
     4
100
AcDbLine
 10
1471.826411531143
 20
978.3182224390955
 30
0.0
 11
1490.576411531144
 21
959.568222439093
 31
0.0
  0
LINE
  5
A9
330
22
100
AcDbEntity
  8
_4-D_
  6
Continuous
 62
     4
100
AcDbLine
 10
1478.143616873615
 20
959.5682224390975
 30
0.0
 11
1496.893616873613
 21
978.3182224390955
 31
0.0
  0
LINE
  5
AA
330
22
100
AcDbEntity
  8
_4-D_
  6
Continuous
 62
     4
100
AcDbLine
 10
1451.627112579113
 20
959.5682224390955
 30
0.0
 11
1470.377112579116
 21
978.3182224390975
 31
0.0
  0
LINE
  5
AB
330
22
100
AcDbEntity
  8
_4-D_
  6
Continuous
 62
     4
100
AcDbLine
 10
1425.110608284629
 20
959.5682224390975
 30
0.0
 11
1443.860608284627
 21
978.3182224390975
 31
0.0
  0
LINE
  5
AC
330
22
100
AcDbEntity
  8
_4-D_
  6
Continuous
 62
     4
100
AcDbLine
 10
1398.594103990126
 20
959.5682224390975
 30
0.0
 11
1417.344103990124
 21
978.3182224390955
 31
0.0
  0
LINE
  5
AD
330
22
100
AcDbEntity
  8
_4-D_
  6
Continuous
 62
     4
100
AcDbLine
 10
1372.077599695638
 20
959.5682224390975
 30
0.0
 11
1390.82759969564
 21
978.3182224390975
 31
0.0
  0
LINE
  5
AE
330
22
100
AcDbEntity
  8
_4-D_
  6
Continuous
 62
     4
100
AcDbLine
 10
1345.561095401138
 20
959.5682224390975
 30
0.0
 11
1364.311095401135
 21
978.3182224390955
 31
0.0
  0
LINE
  5
AF
330
22
100
AcDbEntity
  8
_4-D_
  6
Continuous
 62
     4
100
AcDbLine
 10
1319.044591106636
 20
959.568222439093
 30
0.0
 11
1337.794591106637
 21
978.3182224390955
 31
0.0
  0
LINE
  5
B0
330
22
100
AcDbEntity
  8
_4-D_
  6
Continuous
 62
     4
100
AcDbLine
 10
1292.528086812151
 20
959.5682224390975
 30
0.0
 11
1311.278086812148
 21
978.3182224390955
 31
0.0
  0
LINE
  5
B1
330
22
100
AcDbEntity
  8
_4-D_
  6
Continuous
 62
     4
100
AcDbLine
 10
1266.011582517649
 20
959.5682224390975
 30
0.0
 11
1284.761582517647
 21
978.3182224390955
 31
0.0
  0
LINE
  5
B2
330
22
100
AcDbEntity
  8
_4-D_
  6
Continuous
 62
     4
100
AcDbLine
 10
1239.495078223161
 20
959.5682224390975
 30
0.0
 11
1258.245078223162
 21
978.3182224390975
 31
0.0
  0
LINE
  5
B3
330
22
100
AcDbEntity
  8
_4-D_
  6
Continuous
 62
     4
100
AcDbLine
 10
1212.978573928662
 20
959.5682224390975
 30
0.0
 11
1231.72857392866
 21
978.3182224390955
 31
0.0
  0
LINE
  5
B4
330
22
100
AcDbEntity
  8
_4-D_
  6
Continuous
 62
     4
100
AcDbLine
 10
1186.462069634158
 20
959.568222439093
 30
0.0
 11
1205.21206963416
 21
978.3182224390955
 31
0.0
  0
LINE
  5
B5
330
22
100
AcDbEntity
  8
_4-D_
  6
Continuous
 62
     4
100
AcDbLine
 10
1159.945565339673
 20
959.5682224390975
 30
0.0
 11
1178.695565339671
 21
978.3182224390955
 31
0.0
  0
LINE
  5
B6
330
22
100
AcDbEntity
  8
_4-D_
  6
Continuous
 62
     4
100
AcDbLine
 10
1133.429061045172
 20
959.5682224390975
 30
0.0
 11
1152.17906104517
 21
978.3182224390955
 31
0.0
  0
LINE
  5
B7
330
22
100
AcDbEntity
  8
_4-D_
  6
Continuous
 62
     4
100
AcDbLine
 10
1106.912556750683
 20
959.5682224390975
 30
0.0
 11
1125.662556750685
 21
978.3182224390975
 31
0.0
  0
LINE
  5
B8
330
22
100
AcDbEntity
  8
_4-D_
  6
Continuous
 62
     4
100
AcDbLine
 10
974.330035278205
 20
959.5682224390955
 30
0.0
 11
993.0800352782062
 21
978.3182224390975
 31
0.0
  0
LINE
  5
B9
330
22
100
AcDbEntity
  8
_4-D_
  6
Continuous
 62
     4
100
AcDbLine
 10
947.8135309837064
 20
959.5682224390975
 30
0.0
 11
966.5635309837053
 21
978.3182224390955
 31
0.0
  0
LINE
  5
BA
330
22
100
AcDbEntity
  8
_4-D_
  6
Continuous
 62
     4
100
AcDbLine
 10
921.2970266892051
 20
959.5682224390955
 30
0.0
 11
940.0470266892073
 21
978.3182224390975
 31
0.0
  0
LINE
  5
BB
330
22
100
AcDbEntity
  8
_4-D_
  6
Continuous
 62
     4
100
AcDbLine
 10
894.7805223947176
 20
959.5682224390975
 30
0.0
 11
913.5305223947201
 21
978.3182224390975
 31
0.0
  0
LINE
  5
BC
330
22
100
AcDbEntity
  8
_4-D_
  6
Continuous
 62
     4
100
AcDbLine
 10
868.2640181002188
 20
959.5682224390975
 30
0.0
 11
887.0140181002165
 21
978.3182224390955
 31
0.0
  0
LINE
  5
BD
330
22
100
AcDbEntity
  8
_4-D_
  6
Continuous
 62
     4
100
AcDbLine
 10
841.7475138057291
 20
959.5682224390975
 30
0.0
 11
860.4975138057291
 21
978.3182224390975
 31
0.0
  0
LINE
  5
BE
330
22
100
AcDbEntity
  8
_4-D_
  6
Continuous
 62
     4
100
AcDbLine
 10
815.2310095112278
 20
959.5682224390955
 30
0.0
 11
833.9810095112268
 21
978.318222439093
 31
0.0
  0
LINE
  5
BF
330
22
100
AcDbEntity
  8
_4-D_
  6
Continuous
 62
     4
100
AcDbLine
 10
788.7145052167267
 20
959.5682224390955
 30
0.0
 11
807.4645052167289
 21
978.3182224390975
 31
0.0
  0
LINE
  5
C0
330
22
100
AcDbEntity
  8
_4-D_
  6
Continuous
 62
     4
100
AcDbLine
 10
767.3650753081965
 20
964.7352968250519
 30
0.0
 11
780.9480009222424
 21
978.3182224391
 31
0.0
  0
LINE
  5
C1
330
22
100
AcDbEntity
  8
_4-D_
  6
Continuous
 62
     4
100
AcDbLine
 10
767.3650753081965
 20
966.833942710655
 30
0.0
 11
774.6307955797539
 21
959.5682224390975
 31
0.0
  0
LINE
  5
C2
330
22
100
AcDbEntity
  8
_4-D_
  6
Continuous
 62
     4
100
AcDbLine
 10
782.3972998742537
 20
978.3182224390975
 30
0.0
 11
801.1472998742515
 21
959.5682224391
 31
0.0
  0
LINE
  5
C3
330
22
100
AcDbEntity
  8
_4-D_
  6
Continuous
 62
     4
100
AcDbLine
 10
808.9138041687551
 20
978.3182224390975
 30
0.0
 11
827.6638041687562
 21
959.5682224390955
 31
0.0
  0
LINE
  5
C4
330
22
100
AcDbEntity
  8
_4-D_
  6
Continuous
 62
     4
100
AcDbLine
 10
835.4303084632446
 20
978.3182224390955
 30
0.0
 11
854.1803084632425
 21
959.5682224390975
 31
0.0
  0
LINE
  5
C5
330
22
100
AcDbEntity
  8
_4-D_
  6
Continuous
 62
     4
100
AcDbLine
 10
861.9468127577428
 20
978.3182224390975
 30
0.0
 11
880.6968127577446
 21
959.5682224390955
 31
0.0
  0
LINE
  5
C6
330
22
100
AcDbEntity
  8
_4-D_
  6
Continuous
 62
     4
100
AcDbLine
 10
888.4633170522416
 20
978.3182224390975
 30
0.0
 11
907.2133170522434
 21
959.5682224390975
 31
0.0
  0
LINE
  5
C7
330
22
100
AcDbEntity
  8
_4-D_
  6
Continuous
 62
     4
100
AcDbLine
 10
914.9798213467335
 20
978.3182224390955
 30
0.0
 11
933.7298213467303
 21
959.5682224390975
 31
0.0
  0
LINE
  5
C8
330
22
100
AcDbEntity
  8
_4-D_
  6
Continuous
 62
     4
100
AcDbLine
 10
941.4963256412312
 20
978.3182224390975
 30
0.0
 11
960.2463256412336
 21
959.5682224390955
 31
0.0
  0
LINE
  5
C9
330
22
100
AcDbEntity
  8
_4-D_
  6
Continuous
 62
     4
100
AcDbLine
 10
968.0128299357201
 20
978.3182224390975
 30
0.0
 11
986.7628299357177
 21
959.5682224391
 31
0.0
  0
LINE
  5
CA
330
22
100
AcDbEntity
  8
_4-4_
  6
Continuous
 62
     2
100
AcDbLine
 10
1084.240075308196
 20
1206.443222439098
 30
0.0
 11
1082.990075308196
 21
1204.278158929637
 31
0.0
  0
LINE
  5
CB
330
22
100
AcDbEntity
  8
_4-D_
  6
Continuous
 62
     7
100
AcDbLine
 10
1084.240075308196
 20
1228.318222439098
 30
0.0
 11
1084.240075308196
 21
1209.568222439098
 31
0.0
  0
LINE
  5
CC
330
22
100
AcDbEntity
  8
_4-4_
  6
Continuous
 62
     2
100
AcDbLine
 10
1084.240075308196
 20
1209.568222439098
 30
0.0
 11
1084.240075308196
 21
1206.443222439098
 31
0.0
  0
LINE
  5
CD
330
22
100
AcDbEntity
  8
_4-4_
  6
Continuous
 62
     2
100
AcDbLine
 10
1084.240075308196
 20
1209.568222439098
 30
0.0
 11
1085.490075308195
 21
1209.568222439098
 31
0.0
  0
LINE
  5
CE
330
22
100
AcDbEntity
  8
_4-4_
  6
Continuous
 62
     2
100
AcDbLine
 10
1085.490075308195
 20
1228.318222439098
 30
0.0
 11
1085.490075308195
 21
1209.568222439098
 31
0.0
  0
ARC
  5
CF
330
22
100
AcDbEntity
  8
_4-4_
  6
Continuous
 62
     2
100
AcDbCircle
 10
1109.412117434771
 20
1248.624810428824
 30
0.0
 40
31.37868090424085
100
AcDbArc
 50
199.6732331057936
 51
220.3267668942045
  0
LINE
  5
D0
330
22
100
AcDbEntity
  8
_4-D_
  6
Continuous
 62
     7
100
AcDbLine
 10
1012.990075308197
 20
1228.318222439098
 30
0.0
 11
1012.990075308197
 21
1209.568222439098
 31
0.0
  0
LINE
  5
D1
330
22
100
AcDbEntity
  8
_4-4_
  6
Continuous
 62
     2
100
AcDbLine
 10
1012.990075308197
 20
1206.443222439098
 30
0.0
 11
1014.240075308197
 21
1204.278158929637
 31
0.0
  0
LINE
  5
D2
330
22
100
AcDbEntity
  8
_4-4_
  6
Continuous
 62
     2
100
AcDbLine
 10
1012.990075308197
 20
1209.568222439098
 30
0.0
 11
1012.990075308197
 21
1206.443222439098
 31
0.0
  0
LINE
  5
D3
330
22
100
AcDbEntity
  8
_4-4_
  6
Continuous
 62
     2
100
AcDbLine
 10
1011.740075308197
 20
1228.318222439098
 30
0.0
 11
1011.740075308197
 21
1209.568222439098
 31
0.0
  0
LINE
  5
D4
330
22
100
AcDbEntity
  8
_4-4_
  6
Continuous
 62
     2
100
AcDbLine
 10
1012.990075308197
 20
1209.568222439098
 30
0.0
 11
1011.740075308197
 21
1209.568222439098
 31
0.0
  0
ARC
  5
D5
330
22
100
AcDbEntity
  8
_4-4_
  6
Continuous
 62
     2
100
AcDbCircle
 10
987.8180331816208
 20
1248.624810428824
 30
0.0
 40
31.37868090424085
100
AcDbArc
 50
319.6732331057955
 51
340.3267668942064
  0
LINE
  5
D6
330
22
100
AcDbEntity
  8
_4-2_
  6
Continuous
 62
     7
100
AcDbLine
 10
1017.365075308197
 20
984.5682224390975
 30
0.0
 11
767.3650753081965
 21
984.5682224390975
 31
0.0
  0
ARC
  5
D7
330
22
100
AcDbEntity
  8
_4-2_
  6
Continuous
 62
     7
100
AcDbCircle
 10
1084.865075308196
 20
994.8807224391
 30
0.0
 40
5.0
100
AcDbArc
 50
180.0
 51
270.0
  0
ARC
  5
D8
330
22
100
AcDbEntity
  8
_4-4_
  6
Continuous
 62
     2
100
AcDbCircle
 10
1084.865075308196
 20
994.8807224391
 30
0.0
 40
1.875
100
AcDbArc
 50
180.0
 51
270.0
  0
LINE
  5
D9
330
22
100
AcDbEntity
  8
_4-4_
  6
Continuous
 62
     2
100
AcDbLine
 10
1082.990075308196
 20
994.8807224391
 30
0.0
 11
1082.990075308196
 21
1204.278158929637
 31
0.0
  0
ARC
  5
DA
330
22
100
AcDbEntity
  8
_4-2_
  6
Continuous
 62
     7
100
AcDbCircle
 10
1012.365075308196
 20
994.8807224391
 30
0.0
 40
5.0
100
AcDbArc
 50
270.0
 51
0.0
  0
ARC
  5
DB
330
22
100
AcDbEntity
  8
_4-4_
  6
Continuous
 62
     2
100
AcDbCircle
 10
1012.365075308196
 20
994.8807224391
 30
0.0
 40
1.875
100
AcDbArc
 50
270.0
 51
0.0
  0
LINE
  5
DC
330
22
100
AcDbEntity
  8
_4-4_
  6
Continuous
 62
     2
100
AcDbLine
 10
1014.240075308197
 20
994.8807224391
 30
0.0
 11
1014.240075308197
 21
1204.278158929637
 31
0.0
  0
LINE
  5
DD
330
22
100
AcDbEntity
  8
_4-D_
  6
Continuous
 62
     4
100
AcDbLine
 10
1079.865075308196
 20
978.8791582686169
 30
0.0
 11
1085.554139478677
 21
984.5682224390975
 31
0.0
  0
LINE
  5
DE
330
22
100
AcDbEntity
  8
_4-D_
  6
Continuous
 62
     4
100
AcDbLine
 10
1331.210930276398
 20
978.3182224391023
 30
0.0
 11
1337.460930276393
 21
984.5682224390975
 31
0.0
  0
LINE
  5
DF
330
22
100
AcDbEntity
  8
_4-D_
  6
Continuous
 62
     4
100
AcDbLine
 10
1251.661417392902
 20
978.3182224390975
 30
0.0
 11
1257.9114173929
 21
984.5682224390975
 31
0.0
  0
LINE
  5
E0
330
22
100
AcDbEntity
  8
_4-D_
  6
Continuous
 62
     4
100
AcDbLine
 10
1238.403165245654
 20
978.3182224391
 30
0.0
 11
1244.65316524565
 21
984.5682224390975
 31
0.0
  0
LINE
  5
E1
330
22
100
AcDbEntity
  8
_4-D_
  6
Continuous
 62
     4
100
AcDbLine
 10
1225.144913098402
 20
978.3182224390975
 30
0.0
 11
1231.394913098401
 21
984.5682224390975
 31
0.0
  0
LINE
  5
E2
330
22
100
AcDbEntity
  8
_4-D_
  6
Continuous
 62
     4
100
AcDbLine
 10
1211.886660951159
 20
978.3182224390975
 30
0.0
 11
1218.136660951159
 21
984.5682224390975
 31
0.0
  0
LINE
  5
E3
330
22
100
AcDbEntity
  8
_4-D_
  6
Continuous
 62
     4
100
AcDbLine
 10
1198.628408803911
 20
978.3182224391
 30
0.0
 11
1204.878408803909
 21
984.5682224390975
 31
0.0
  0
LINE
  5
E4
330
22
100
AcDbEntity
  8
_4-D_
  6
Continuous
 62
     4
100
AcDbLine
 10
1185.370156656664
 20
978.3182224391
 30
0.0
 11
1191.620156656659
 21
984.5682224390975
 31
0.0
  0
LINE
  5
E5
330
22
100
AcDbEntity
  8
_4-D_
  6
Continuous
 62
     4
100
AcDbLine
 10
1172.111904509411
 20
978.3182224390975
 30
0.0
 11
1178.361904509409
 21
984.5682224390975
 31
0.0
  0
LINE
  5
E6
330
22
100
AcDbEntity
  8
_4-D_
  6
Continuous
 62
     4
100
AcDbLine
 10
1145.59540021492
 20
978.3182224391
 30
0.0
 11
1151.845400214918
 21
984.5682224390975
 31
0.0
  0
LINE
  5
E7
330
22
100
AcDbEntity
  8
_4-D_
  6
Continuous
 62
     4
100
AcDbLine
 10
1132.33714806767
 20
978.3182224391
 30
0.0
 11
1138.587148067668
 21
984.5682224390975
 31
0.0
  0
LINE
  5
E8
330
22
100
AcDbEntity
  8
_4-D_
  6
Continuous
 62
     4
100
AcDbLine
 10
1119.078895920421
 20
978.3182224390975
 30
0.0
 11
1125.328895920418
 21
984.5682224390975
 31
0.0
  0
LINE
  5
E9
330
22
100
AcDbEntity
  8
_4-D_
  6
Continuous
 62
     4
100
AcDbLine
 10
1158.853652362159
 20
978.3182224390975
 30
0.0
 11
1165.103652362159
 21
984.5682224390975
 31
0.0
  0
LINE
  5
EA
330
22
100
AcDbEntity
  8
_4-D_
  6
Continuous
 62
     4
100
AcDbLine
 10
1317.952678129147
 20
978.3182224391
 30
0.0
 11
1324.202678129143
 21
984.5682224390975
 31
0.0
  0
LINE
  5
EB
330
22
100
AcDbEntity
  8
_4-D_
  6
Continuous
 62
     4
100
AcDbLine
 10
1304.694425981903
 20
978.3182224391
 30
0.0
 11
1310.944425981901
 21
984.5682224390975
 31
0.0
  0
LINE
  5
EC
330
22
100
AcDbEntity
  8
_4-D_
  6
Continuous
 62
     4
100
AcDbLine
 10
1291.436173834655
 20
978.3182224391023
 30
0.0
 11
1297.686173834651
 21
984.5682224390975
 31
0.0
  0
LINE
  5
ED
330
22
100
AcDbEntity
  8
_4-D_
  6
Continuous
 62
     4
100
AcDbLine
 10
1278.177921687407
 20
978.3182224391023
 30
0.0
 11
1284.427921687401
 21
984.5682224390975
 31
0.0
  0
LINE
  5
EE
330
22
100
AcDbEntity
  8
_4-D_
  6
Continuous
 62
     4
100
AcDbLine
 10
1264.919669540155
 20
978.3182224391
 30
0.0
 11
1271.169669540151
 21
984.5682224390975
 31
0.0
  0
LINE
  5
EF
330
22
100
AcDbEntity
  8
_4-D_
  6
Continuous
 62
     4
100
AcDbLine
 10
1105.820643773179
 20
978.3182224390975
 30
0.0
 11
1112.070643773177
 21
984.5682224390975
 31
0.0
  0
LINE
  5
F0
330
22
100
AcDbEntity
  8
_4-D_
  6
Continuous
 62
     4
100
AcDbLine
 10
1463.793451748883
 20
978.3182224391023
 30
0.0
 11
1470.043451748879
 21
984.5682224391
 31
0.0
  0
LINE
  5
F1
330
22
100
AcDbEntity
  8
_4-D_
  6
Continuous
 62
     4
100
AcDbLine
 10
1384.243938865389
 20
978.3182224391023
 30
0.0
 11
1390.493938865386
 21
984.5682224391
 31
0.0
  0
LINE
  5
F2
330
22
100
AcDbEntity
  8
_4-D_
  6
Continuous
 62
     4
100
AcDbLine
 10
1370.985686718139
 20
978.3182224391023
 30
0.0
 11
1377.235686718136
 21
984.5682224391
 31
0.0
  0
LINE
  5
F3
330
22
100
AcDbEntity
  8
_4-D_
  6
Continuous
 62
     4
100
AcDbLine
 10
1357.727434570889
 20
978.3182224391023
 30
0.0
 11
1363.977434570886
 21
984.5682224391
 31
0.0
  0
LINE
  5
F4
330
22
100
AcDbEntity
  8
_4-D_
  6
Continuous
 62
     4
100
AcDbLine
 10
1344.469182423645
 20
978.3182224391
 30
0.0
 11
1350.719182423645
 21
984.5682224391
 31
0.0
  0
LINE
  5
F5
330
22
100
AcDbEntity
  8
_4-D_
  6
Continuous
 62
     4
100
AcDbLine
 10
1450.535199601632
 20
978.3182224391023
 30
0.0
 11
1456.785199601629
 21
984.5682224391
 31
0.0
  0
LINE
  5
F6
330
22
100
AcDbEntity
  8
_4-D_
  6
Continuous
 62
     4
100
AcDbLine
 10
1437.276947454389
 20
978.3182224391023
 30
0.0
 11
1443.526947454386
 21
984.5682224391
 31
0.0
  0
LINE
  5
F7
330
22
100
AcDbEntity
  8
_4-D_
  6
Continuous
 62
     4
100
AcDbLine
 10
1424.018695307141
 20
978.3182224391023
 30
0.0
 11
1430.268695307136
 21
984.5682224391
 31
0.0
  0
LINE
  5
F8
330
22
100
AcDbEntity
  8
_4-D_
  6
Continuous
 62
     4
100
AcDbLine
 10
1410.760443159893
 20
978.3182224391046
 30
0.0
 11
1417.010443159886
 21
984.5682224391
 31
0.0
  0
LINE
  5
F9
330
22
100
AcDbEntity
  8
_4-D_
  6
Continuous
 62
     4
100
AcDbLine
 10
1397.502191012641
 20
978.3182224391023
 30
0.0
 11
1403.752191012636
 21
984.5682224391
 31
0.0
  0
LINE
  5
FA
330
22
100
AcDbEntity
  8
_4-D_
  6
Continuous
 62
     4
100
AcDbLine
 10
1503.568208190625
 20
978.3182224391046
 30
0.0
 11
1509.818208190623
 21
984.5682224391023
 31
0.0
  0
LINE
  5
FB
330
22
100
AcDbEntity
  8
_4-D_
  6
Continuous
 62
     4
100
AcDbLine
 10
1490.309956043375
 20
978.3182224391023
 30
0.0
 11
1496.559956043373
 21
984.5682224391023
 31
0.0
  0
LINE
  5
FC
330
22
100
AcDbEntity
  8
_4-D_
  6
Continuous
 62
     4
100
AcDbLine
 10
1477.051703896132
 20
978.3182224391023
 30
0.0
 11
1483.301703896131
 21
984.5682224391023
 31
0.0
  0
LINE
  5
FD
330
22
100
AcDbEntity
  8
_4-D_
  6
Continuous
 62
     4
100
AcDbLine
 10
768.7109302763981
 20
978.3182224391023
 30
0.0
 11
774.9609302763935
 21
984.5682224390975
 31
0.0
  0
LINE
  5
FE
330
22
100
AcDbEntity
  8
_4-D_
  6
Continuous
 62
     4
100
AcDbLine
 10
901.2934517488833
 20
978.3182224391023
 30
0.0
 11
907.5434517488787
 21
984.5682224391
 31
0.0
  0
LINE
  5
FF
330
22
100
AcDbEntity
  8
_4-D_
  6
Continuous
 62
     4
100
AcDbLine
 10
821.743938865389
 20
978.3182224391023
 30
0.0
 11
827.9939388653865
 21
984.5682224391
 31
0.0
  0
LINE
  5
100
330
22
100
AcDbEntity
  8
_4-D_
  6
Continuous
 62
     4
100
AcDbLine
 10
808.485686718139
 20
978.3182224391023
 30
0.0
 11
814.7356867181365
 21
984.5682224391
 31
0.0
  0
LINE
  5
101
330
22
100
AcDbEntity
  8
_4-D_
  6
Continuous
 62
     4
100
AcDbLine
 10
795.2274345708889
 20
978.3182224391023
 30
0.0
 11
801.4774345708865
 21
984.5682224391
 31
0.0
  0
LINE
  5
102
330
22
100
AcDbEntity
  8
_4-D_
  6
Continuous
 62
     4
100
AcDbLine
 10
781.9691824236457
 20
978.3182224391
 30
0.0
 11
788.2191824236457
 21
984.5682224391
 31
0.0
  0
LINE
  5
103
330
22
100
AcDbEntity
  8
_4-D_
  6
Continuous
 62
     4
100
AcDbLine
 10
888.0351996016321
 20
978.3182224391023
 30
0.0
 11
894.2851996016297
 21
984.5682224391
 31
0.0
  0
LINE
  5
104
330
22
100
AcDbEntity
  8
_4-D_
  6
Continuous
 62
     4
100
AcDbLine
 10
874.776947454389
 20
978.3182224391023
 30
0.0
 11
881.0269474543868
 21
984.5682224391
 31
0.0
  0
LINE
  5
105
330
22
100
AcDbEntity
  8
_4-D_
  6
Continuous
 62
     4
100
AcDbLine
 10
861.5186953071411
 20
978.3182224391023
 30
0.0
 11
867.7686953071367
 21
984.5682224391
 31
0.0
  0
LINE
  5
106
330
22
100
AcDbEntity
  8
_4-D_
  6
Continuous
 62
     4
100
AcDbLine
 10
848.2604431598934
 20
978.3182224391046
 30
0.0
 11
854.5104431598868
 21
984.5682224391
 31
0.0
  0
LINE
  5
107
330
22
100
AcDbEntity
  8
_4-D_
  6
Continuous
 62
     4
100
AcDbLine
 10
835.0021910126413
 20
978.3182224391023
 30
0.0
 11
841.2521910126365
 21
984.5682224391
 31
0.0
  0
LINE
  5
108
330
22
100
AcDbEntity
  8
_4-D_
  6
Continuous
 62
     4
100
AcDbLine
 10
954.3264603378752
 20
978.3182224391023
 30
0.0
 11
960.5764603378728
 21
984.5682224391023
 31
0.0
  0
LINE
  5
109
330
22
100
AcDbEntity
  8
_4-D_
  6
Continuous
 62
     4
100
AcDbLine
 10
941.0682081906253
 20
978.3182224391046
 30
0.0
 11
947.318208190623
 21
984.5682224391023
 31
0.0
  0
LINE
  5
10A
330
22
100
AcDbEntity
  8
_4-D_
  6
Continuous
 62
     4
100
AcDbLine
 10
927.8099560433751
 20
978.3182224391023
 30
0.0
 11
934.0599560433728
 21
984.5682224391023
 31
0.0
  0
LINE
  5
10B
330
22
100
AcDbEntity
  8
_4-D_
  6
Continuous
 62
     4
100
AcDbLine
 10
914.5517038961321
 20
978.3182224391023
 30
0.0
 11
920.801703896131
 21
984.5682224391023
 31
0.0
  0
LINE
  5
10C
330
22
100
AcDbEntity
  8
_4-D_
  6
Continuous
 62
     4
100
AcDbLine
 10
1007.359468926875
 20
978.3182224391023
 30
0.0
 11
1013.609468926873
 21
984.5682224391023
 31
0.0
  0
LINE
  5
10D
330
22
100
AcDbEntity
  8
_4-D_
  6
Continuous
 62
     4
100
AcDbLine
 10
994.1012167796262
 20
978.3182224391069
 30
0.0
 11
1000.351216779623
 21
984.5682224391023
 31
0.0
  0
LINE
  5
10E
330
22
100
AcDbEntity
  8
_4-D_
  6
Continuous
 62
     4
100
AcDbLine
 10
980.8429646323789
 20
978.3182224391069
 30
0.0
 11
987.0929646323732
 21
984.5682224391023
 31
0.0
  0
LINE
  5
10F
330
22
100
AcDbEntity
  8
_4-D_
  6
Continuous
 62
     4
100
AcDbLine
 10
967.5847124851264
 20
978.3182224391046
 30
0.0
 11
973.8347124851232
 21
984.5682224391023
 31
0.0
  0
LINE
  5
110
330
22
100
AcDbEntity
  8
_4-3_
  6
Continuous
 62
     3
100
AcDbLine
 10
1017.365075308197
 20
865.8182224390978
 30
0.0
 11
767.3650753081965
 21
865.8182224390978
 31
0.0
  0
ARC
  5
111
330
22
100
AcDbEntity
  8
_4-2_
  6
Continuous
 62
     7
100
AcDbCircle
 10
1032.990075308196
 20
863.3969212041984
 30
0.0
 40
29.81241592781809
100
AcDbArc
 50
238.391618658765
 51
301.608381341235
  0
ARC
  5
112
330
22
100
AcDbEntity
  8
_4-2_
  6
Continuous
 62
     7
100
AcDbCircle
 10
1032.990075308196
 20
812.6174167381943
 30
0.0
 40
29.81241592781808
100
AcDbArc
 50
58.39161865876501
 51
121.608381341235
  0
ARC
  5
113
330
22
100
AcDbEntity
  8
_4-2_
  6
Continuous
 62
     7
100
AcDbCircle
 10
1064.240075308196
 20
863.3969212041984
 30
0.0
 40
29.81241592781809
100
AcDbArc
 50
238.391618658765
 51
301.608381341235
  0
LINE
  5
114
330
22
100
AcDbEntity
  8
_4-2_
  6
Continuous
 62
     7
100
AcDbLine
 10
1079.865075308196
 20
1238.061008231673
 30
0.0
 11
1079.865075308196
 21
838.0071689711943
 31
0.0
  0
LINE
  5
115
330
22
100
AcDbEntity
  8
_4-2_
  6
Continuous
 62
     7
100
AcDbLine
 10
1017.365075308197
 20
1238.061008231673
 30
0.0
 11
1017.365075308197
 21
838.0071689711943
 31
0.0
  0
ARC
  5
116
330
22
100
AcDbEntity
  8
_4-2_
  6
Continuous
 62
     7
100
AcDbCircle
 10
1032.990075308196
 20
1338.396921204196
 30
0.0
 40
29.81241592781809
100
AcDbArc
 50
238.391618658765
 51
301.608381341235
  0
LINE
  5
117
330
22
100
AcDbEntity
  8
_4-4_
  6
Continuous
 62
     2
100
AcDbLine
 10
1079.865075308196
 20
1313.007168971194
 30
0.0
 11
1079.865075308196
 21
1238.061008231673
 31
0.0
  0
LINE
  5
118
330
22
100
AcDbEntity
  8
_4-4_
  6
Continuous
 62
     2
100
AcDbLine
 10
1017.365075308197
 20
1313.007168971194
 30
0.0
 11
1017.365075308197
 21
1238.061008231673
 31
0.0
  0
ARC
  5
119
330
22
100
AcDbEntity
  8
_4-4_
  6
Continuous
 62
     2
100
AcDbCircle
 10
1064.240075308196
 20
1287.617416738192
 30
0.0
 40
29.81241592781809
100
AcDbArc
 50
58.39161865876501
 51
121.608381341235
  0
ARC
  5
11A
330
22
100
AcDbEntity
  8
_4-4_
  6
Continuous
 62
     2
100
AcDbCircle
 10
1032.990075308196
 20
1287.617416738192
 30
0.0
 40
29.81241592781809
100
AcDbArc
 50
58.39161865876501
 51
121.608381341235
  0
LINE
  5
11B
330
22
100
AcDbEntity
  8
_4-3_
  6
Continuous
 62
     3
100
AcDbLine
 10
1079.865075308196
 20
865.8182224390978
 30
0.0
 11
1517.365075308196
 21
865.8182224390978
 31
0.0
  0
LINE
  5
11C
330
22
100
AcDbEntity
  8
_4-2_
  6
Continuous
 62
     7
100
AcDbLine
 10
1079.865075308196
 20
959.5682224390975
 30
0.0
 11
1517.365075308196
 21
959.5682224390975
 31
0.0
  0
LINE
  5
11D
330
22
100
AcDbEntity
  8
_4-D_
  6
Continuous
 62
     4
100
AcDbLine
 10
1498.342915825631
 20
978.3182224390955
 30
0.0
 11
1517.365075308196
 21
959.2960629565302
 31
0.0
  0
LINE
  5
11E
330
22
100
AcDbEntity
  8
_4-D_
  6
Continuous
 62
     4
100
AcDbLine
 10
1504.660121168115
 20
959.5682224390975
 30
0.0
 11
1517.365075308196
 21
972.2731765791788
 31
0.0
  0
LINE
  5
11F
330
22
100
AcDbEntity
  8
_4-E_
  6
Continuous
 62
     4
100
AcDbLine
 10
982.6039370051891
 20
865.8182224390978
 30
0.0
 11
1017.365075308197
 21
900.5793607421038
 31
0.0
  0
LINE
  5
120
330
22
100
AcDbEntity
  8
_4-E_
  6
Continuous
 62
     4
100
AcDbLine
 10
996.7460726289193
 20
865.8182224390978
 30
0.0
 11
1017.365075308197
 21
886.437225118375
 31
0.0
  0
LINE
  5
121
330
22
100
AcDbEntity
  8
_4-E_
  6
Continuous
 62
     4
100
AcDbLine
 10
989.6750048170547
 20
865.8182224390978
 30
0.0
 11
1017.365075308197
 21
893.5082929302396
 31
0.0
  0
LINE
  5
122
330
22
100
AcDbEntity
  8
_4-E_
  6
Continuous
 62
     4
100
AcDbLine
 10
1361.442533536967
 20
865.8182224390978
 30
0.0
 11
1455.192533536967
 21
959.5682224390975
 31
0.0
  0
LINE
  5
123
330
22
100
AcDbEntity
  8
_4-E_
  6
Continuous
 62
     4
100
AcDbLine
 10
1347.300397913238
 20
865.8182224390978
 30
0.0
 11
1441.050397913238
 21
959.5682224390975
 31
0.0
  0
LINE
  5
124
330
22
100
AcDbEntity
  8
_4-E_
  6
Continuous
 62
     4
100
AcDbLine
 10
1354.371465725103
 20
865.8182224390978
 30
0.0
 11
1448.121465725103
 21
959.5682224390975
 31
0.0
  0
LINE
  5
125
330
22
100
AcDbEntity
  8
_4-E_
  6
Continuous
 62
     4
100
AcDbLine
 10
782.6039370051915
 20
865.8182224390978
 30
0.0
 11
876.3539370051883
 21
959.5682224390975
 31
0.0
  0
LINE
  5
126
330
22
100
AcDbEntity
  8
_4-E_
  6
Continuous
 62
     4
100
AcDbLine
 10
796.7460726289192
 20
865.8182224390978
 30
0.0
 11
890.4960726289193
 21
959.5682224390975
 31
0.0
  0
LINE
  5
127
330
22
100
AcDbEntity
  8
_4-E_
  6
Continuous
 62
     4
100
AcDbLine
 10
789.6750048170547
 20
865.8182224390978
 30
0.0
 11
883.4250048170547
 21
959.5682224390975
 31
0.0
  0
TEXT
  5
128
330
22
100
AcDbEntity
  8
_4-A_
 62
     7
100
AcDbText
 10
1155.333071244979
 20
1173.266157338535
 30
0.0
 40
15.0
  1
塩ビシート 接着工法
100
AcDbText
  0
LINE
  5
129
330
22
100
AcDbEntity
  8
_4-A_
  6
Continuous
 62
     7
100
AcDbLine
 10
1145.333071244979
 20
1180.766157338535
 30
0.0
 11
1120.443780180723
 21
1180.766157338535
 31
0.0
  0
LINE
  5
12A
330
22
100
AcDbEntity
  8
_4-A_
  6
Continuous
 62
     7
100
AcDbLine
 10
1081.940566016173
 20
1114.076634150829
 30
0.0
 11
1120.443780180723
 21
1180.766157338535
 31
0.0
  0
LINE
  5
12B
330
22
100
AcDbEntity
  8
_4-A_
  6
Continuous
 62
     7
100
AcDbLine
 10
1080.533988670791
 20
1207.594913325927
 30
0.0
 11
1108.345669368669
 21
1255.766157338535
 31
0.0
  0
LINE
  5
12C
330
22
100
AcDbEntity
  8
_4-A_
  6
Continuous
 62
     7
100
AcDbLine
 10
1085.080162609566
 20
1226.659513714339
 30
0.0
 11
1116.318647870942
 21
1280.766157338535
 31
0.0
  0
LINE
  5
12D
330
22
100
AcDbEntity
  8
_4-A_
  6
Continuous
 62
     7
100
AcDbLine
 10
1080.533988670791
 20
1234.87195695858
 30
0.0
 11
1121.464774344142
 21
1305.766157338535
 31
0.0
  0
TEXT
  5
12E
330
22
100
AcDbEntity
  8
_4-A_
 62
     7
100
AcDbText
 10
1155.333071244979
 20
1298.266157338535
 30
0.0
 40
15.0
  1
ロンシーラントＳ
100
AcDbText
  0
TEXT
  5
12F
330
22
100
AcDbEntity
  8
_4-A_
 62
     7
100
AcDbText
 10
1155.333071244979
 20
1248.266157338535
 30
0.0
 40
15.0
  1
ロンシーラントＴＢ
100
AcDbText
  0
TEXT
  5
130
330
22
100
AcDbEntity
  8
_4-A_
 62
     7
100
AcDbText
 10
1155.333071244979
 20
1273.266157338535
 30
0.0
 40
15.0
  1
ステンレスバンド
100
AcDbText
  0
LINE
  5
131
330
22
100
AcDbEntity
  8
_4-A_
  6
Continuous
 62
     7
100
AcDbLine
 10
1145.333071244979
 20
1255.766157338535
 30
0.0
 11
1108.345669368669
 21
1255.766157338535
 31
0.0
  0
LINE
  5
132
330
22
100
AcDbEntity
  8
_4-A_
  6
Continuous
 62
     7
100
AcDbLine
 10
1145.333071244979
 20
1280.766157338535
 30
0.0
 11
1116.318647870942
 21
1280.766157338535
 31
0.0
  0
LINE
  5
133
330
22
100
AcDbEntity
  8
_4-A_
  6
Continuous
 62
     7
100
AcDbLine
 10
1145.333071244979
 20
1305.766157338535
 30
0.0
 11
1121.464774344142
 21
1305.766157338535
 31
0.0
  0
LINE
  5
134
330
22
100
AcDbEntity
  8
_4-6_
  6
Continuous
 62
     2
100
AcDbLine
 10
1111.115075308196
 20
989.8807224390976
 30
0.0
 11
1111.115075308196
 21
989.1307224390903
 31
0.0
  0
LINE
  5
135
330
22
100
AcDbEntity
  8
_4-2_
  6
Continuous
 62
     7
100
AcDbLine
 10
1111.115075308196
 20
989.8807224390976
 30
0.0
 11
1114.903936449755
 21
987.6932224390975
 31
0.0
  0
LINE
  5
136
330
22
100
AcDbEntity
  8
_4-2_
  6
Continuous
 62
     7
100
AcDbLine
 10
1138.616867766364
 20
990.8182224390975
 30
0.0
 11
1138.628254508565
 21
990.9000380307727
 31
0.0
  0
LINE
  5
137
330
22
100
AcDbEntity
  8
_4-2_
  6
Continuous
 62
     7
100
AcDbLine
 10
1138.628254508565
 20
990.9000380307727
 30
0.0
 11
1138.648921245853
 21
991.0407092401603
 31
0.0
  0
LINE
  5
138
330
22
100
AcDbEntity
  8
_4-2_
  6
Continuous
 62
     7
100
AcDbLine
 10
1138.648921245853
 20
991.0407092401603
 30
0.0
 11
1138.672461380768
 21
991.1802966840721
 31
0.0
  0
LINE
  5
139
330
22
100
AcDbEntity
  8
_4-2_
  6
Continuous
 62
     7
100
AcDbLine
 10
1138.672461380768
 20
991.1802966840721
 30
0.0
 11
1138.700693519409
 21
991.3181144349916
 31
0.0
  0
LINE
  5
13A
330
22
100
AcDbEntity
  8
_4-2_
  6
Continuous
 62
     7
100
AcDbLine
 10
1138.700693519409
 20
991.3181144349916
 30
0.0
 11
1138.735436267866
 21
991.4534765654028
 31
0.0
  0
LINE
  5
13B
330
22
100
AcDbEntity
  8
_4-2_
  6
Continuous
 62
     7
100
AcDbLine
 10
1138.735436267866
 20
991.4534765654028
 30
0.0
 11
1138.778508232233
 21
991.5856971477889
 31
0.0
  0
LINE
  5
13C
330
22
100
AcDbEntity
  8
_4-2_
  6
Continuous
 62
     7
100
AcDbLine
 10
1138.778508232233
 20
991.5856971477889
 30
0.0
 11
1138.808023043667
 21
991.6606753371596
 31
0.0
  0
LINE
  5
13D
330
22
100
AcDbEntity
  8
_4-2_
  6
Continuous
 62
     7
100
AcDbLine
 10
1138.808023043667
 20
991.6606753371596
 30
0.0
 11
1138.833611206956
 21
991.7182483619036
 31
0.0
  0
LINE
  5
13E
330
22
100
AcDbEntity
  8
_4-2_
  6
Continuous
 62
     7
100
AcDbLine
 10
1138.833611206956
 20
991.7182483619036
 30
0.0
 11
1138.882620689884
 21
991.8155698012879
 31
0.0
  0
LINE
  5
13F
330
22
100
AcDbEntity
  8
_4-2_
  6
Continuous
 62
     7
100
AcDbLine
 10
1138.882620689884
 20
991.8155698012879
 30
0.0
 11
1138.937062573837
 21
991.9105720530867
 31
0.0
  0
LINE
  5
140
330
22
100
AcDbEntity
  8
_4-2_
  6
Continuous
 62
     7
100
AcDbLine
 10
1138.937062573837
 20
991.9105720530867
 30
0.0
 11
1138.996053192054
 21
992.0034173754634
 31
0.0
  0
LINE
  5
141
330
22
100
AcDbEntity
  8
_4-2_
  6
Continuous
 62
     7
100
AcDbLine
 10
1138.996053192054
 20
992.0034173754634
 30
0.0
 11
1139.058708877769
 21
992.0942680265696
 31
0.0
  0
LINE
  5
142
330
22
100
AcDbEntity
  8
_4-2_
  6
Continuous
 62
     7
100
AcDbLine
 10
1139.058708877769
 20
992.0942680265696
 30
0.0
 11
1139.124145964218
 21
992.1832862645674
 31
0.0
  0
LINE
  5
143
330
22
100
AcDbEntity
  8
_4-2_
  6
Continuous
 62
     7
100
AcDbLine
 10
1139.124145964218
 20
992.1832862645674
 30
0.0
 11
1139.163025701517
 21
992.2341411690696
 31
0.0
  0
LINE
  5
144
330
22
100
AcDbEntity
  8
_4-2_
  6
Continuous
 62
     7
100
AcDbLine
 10
1139.163025701517
 20
992.2341411690696
 30
0.0
 11
1139.209410872726
 21
992.2933184145724
 31
0.0
  0
LINE
  5
145
330
22
100
AcDbEntity
  8
_4-2_
  6
Continuous
 62
     7
100
AcDbLine
 10
1139.209410872726
 20
992.2933184145724
 30
0.0
 11
1139.290801460293
 21
992.3937676607353
 31
0.0
  0
LINE
  5
146
330
22
100
AcDbEntity
  8
_4-2_
  6
Continuous
 62
     7
100
AcDbLine
 10
1139.290801460293
 20
992.3937676607353
 30
0.0
 11
1139.373833847303
 21
992.4924343872296
 31
0.0
  0
LINE
  5
147
330
22
100
AcDbEntity
  8
_4-2_
  6
Continuous
 62
     7
100
AcDbLine
 10
1139.373833847303
 20
992.4924343872296
 30
0.0
 11
1139.458332683635
 21
992.5895721956457
 31
0.0
  0
LINE
  5
148
330
22
100
AcDbEntity
  8
_4-2_
  6
Continuous
 62
     7
100
AcDbLine
 10
1139.458332683635
 20
992.5895721956457
 30
0.0
 11
1139.54412261915
 21
992.6854346875758
 31
0.0
  0
LINE
  5
149
330
22
100
AcDbEntity
  8
_4-2_
  6
Continuous
 62
     7
100
AcDbLine
 10
1139.54412261915
 20
992.6854346875758
 30
0.0
 11
1139.631028303716
 21
992.7802754646112
 31
0.0
  0
LINE
  5
14A
330
22
100
AcDbEntity
  8
_4-2_
  6
Continuous
 62
     7
100
AcDbLine
 10
1139.631028303716
 20
992.7802754646112
 30
0.0
 11
1139.681875739912
 21
992.8349148977394
 31
0.0
  0
LINE
  5
14B
330
22
100
AcDbEntity
  8
_4-2_
  6
Continuous
 62
     7
100
AcDbLine
 10
1139.681875739912
 20
992.8349148977394
 30
0.0
 11
1139.735397660795
 21
992.8918337567395
 31
0.0
  0
LINE
  5
14C
330
22
100
AcDbEntity
  8
_4-2_
  6
Continuous
 62
     7
100
AcDbLine
 10
1139.735397660795
 20
992.8918337567395
 30
0.0
 11
1139.828646009737
 21
992.9891473497583
 31
0.0
  0
LINE
  5
14D
330
22
100
AcDbEntity
  8
_4-2_
  6
Continuous
 62
     7
100
AcDbLine
 10
1139.828646009737
 20
992.9891473497583
 30
0.0
 11
1139.92348989322
 21
993.0849885862588
 31
0.0
  0
LINE
  5
14E
330
22
100
AcDbEntity
  8
_4-2_
  6
Continuous
 62
     7
100
AcDbLine
 10
1139.92348989322
 20
993.0849885862588
 30
0.0
 11
1140.020358067909
 21
993.1788558605832
 31
0.0
  0
LINE
  5
14F
330
22
100
AcDbEntity
  8
_4-2_
  6
Continuous
 62
     7
100
AcDbLine
 10
1140.020358067909
 20
993.1788558605832
 30
0.0
 11
1140.119679290475
 21
993.2702475670842
 31
0.0
  0
LINE
  5
150
330
22
100
AcDbEntity
  8
_4-2_
  6
Continuous
 62
     7
100
AcDbLine
 10
1140.119679290475
 20
993.2702475670842
 30
0.0
 11
1140.221882317589
 21
993.3586621000996
 31
0.0
  0
LINE
  5
151
330
22
100
AcDbEntity
  8
_4-2_
  6
Continuous
 62
     7
100
AcDbLine
 10
1140.221882317589
 20
993.3586621000996
 30
0.0
 11
1140.282649468582
 21
993.408380729652
 31
0.0
  0
LINE
  5
152
330
22
100
AcDbEntity
  8
_4-2_
  6
Continuous
 62
     7
100
AcDbLine
 10
1140.282649468582
 20
993.408380729652
 30
0.0
 11
1140.337433030795
 21
993.4513340749619
 31
0.0
  0
LINE
  5
153
330
22
100
AcDbEntity
  8
_4-2_
  6
Continuous
 62
     7
100
AcDbLine
 10
1140.337433030795
 20
993.4513340749619
 30
0.0
 11
1140.434066218245
 21
993.5227170548344
 31
0.0
  0
LINE
  5
154
330
22
100
AcDbEntity
  8
_4-2_
  6
Continuous
 62
     7
100
AcDbLine
 10
1140.434066218245
 20
993.5227170548344
 30
0.0
 11
1140.533419432739
 21
993.5901999854175
 31
0.0
  0
LINE
  5
155
330
22
100
AcDbEntity
  8
_4-2_
  6
Continuous
 62
     7
100
AcDbLine
 10
1140.533419432739
 20
993.5901999854175
 30
0.0
 11
1140.635448593505
 21
993.6531845050584
 31
0.0
  0
LINE
  5
156
330
22
100
AcDbEntity
  8
_4-2_
  6
Continuous
 62
     7
100
AcDbLine
 10
1140.635448593505
 20
993.6531845050584
 30
0.0
 11
1140.740109619774
 21
993.7110722521133
 31
0.0
  0
LINE
  5
157
330
22
100
AcDbEntity
  8
_4-2_
  6
Continuous
 62
     7
100
AcDbLine
 10
1140.740109619774
 20
993.7110722521133
 30
0.0
 11
1140.847358430777
 21
993.7632648649312
 31
0.0
  0
LINE
  5
158
330
22
100
AcDbEntity
  8
_4-2_
  6
Continuous
 62
     7
100
AcDbLine
 10
1140.847358430777
 20
993.7632648649312
 30
0.0
 11
1140.910731094007
 21
993.7906912842576
 31
0.0
  0
LINE
  5
159
330
22
100
AcDbEntity
  8
_4-2_
  6
Continuous
 62
     7
100
AcDbLine
 10
1140.910731094007
 20
993.7906912842576
 30
0.0
 11
1140.98192202697
 21
993.8185217300475
 31
0.0
  0
LINE
  5
15A
330
22
100
AcDbEntity
  8
_4-2_
  6
Continuous
 62
     7
100
AcDbLine
 10
1140.98192202697
 20
993.8185217300475
 30
0.0
 11
1141.106852313128
 21
993.8605908728051
 31
0.0
  0
LINE
  5
15B
330
22
100
AcDbEntity
  8
_4-2_
  6
Continuous
 62
     7
100
AcDbLine
 10
1141.106852313128
 20
993.8605908728051
 30
0.0
 11
1141.234166124916
 21
993.8959680924927
 31
0.0
  0
LINE
  5
15C
330
22
100
AcDbEntity
  8
_4-2_
  6
Continuous
 62
     7
100
AcDbLine
 10
1141.234166124916
 20
993.8959680924927
 30
0.0
 11
1141.363415547919
 21
993.9255773885728
 31
0.0
  0
LINE
  5
15D
330
22
100
AcDbEntity
  8
_4-2_
  6
Continuous
 62
     7
100
AcDbLine
 10
1141.363415547919
 20
993.9255773885728
 30
0.0
 11
1141.494152667738
 21
993.9503427605181
 31
0.0
  0
LINE
  5
15E
330
22
100
AcDbEntity
  8
_4-2_
  6
Continuous
 62
     7
100
AcDbLine
 10
1141.494152667738
 20
993.9503427605181
 30
0.0
 11
1141.625929569962
 21
993.9711882077885
 31
0.0
  0
LINE
  5
15F
330
22
100
AcDbEntity
  8
_4-2_
  6
Continuous
 62
     7
100
AcDbLine
 10
1141.625929569962
 20
993.9711882077885
 30
0.0
 11
1141.70266009998
 21
993.98184656156
 31
0.0
  0
LINE
  5
160
330
22
100
AcDbEntity
  8
_4-2_
  6
Continuous
 62
     7
100
AcDbLine
 10
1141.70266009998
 20
993.98184656156
 30
0.0
 11
1141.79544570628
 21
993.9935446861047
 31
0.0
  0
LINE
  5
161
330
22
100
AcDbEntity
  8
_4-2_
  6
Continuous
 62
     7
100
AcDbLine
 10
1141.79544570628
 20
993.9935446861047
 30
0.0
 11
1141.955645872085
 21
994.0103614117836
 31
0.0
  0
LINE
  5
162
330
22
100
AcDbEntity
  8
_4-2_
  6
Continuous
 62
     7
100
AcDbLine
 10
1141.955645872085
 20
994.0103614117836
 30
0.0
 11
1142.115892952447
 21
994.0221478163451
 31
0.0
  0
LINE
  5
163
330
22
100
AcDbEntity
  8
_4-2_
  6
Continuous
 62
     7
100
AcDbLine
 10
1142.115892952447
 20
994.0221478163451
 30
0.0
 11
1142.275910350343
 21
994.0279891233377
 31
0.0
  0
LINE
  5
164
330
22
100
AcDbEntity
  8
_4-2_
  6
Continuous
 62
     7
100
AcDbLine
 10
1142.275910350343
 20
994.0279891233377
 30
0.0
 11
1142.435421468738
 21
994.0269705563084
 31
0.0
  0
LINE
  5
165
330
22
100
AcDbEntity
  8
_4-2_
  6
Continuous
 62
     7
100
AcDbLine
 10
1142.435421468738
 20
994.0269705563084
 30
0.0
 11
1142.594149710608
 21
994.0181773388077
 31
0.0
  0
LINE
  5
166
330
22
100
AcDbEntity
  8
_4-2_
  6
Continuous
 62
     7
100
AcDbLine
 10
1142.594149710608
 20
994.0181773388077
 30
0.0
 11
1142.685744383256
 21
994.0091544583175
 31
0.0
  0
LINE
  5
167
330
22
100
AcDbEntity
  8
_4-2_
  6
Continuous
 62
     7
100
AcDbLine
 10
1142.685744383256
 20
994.0091544583175
 30
0.0
 11
1142.752834502984
 21
994.0005983420158
 31
0.0
  0
LINE
  5
168
330
22
100
AcDbEntity
  8
_4-2_
  6
Continuous
 62
     7
100
AcDbLine
 10
1142.752834502984
 20
994.0005983420158
 30
0.0
 11
1142.868115790965
 21
993.9824985724909
 31
0.0
  0
LINE
  5
169
330
22
100
AcDbEntity
  8
_4-2_
  6
Continuous
 62
     7
100
AcDbLine
 10
1142.868115790965
 20
993.9824985724909
 30
0.0
 11
1142.983097576867
 21
993.9610513965273
 31
0.0
  0
LINE
  5
16A
330
22
100
AcDbEntity
  8
_4-2_
  6
Continuous
 62
     7
100
AcDbLine
 10
1142.983097576867
 20
993.9610513965273
 30
0.0
 11
1143.098007599276
 21
993.9372921302608
 31
0.0
  0
LINE
  5
16B
330
22
100
AcDbEntity
  8
_4-2_
  6
Continuous
 62
     7
100
AcDbLine
 10
1143.098007599276
 20
993.9372921302608
 30
0.0
 11
1143.21307359679
 21
993.9122560898205
 31
0.0
  0
LINE
  5
16C
330
22
100
AcDbEntity
  8
_4-2_
  6
Continuous
 62
     7
100
AcDbLine
 10
1143.21307359679
 20
993.9122560898205
 30
0.0
 11
1143.328523307996
 21
993.8869785913361
 31
0.0
  0
LINE
  5
16D
330
22
100
AcDbEntity
  8
_4-2_
  6
Continuous
 62
     7
100
AcDbLine
 10
1143.328523307996
 20
993.8869785913361
 30
0.0
 11
1143.395749698955
 21
993.8726149745297
 31
0.0
  0
LINE
  5
16E
330
22
100
AcDbEntity
  8
_4-2_
  6
Continuous
 62
     7
100
AcDbLine
 10
1143.395749698955
 20
993.8726149745297
 30
0.0
 11
1143.472069218535
 21
993.8568188985939
 31
0.0
  0
LINE
  5
16F
330
22
100
AcDbEntity
  8
_4-2_
  6
Continuous
 62
     7
100
AcDbLine
 10
1143.472069218535
 20
993.8568188985939
 30
0.0
 11
1143.603817983262
 21
993.8297254509464
 31
0.0
  0
LINE
  5
170
330
22
100
AcDbEntity
  8
_4-2_
  6
Continuous
 62
     7
100
AcDbLine
 10
1143.603817983262
 20
993.8297254509464
 30
0.0
 11
1143.73488374816
 21
993.8008922271048
 31
0.0
  0
LINE
  5
171
330
22
100
AcDbEntity
  8
_4-2_
  6
Continuous
 62
     7
100
AcDbLine
 10
1143.73488374816
 20
993.8008922271048
 30
0.0
 11
1143.864231841452
 21
993.7680884510408
 31
0.0
  0
LINE
  5
172
330
22
100
AcDbEntity
  8
_4-2_
  6
Continuous
 62
     7
100
AcDbLine
 10
1143.864231841452
 20
993.7680884510408
 30
0.0
 11
1143.990827591363
 21
993.7290833467276
 31
0.0
  0
LINE
  5
173
330
22
100
AcDbEntity
  8
_4-2_
  6
Continuous
 62
     7
100
AcDbLine
 10
1143.990827591363
 20
993.7290833467276
 30
0.0
 11
1144.113636326113
 21
993.6816461381432
 31
0.0
  0
LINE
  5
174
330
22
100
AcDbEntity
  8
_4-2_
  6
Continuous
 62
     7
100
AcDbLine
 10
1144.113636326113
 20
993.6816461381432
 30
0.0
 11
1144.182722467438
 21
993.6493899252354
 31
0.0
  0
LINE
  5
175
330
22
100
AcDbEntity
  8
_4-2_
  6
Continuous
 62
     7
100
AcDbLine
 10
1144.182722467438
 20
993.6493899252354
 30
0.0
 11
1144.244798861923
 21
993.6162115052823
 31
0.0
  0
LINE
  5
176
330
22
100
AcDbEntity
  8
_4-2_
  6
Continuous
 62
     7
100
AcDbLine
 10
1144.244798861923
 20
993.6162115052823
 30
0.0
 11
1144.348188808917
 21
993.5516575795944
 31
0.0
  0
LINE
  5
177
330
22
100
AcDbEntity
  8
_4-2_
  6
Continuous
 62
     7
100
AcDbLine
 10
1144.348188808917
 20
993.5516575795944
 30
0.0
 11
1144.446971041018
 21
993.4788140597632
 31
0.0
  0
LINE
  5
178
330
22
100
AcDbEntity
  8
_4-2_
  6
Continuous
 62
     7
100
AcDbLine
 10
1144.446971041018
 20
993.4788140597632
 30
0.0
 11
1144.541142945029
 21
993.3988598889392
 31
0.0
  0
LINE
  5
179
330
22
100
AcDbEntity
  8
_4-2_
  6
Continuous
 62
     7
100
AcDbLine
 10
1144.541142945029
 20
993.3988598889392
 30
0.0
 11
1144.630701907757
 21
993.312974010287
 31
0.0
  0
LINE
  5
17A
330
22
100
AcDbEntity
  8
_4-2_
  6
Continuous
 62
     7
100
AcDbLine
 10
1144.630701907757
 20
993.312974010287
 30
0.0
 11
1144.71564531601
 21
993.2223353669568
 31
0.0
  0
LINE
  5
17B
330
22
100
AcDbEntity
  8
_4-2_
  6
Continuous
 62
     7
100
AcDbLine
 10
1144.71564531601
 20
993.2223353669568
 30
0.0
 11
1144.762796616001
 21
993.1680518019565
 31
0.0
  0
LINE
  5
17C
330
22
100
AcDbEntity
  8
_4-2_
  6
Continuous
 62
     7
100
AcDbLine
 10
1144.762796616001
 20
993.1680518019565
 30
0.0
 11
1144.815481006233
 21
993.1039471844636
 31
0.0
  0
LINE
  5
17D
330
22
100
AcDbEntity
  8
_4-2_
  6
Continuous
 62
     7
100
AcDbLine
 10
1144.815481006233
 20
993.1039471844636
 30
0.0
 11
1144.901838418276
 21
992.9906440533777
 31
0.0
  0
LINE
  5
17E
330
22
100
AcDbEntity
  8
_4-2_
  6
Continuous
 62
     7
100
AcDbLine
 10
1144.901838418276
 20
992.9906440533777
 30
0.0
 11
1144.983157335163
 21
992.8742536317395
 31
0.0
  0
LINE
  5
17F
330
22
100
AcDbEntity
  8
_4-2_
  6
Continuous
 62
     7
100
AcDbLine
 10
1144.983157335163
 20
992.8742536317395
 30
0.0
 11
1145.060169773904
 21
992.7552748435598
 31
0.0
  0
LINE
  5
180
330
22
100
AcDbEntity
  8
_4-2_
  6
Continuous
 62
     7
100
AcDbLine
 10
1145.060169773904
 20
992.7552748435598
 30
0.0
 11
1145.133607751511
 21
992.6342066128452
 31
0.0
  0
LINE
  5
181
330
22
100
AcDbEntity
  8
_4-2_
  6
Continuous
 62
     7
100
AcDbLine
 10
1145.133607751511
 20
992.6342066128452
 30
0.0
 11
1145.204203284991
 21
992.5115478636056
 31
0.0
  0
LINE
  5
182
330
22
100
AcDbEntity
  8
_4-2_
  6
Continuous
 62
     7
100
AcDbLine
 10
1145.204203284991
 20
992.5115478636056
 30
0.0
 11
1145.244134739279
 21
992.4398736154628
 31
0.0
  0
LINE
  5
183
330
22
100
AcDbEntity
  8
_4-2_
  6
Continuous
 62
     7
100
AcDbLine
 10
1145.244134739279
 20
992.4398736154628
 30
0.0
 11
1145.286176843969
 21
992.3629569953757
 31
0.0
  0
LINE
  5
184
330
22
100
AcDbEntity
  8
_4-2_
  6
Continuous
 62
     7
100
AcDbLine
 10
1145.286176843969
 20
992.3629569953757
 30
0.0
 11
1145.357415119724
 21
992.2297027726473
 31
0.0
  0
LINE
  5
185
330
22
100
AcDbEntity
  8
_4-2_
  6
Continuous
 62
     7
100
AcDbLine
 10
1145.357415119724
 20
992.2297027726473
 30
0.0
 11
1145.427486712452
 21
992.0957671479349
 31
0.0
  0
LINE
  5
186
330
22
100
AcDbEntity
  8
_4-2_
  6
Continuous
 62
     7
100
AcDbLine
 10
1145.427486712452
 20
992.0957671479349
 30
0.0
 11
1145.496872093231
 21
991.9612988597647
 31
0.0
  0
LINE
  5
187
330
22
100
AcDbEntity
  8
_4-2_
  6
Continuous
 62
     7
100
AcDbLine
 10
1145.496872093231
 20
991.9612988597647
 30
0.0
 11
1145.566051733142
 21
991.826446646651
 31
0.0
  0
LINE
  5
188
330
22
100
AcDbEntity
  8
_4-2_
  6
Continuous
 62
     7
100
AcDbLine
 10
1145.566051733142
 20
991.826446646651
 30
0.0
 11
1145.635506103267
 21
991.6913592471154
 31
0.0
  0
LINE
  5
189
330
22
100
AcDbEntity
  8
_4-2_
  6
Continuous
 62
     7
100
AcDbLine
 10
1145.635506103267
 20
991.6913592471154
 30
0.0
 11
1145.676104849911
 21
991.6129594036785
 31
0.0
  0
LINE
  5
18A
330
22
100
AcDbEntity
  8
_4-2_
  6
Continuous
 62
     7
100
AcDbLine
 10
1145.676104849911
 20
991.6129594036785
 30
0.0
 11
1145.731363258772
 21
991.5074417892995
 31
0.0
  0
LINE
  5
18B
330
22
100
AcDbEntity
  8
_4-2_
  6
Continuous
 62
     7
100
AcDbLine
 10
1145.731363258772
 20
991.5074417892995
 30
0.0
 11
1145.829178768727
 21
991.3265694356189
 31
0.0
  0
LINE
  5
18C
330
22
100
AcDbEntity
  8
_4-2_
  6
Continuous
 62
     7
100
AcDbLine
 10
1145.829178768727
 20
991.3265694356189
 30
0.0
 11
1145.931817264493
 21
991.1486268254636
 31
0.0
  0
LINE
  5
18D
330
22
100
AcDbEntity
  8
_4-2_
  6
Continuous
 62
     7
100
AcDbLine
 10
1145.931817264493
 20
991.1486268254636
 30
0.0
 11
1146.04114475661
 21
990.9754684329529
 31
0.0
  0
LINE
  5
18E
330
22
100
AcDbEntity
  8
_4-2_
  6
Continuous
 62
     7
100
AcDbLine
 10
1146.04114475661
 20
990.9754684329529
 30
0.0
 11
1146.15902725561
 21
990.8089487322104
 31
0.0
  0
LINE
  5
18F
330
22
100
AcDbEntity
  8
_4-2_
  6
Continuous
 62
     7
100
AcDbLine
 10
1146.15902725561
 20
990.8089487322104
 30
0.0
 11
1146.287330772033
 21
990.6509221973625
 31
0.0
  0
LINE
  5
190
330
22
100
AcDbEntity
  8
_4-2_
  6
Continuous
 62
     7
100
AcDbLine
 10
1146.287330772033
 20
990.6509221973625
 30
0.0
 11
1146.367257026923
 21
990.563889135001
 31
0.0
  0
LINE
  5
191
330
22
100
AcDbEntity
  8
_4-2_
  6
Continuous
 62
     7
100
AcDbLine
 10
1146.367257026923
 20
990.563889135001
 30
0.0
 11
1146.396141509613
 21
990.5344485063052
 31
0.0
  0
LINE
  5
192
330
22
100
AcDbEntity
  8
_4-2_
  6
Continuous
 62
     7
100
AcDbLine
 10
1146.396141509613
 20
990.5344485063052
 30
0.0
 11
1146.447203548077
 21
990.4848578219072
 31
0.0
  0
LINE
  5
193
330
22
100
AcDbEntity
  8
_4-2_
  6
Continuous
 62
     7
100
AcDbLine
 10
1146.447203548077
 20
990.4848578219072
 30
0.0
 11
1146.499830043283
 21
990.4368577535072
 31
0.0
  0
LINE
  5
194
330
22
100
AcDbEntity
  8
_4-2_
  6
Continuous
 62
     7
100
AcDbLine
 10
1146.499830043283
 20
990.4368577535072
 30
0.0
 11
1146.553983777967
 21
990.3905771889279
 31
0.0
  0
LINE
  5
195
330
22
100
AcDbEntity
  8
_4-2_
  6
Continuous
 62
     7
100
AcDbLine
 10
1146.553983777967
 20
990.3905771889279
 30
0.0
 11
1146.609627534865
 21
990.3461450159968
 31
0.0
  0
LINE
  5
196
330
22
100
AcDbEntity
  8
_4-2_
  6
Continuous
 62
     7
100
AcDbLine
 10
1146.609627534865
 20
990.3461450159968
 30
0.0
 11
1146.66672409671
 21
990.3036901225416
 31
0.0
  0
LINE
  5
197
330
22
100
AcDbEntity
  8
_4-2_
  6
Continuous
 62
     7
100
AcDbLine
 10
1146.66672409671
 20
990.3036901225416
 30
0.0
 11
1146.700491112269
 21
990.2800230622965
 31
0.0
  0
LINE
  5
198
330
22
100
AcDbEntity
  8
_4-2_
  6
Continuous
 62
     7
100
AcDbLine
 10
1146.700491112269
 20
990.2800230622965
 30
0.0
 11
1146.756491994199
 21
990.2429651308105
 31
0.0
  0
LINE
  5
199
330
22
100
AcDbEntity
  8
_4-2_
  6
Continuous
 62
     7
100
AcDbLine
 10
1146.756491994199
 20
990.2429651308105
 30
0.0
 11
1146.855361646806
 21
990.1827068406898
 31
0.0
  0
LINE
  5
19A
330
22
100
AcDbEntity
  8
_4-2_
  6
Continuous
 62
     7
100
AcDbLine
 10
1146.855361646806
 20
990.1827068406898
 30
0.0
 11
1146.956243701202
 21
990.1256265850204
 31
0.0
  0
LINE
  5
19B
330
22
100
AcDbEntity
  8
_4-2_
  6
Continuous
 62
     7
100
AcDbLine
 10
1146.956243701202
 20
990.1256265850204
 30
0.0
 11
1147.058068668885
 21
990.0700698922381
 31
0.0
  0
LINE
  5
19C
330
22
100
AcDbEntity
  8
_4-2_
  6
Continuous
 62
     7
100
AcDbLine
 10
1147.058068668885
 20
990.0700698922381
 30
0.0
 11
1147.159767061355
 21
990.0143822907788
 31
0.0
  0
LINE
  5
19D
330
22
100
AcDbEntity
  8
_4-2_
  6
Continuous
 62
     7
100
AcDbLine
 10
1147.159767061355
 20
990.0143822907788
 30
0.0
 11
1147.260269390113
 21
989.9569093090761
 31
0.0
  0
LINE
  5
19E
330
22
100
AcDbEntity
  8
_4-2_
  6
Continuous
 62
     7
100
AcDbLine
 10
1147.260269390113
 20
989.9569093090761
 30
0.0
 11
1147.317591270316
 21
989.9221049706309
 31
0.0
  0
LINE
  5
19F
330
22
100
AcDbEntity
  8
_4-2_
  6
Continuous
 62
     7
100
AcDbLine
 10
1147.317591270316
 20
989.9221049706309
 30
0.0
 11
1147.375348140565
 21
989.8850019894602
 31
0.0
  0
LINE
  5
1A0
330
22
100
AcDbEntity
  8
_4-2_
  6
Continuous
 62
     7
100
AcDbLine
 10
1147.375348140565
 20
989.8850019894602
 30
0.0
 11
1147.47281251691
 21
989.8178133883538
 31
0.0
  0
LINE
  5
1A1
330
22
100
AcDbEntity
  8
_4-2_
  6
Continuous
 62
     7
100
AcDbLine
 10
1147.47281251691
 20
989.8178133883538
 30
0.0
 11
1147.568014105799
 21
989.7471988946248
 31
0.0
  0
LINE
  5
1A2
330
22
100
AcDbEntity
  8
_4-2_
  6
Continuous
 62
     7
100
AcDbLine
 10
1147.568014105799
 20
989.7471988946248
 30
0.0
 11
1147.66143691126
 21
989.6739113618789
 31
0.0
  0
LINE
  5
1A3
330
22
100
AcDbEntity
  8
_4-2_
  6
Continuous
 62
     7
100
AcDbLine
 10
1147.66143691126
 20
989.6739113618789
 30
0.0
 11
1147.753564937318
 21
989.5987036437238
 31
0.0
  0
LINE
  5
1A4
330
22
100
AcDbEntity
  8
_4-2_
  6
Continuous
 62
     7
100
AcDbLine
 10
1147.753564937318
 20
989.5987036437238
 30
0.0
 11
1147.844882188004
 21
989.5223285937687
 31
0.0
  0
LINE
  5
1A5
330
22
100
AcDbEntity
  8
_4-2_
  6
Continuous
 62
     7
100
AcDbLine
 10
1147.844882188004
 20
989.5223285937687
 30
0.0
 11
1147.89766541888
 21
989.4777928568375
 31
0.0
  0
LINE
  5
1A6
330
22
100
AcDbEntity
  8
_4-2_
  6
Continuous
 62
     7
100
AcDbLine
 10
1147.89766541888
 20
989.4777928568375
 30
0.0
 11
1147.963816583642
 21
989.4218674918992
 31
0.0
  0
LINE
  5
1A7
330
22
100
AcDbEntity
  8
_4-2_
  6
Continuous
 62
     7
100
AcDbLine
 10
1147.963816583642
 20
989.4218674918992
 30
0.0
 11
1148.077299570086
 21
989.3249405832765
 31
0.0
  0
LINE
  5
1A8
330
22
100
AcDbEntity
  8
_4-2_
  6
Continuous
 62
     7
100
AcDbLine
 10
1148.077299570086
 20
989.3249405832765
 30
0.0
 11
1148.189283727975
 21
989.226572353125
 31
0.0
  0
LINE
  5
1A9
330
22
100
AcDbEntity
  8
_4-2_
  6
Continuous
 62
     7
100
AcDbLine
 10
1148.189283727975
 20
989.226572353125
 30
0.0
 11
1148.298866306866
 21
989.1258284794233
 31
0.0
  0
LINE
  5
1AA
330
22
100
AcDbEntity
  8
_4-2_
  6
Continuous
 62
     7
100
AcDbLine
 10
1148.298866306866
 20
989.1258284794233
 30
0.0
 11
1148.405144556309
 21
989.0217746401416
 31
0.0
  0
LINE
  5
1AB
330
22
100
AcDbEntity
  8
_4-2_
  6
Continuous
 62
     7
100
AcDbLine
 10
1148.405144556309
 20
989.0217746401416
 30
0.0
 11
1148.507215725858
 21
988.9134765132602
 31
0.0
  0
LINE
  5
1AC
330
22
100
AcDbEntity
  8
_4-2_
  6
Continuous
 62
     7
100
AcDbLine
 10
1148.507215725858
 20
988.9134765132602
 30
0.0
 11
1148.564133589571
 21
988.848350695628
 31
0.0
  0
LINE
  5
1AD
330
22
100
AcDbEntity
  8
_4-2_
  6
Continuous
 62
     7
100
AcDbLine
 10
1148.564133589571
 20
988.848350695628
 30
0.0
 11
1148.59642063497
 21
988.8095461484274
 31
0.0
  0
LINE
  5
1AE
330
22
100
AcDbEntity
  8
_4-2_
  6
Continuous
 62
     7
100
AcDbLine
 10
1148.59642063497
 20
988.8095461484274
 30
0.0
 11
1148.650373828909
 21
988.7411256860287
 31
0.0
  0
LINE
  5
1AF
330
22
100
AcDbEntity
  8
_4-2_
  6
Continuous
 62
     7
100
AcDbLine
 10
1148.650373828909
 20
988.7411256860287
 30
0.0
 11
1148.701848748992
 21
988.670812399928
 31
0.0
  0
LINE
  5
1B0
330
22
100
AcDbEntity
  8
_4-2_
  6
Continuous
 62
     7
100
AcDbLine
 10
1148.701848748992
 20
988.670812399928
 30
0.0
 11
1148.750486680707
 21
988.5986368169847
 31
0.0
  0
LINE
  5
1B1
330
22
100
AcDbEntity
  8
_4-2_
  6
Continuous
 62
     7
100
AcDbLine
 10
1148.750486680707
 20
988.5986368169847
 30
0.0
 11
1148.795928909549
 21
988.5246294640504
 31
0.0
  0
LINE
  5
1B2
330
22
100
AcDbEntity
  8
_4-2_
  6
Continuous
 62
     7
100
AcDbLine
 10
1148.795928909549
 20
988.5246294640504
 30
0.0
 11
1148.837816721002
 21
988.4488208679865
 31
0.0
  0
LINE
  5
1B3
330
22
100
AcDbEntity
  8
_4-2_
  6
Continuous
 62
     7
100
AcDbLine
 10
1148.837816721002
 20
988.4488208679865
 30
0.0
 11
1148.860341665433
 21
988.4040385818346
 31
0.0
  0
LINE
  5
1B4
330
22
100
AcDbEntity
  8
_4-2_
  6
Continuous
 62
     7
100
AcDbLine
 10
1148.860341665433
 20
988.4040385818346
 30
0.0
 11
1148.889499073782
 21
988.3406161499284
 31
0.0
  0
LINE
  5
1B5
330
22
100
AcDbEntity
  8
_4-2_
  6
Continuous
 62
     7
100
AcDbLine
 10
1148.889499073782
 20
988.3406161499284
 30
0.0
 11
1148.934178297752
 21
988.2288884130232
 31
0.0
  0
LINE
  5
1B6
330
22
100
AcDbEntity
  8
_4-2_
  6
Continuous
 62
     7
100
AcDbLine
 10
1148.934178297752
 20
988.2288884130232
 30
0.0
 11
1148.972897884389
 21
988.1146256516787
 31
0.0
  0
LINE
  5
1B7
330
22
100
AcDbEntity
  8
_4-2_
  6
Continuous
 62
     7
100
AcDbLine
 10
1148.972897884389
 20
988.1146256516787
 30
0.0
 11
1149.006959064559
 21
987.9983813646846
 31
0.0
  0
LINE
  5
1B8
330
22
100
AcDbEntity
  8
_4-2_
  6
Continuous
 62
     7
100
AcDbLine
 10
1149.006959064559
 20
987.9983813646846
 30
0.0
 11
1149.037663069113
 21
987.880709050826
 31
0.0
  0
LINE
  5
1B9
330
22
100
AcDbEntity
  8
_4-2_
  6
Continuous
 62
     7
100
AcDbLine
 10
1149.037663069113
 20
987.880709050826
 30
0.0
 11
1149.066311128912
 21
987.7621622088852
 31
0.0
  0
LINE
  5
1BA
330
22
100
AcDbEntity
  8
_4-2_
  6
Continuous
 62
     7
100
AcDbLine
 10
1149.066311128912
 20
987.7621622088852
 30
0.0
 11
1149.082497722332
 21
987.6932224390975
 31
0.0
  0
LINE
  5
1BB
330
22
100
AcDbEntity
  8
_4-4_
  6
Continuous
 62
     2
100
AcDbLine
 10
1084.865075308196
 20
993.0057224390976
 30
0.0
 11
1111.952416534542
 21
993.0057224390976
 31
0.0
  0
LINE
  5
1BC
330
22
100
AcDbEntity
  8
_4-4_
  6
Continuous
 62
     2
100
AcDbLine
 10
1111.952416534542
 20
993.0057224390976
 30
0.0
 11
1115.741277676104
 21
990.8182224390975
 31
0.0
  0
LINE
  5
1BD
330
22
100
AcDbEntity
  8
_4-4_
  6
Continuous
 62
     2
100
AcDbLine
 10
1115.741277676104
 20
990.8182224390975
 30
0.0
 11
1142.365075308196
 21
990.8182224390975
 31
0.0
  0
POINT
  5
1BE
330
22
100
AcDbEntity
  8
_4-B_
 62
     1
100
AcDbPoint
 10
1114.903936449755
 20
934.648070971896
 30
0.0
  0
LINE
  5
1BF
330
22
100
AcDbEntity
  8
_4-B_
  6
Continuous
 62
     7
100
AcDbLine
 10
1114.903936449755
 20
973.6657222910665
 30
0.0
 11
1114.903936449755
 21
934.648070971896
 31
0.0
  0
LINE
  5
1C0
330
22
100
AcDbEntity
  8
_4-B_
  6
Continuous
 62
     7
100
AcDbLine
 10
1114.903936449755
 20
934.648070971896
 30
0.0
 11
1142.365075308196
 21
934.648070971896
 31
0.0
  0
LINE
  5
1C1
330
22
100
AcDbEntity
  8
_4-B_
  6
Continuous
 62
     7
100
AcDbLine
 10
1142.365075308196
 20
973.6657222910665
 30
0.0
 11
1142.365075308196
 21
934.648070971896
 31
0.0
  0
POINT
  5
1C2
330
22
100
AcDbEntity
  8
_4-B_
 62
     1
100
AcDbPoint
 10
1142.365075308196
 20
934.648070971896
 30
0.0
  0
LINE
  5
1C3
330
22
100
AcDbEntity
  8
_4-6_
  6
Continuous
 62
     2
100
AcDbLine
 10
1097.365075308178
 20
987.6932224390975
 30
0.0
 11
1099.552575308179
 21
989.8807224390976
 31
0.0
  0
LINE
  5
1C4
330
22
100
AcDbEntity
  8
_4-6_
  6
Continuous
 62
     2
100
AcDbLine
 10
1093.615075308178
 20
987.6932224390975
 30
0.0
 11
1091.427575308194
 21
989.8807224390976
 31
0.0
  0
LINE
  5
1C5
330
22
100
AcDbEntity
  8
_4-6_
  6
Continuous
 62
     2
100
AcDbLine
 10
1099.863235479989
 20
989.1307224390903
 30
0.0
 11
1111.115075308196
 21
989.1307224390903
 31
0.0
  0
LINE
  5
1C6
330
22
100
AcDbEntity
  8
_4-6_
  6
Continuous
 62
     2
100
AcDbLine
 10
1098.425735479977
 20
987.6932224390975
 30
0.0
 11
1099.863235479989
 21
989.1307224390903
 31
0.0
  0
LINE
  5
1C7
330
22
100
AcDbEntity
  8
_4-6_
  6
Continuous
 62
     2
100
AcDbLine
 10
1092.554415136413
 20
987.6932224390975
 30
0.0
 11
1091.116915136419
 21
989.1307224390903
 31
0.0
  0
LINE
  5
1C8
330
22
100
AcDbEntity
  8
_4-6_
  6
Continuous
 62
     2
100
AcDbLine
 10
1092.554415136413
 20
987.6932224390975
 30
0.0
 11
1098.425735479977
 21
987.6932224390975
 31
0.0
  0
LINE
  5
1C9
330
22
100
AcDbEntity
  8
_4-7_
  6
Continuous
 62
     7
100
AcDbLine
 10
1096.818200823696
 20
987.6932224390975
 30
0.0
 11
1094.161949792694
 21
987.6932224390975
 31
0.0
  0
LINE
  5
1CA
330
22
100
AcDbEntity
  8
_4-7_
  6
Continuous
 62
     7
100
AcDbLine
 10
1092.365072730697
 20
989.4900995010949
 30
0.0
 11
1094.161949792694
 21
987.6932224390975
 31
0.0
  0
LINE
  5
1CB
330
22
100
AcDbEntity
  8
_4-7_
  6
Continuous
 62
     7
100
AcDbLine
 10
1098.615077885693
 20
989.4900995010949
 30
0.0
 11
1092.365072730697
 21
989.4900995010949
 31
0.0
  0
LINE
  5
1CC
330
22
100
AcDbEntity
  8
_4-7_
  6
Continuous
 62
     7
100
AcDbLine
 10
1092.365072730697
 20
989.802615997085
 30
0.0
 11
1092.365072730697
 21
989.4900995010949
 31
0.0
  0
LINE
  5
1CD
330
22
100
AcDbEntity
  8
_4-7_
  6
Continuous
 62
     7
100
AcDbLine
 10
1098.615077885693
 20
989.4900995010949
 30
0.0
 11
1098.615077885693
 21
989.802615997085
 31
0.0
  0
LINE
  5
1CE
330
22
100
AcDbEntity
  8
_4-7_
  6
Continuous
 62
     7
100
AcDbLine
 10
1098.615077885693
 20
989.802615997085
 30
0.0
 11
1092.365072730697
 21
989.802615997085
 31
0.0
  0
LINE
  5
1CF
330
22
100
AcDbEntity
  8
_4-7_
  6
Continuous
 62
     7
100
AcDbLine
 10
1098.615077885693
 20
989.4900995010949
 30
0.0
 11
1096.818200823696
 21
987.6932224390975
 31
0.0
  0
ARC
  5
1D0
330
22
100
AcDbEntity
  8
_4-7_
  6
DASHED3
 62
     7
100
AcDbCircle
 10
1095.490075308196
 20
989.0123241335643
 30
0.0
 40
1.150198462041649
100
AcDbArc
 50
217.1175079345703
 51
322.8824768066406
  0
LINE
  5
1D1
330
22
100
AcDbEntity
  8
_4-7_
  6
DASHED3
 62
     7
100
AcDbLine
 10
1097.083835205788
 20
989.4900995010949
 30
0.0
 11
1096.40725740576
 21
988.3182090361062
 31
0.0
  0
LINE
  5
1D2
330
22
100
AcDbEntity
  8
_4-7_
  6
DASHED3
 62
     7
100
AcDbLine
 10
1093.896338608087
 20
989.4900995010949
 30
0.0
 11
1094.572916408114
 21
988.3182090361062
 31
0.0
  0
LINE
  5
1D3
330
22
100
AcDbEntity
  8
_4-7_
  6
DASHED3
 62
     7
100
AcDbLine
 10
1093.896338608087
 20
989.4900995010949
 30
0.0
 11
1093.896338608087
 21
989.802615997085
 31
0.0
  0
LINE
  5
1D4
330
22
100
AcDbEntity
  8
_4-7_
  6
DASHED3
 62
     7
100
AcDbLine
 10
1097.083835205788
 20
989.4900995010949
 30
0.0
 11
1097.083835205788
 21
989.802615997085
 31
0.0
  0
LINE
  5
1D5
330
22
100
AcDbEntity
  8
_4-7_
  6
Continuous
 62
     7
100
AcDbLine
 10
1096.740075308196
 20
987.6932224390975
 30
0.0
 11
1096.740075308196
 21
959.5682224390975
 31
0.0
  0
LINE
  5
1D6
330
22
100
AcDbEntity
  8
_4-7_
  6
Continuous
 62
     7
100
AcDbLine
 10
1094.240075308196
 20
987.6932224390975
 30
0.0
 11
1094.240075308196
 21
959.5682224390975
 31
0.0
  0
LINE
  5
1D7
330
22
100
AcDbEntity
  8
_4-2_
  6
Continuous
 62
     7
100
AcDbLine
 10
1079.865075308196
 20
984.5682224390975
 30
0.0
 11
1094.240075308196
 21
984.5682224390975
 31
0.0
  0
LINE
  5
1D8
330
22
100
AcDbEntity
  8
_4-2_
  6
Continuous
 62
     7
100
AcDbLine
 10
1079.865075308196
 20
978.3182224390975
 30
0.0
 11
1094.240075308196
 21
978.3182224390975
 31
0.0
  0
LINE
  5
1D9
330
22
100
AcDbEntity
  8
_4-2_
  6
Continuous
 62
     7
100
AcDbLine
 10
1096.740075308196
 20
984.5682224390975
 30
0.0
 11
1517.365075308196
 21
984.5682224390975
 31
0.0
  0
LINE
  5
1DA
330
22
100
AcDbEntity
  8
_4-2_
  6
Continuous
 62
     7
100
AcDbLine
 10
1096.740075308196
 20
978.3182224390975
 30
0.0
 11
1517.365075308196
 21
978.3182224390975
 31
0.0
  0
LINE
  5
1DB
330
22
100
AcDbEntity
  8
_4-6_
  6
Continuous
 62
     2
100
AcDbLine
 10
986.1150753081965
 20
989.8807224390976
 30
0.0
 11
986.1150753081965
 21
989.1307224390903
 31
0.0
  0
LINE
  5
1DC
330
22
100
AcDbEntity
  8
_4-2_
  6
Continuous
 62
     7
100
AcDbLine
 10
986.1150753081965
 20
989.8807224390976
 30
0.0
 11
982.3262141666354
 21
987.6932224390975
 31
0.0
  0
LINE
  5
1DD
330
22
100
AcDbEntity
  8
_4-2_
  6
Continuous
 62
     7
100
AcDbLine
 10
958.6132828500291
 20
990.8182224390975
 30
0.0
 11
958.6018961078268
 21
990.9000380307727
 31
0.0
  0
LINE
  5
1DE
330
22
100
AcDbEntity
  8
_4-2_
  6
Continuous
 62
     7
100
AcDbLine
 10
958.6018961078268
 20
990.9000380307727
 30
0.0
 11
958.5812293705389
 21
991.0407092401603
 31
0.0
  0
LINE
  5
1DF
330
22
100
AcDbEntity
  8
_4-2_
  6
Continuous
 62
     7
100
AcDbLine
 10
958.5812293705389
 20
991.0407092401603
 30
0.0
 11
958.5576892356225
 21
991.1802966840721
 31
0.0
  0
LINE
  5
1E0
330
22
100
AcDbEntity
  8
_4-2_
  6
Continuous
 62
     7
100
AcDbLine
 10
958.5576892356225
 20
991.1802966840721
 30
0.0
 11
958.529457096982
 21
991.3181144349916
 31
0.0
  0
LINE
  5
1E1
330
22
100
AcDbEntity
  8
_4-2_
  6
Continuous
 62
     7
100
AcDbLine
 10
958.529457096982
 20
991.3181144349916
 30
0.0
 11
958.4947143485255
 21
991.4534765654028
 31
0.0
  0
LINE
  5
1E2
330
22
100
AcDbEntity
  8
_4-2_
  6
Continuous
 62
     7
100
AcDbLine
 10
958.4947143485255
 20
991.4534765654028
 30
0.0
 11
958.4516423841575
 21
991.5856971477889
 31
0.0
  0
LINE
  5
1E3
330
22
100
AcDbEntity
  8
_4-2_
  6
Continuous
 62
     7
100
AcDbLine
 10
958.4516423841575
 20
991.5856971477889
 30
0.0
 11
958.4221275727243
 21
991.6606753371596
 31
0.0
  0
LINE
  5
1E4
330
22
100
AcDbEntity
  8
_4-2_
  6
Continuous
 62
     7
100
AcDbLine
 10
958.4221275727243
 20
991.6606753371596
 30
0.0
 11
958.3965394094347
 21
991.7182483619036
 31
0.0
  0
LINE
  5
1E5
330
22
100
AcDbEntity
  8
_4-2_
  6
Continuous
 62
     7
100
AcDbLine
 10
958.3965394094347
 20
991.7182483619036
 30
0.0
 11
958.3475299265096
 21
991.8155698012879
 31
0.0
  0
LINE
  5
1E6
330
22
100
AcDbEntity
  8
_4-2_
  6
Continuous
 62
     7
100
AcDbLine
 10
958.3475299265096
 20
991.8155698012879
 30
0.0
 11
958.2930880425548
 21
991.9105720530867
 31
0.0
  0
LINE
  5
1E7
330
22
100
AcDbEntity
  8
_4-2_
  6
Continuous
 62
     7
100
AcDbLine
 10
958.2930880425548
 20
991.9105720530867
 30
0.0
 11
958.2340974243361
 21
992.0034173754634
 31
0.0
  0
LINE
  5
1E8
330
22
100
AcDbEntity
  8
_4-2_
  6
Continuous
 62
     7
100
AcDbLine
 10
958.2340974243361
 20
992.0034173754634
 30
0.0
 11
958.1714417386224
 21
992.0942680265696
 31
0.0
  0
LINE
  5
1E9
330
22
100
AcDbEntity
  8
_4-2_
  6
Continuous
 62
     7
100
AcDbLine
 10
958.1714417386224
 20
992.0942680265696
 30
0.0
 11
958.1060046521741
 21
992.1832862645674
 31
0.0
  0
LINE
  5
1EA
330
22
100
AcDbEntity
  8
_4-2_
  6
Continuous
 62
     7
100
AcDbLine
 10
958.1060046521741
 20
992.1832862645674
 30
0.0
 11
958.0671249148752
 21
992.2341411690696
 31
0.0
  0
LINE
  5
1EB
330
22
100
AcDbEntity
  8
_4-2_
  6
Continuous
 62
     7
100
AcDbLine
 10
958.0671249148752
 20
992.2341411690696
 30
0.0
 11
958.0207397436657
 21
992.2933184145724
 31
0.0
  0
LINE
  5
1EC
330
22
100
AcDbEntity
  8
_4-2_
  6
Continuous
 62
     7
100
AcDbLine
 10
958.0207397436657
 20
992.2933184145724
 30
0.0
 11
957.9393491561003
 21
992.3937676607353
 31
0.0
  0
LINE
  5
1ED
330
22
100
AcDbEntity
  8
_4-2_
  6
Continuous
 62
     7
100
AcDbLine
 10
957.9393491561003
 20
992.3937676607353
 30
0.0
 11
957.8563167690871
 21
992.4924343872296
 31
0.0
  0
LINE
  5
1EE
330
22
100
AcDbEntity
  8
_4-2_
  6
Continuous
 62
     7
100
AcDbLine
 10
957.8563167690871
 20
992.4924343872296
 30
0.0
 11
957.7718179327559
 21
992.5895721956457
 31
0.0
  0
LINE
  5
1EF
330
22
100
AcDbEntity
  8
_4-2_
  6
Continuous
 62
     7
100
AcDbLine
 10
957.7718179327559
 20
992.5895721956457
 30
0.0
 11
957.686027997243
 21
992.6854346875758
 31
0.0
  0
LINE
  5
1F0
330
22
100
AcDbEntity
  8
_4-2_
  6
Continuous
 62
     7
100
AcDbLine
 10
957.686027997243
 20
992.6854346875758
 30
0.0
 11
957.5991223126749
 21
992.7802754646112
 31
0.0
  0
LINE
  5
1F1
330
22
100
AcDbEntity
  8
_4-2_
  6
Continuous
 62
     7
100
AcDbLine
 10
957.5991223126749
 20
992.7802754646112
 30
0.0
 11
957.5482748764798
 21
992.8349148977394
 31
0.0
  0
LINE
  5
1F2
330
22
100
AcDbEntity
  8
_4-2_
  6
Continuous
 62
     7
100
AcDbLine
 10
957.5482748764798
 20
992.8349148977394
 30
0.0
 11
957.4947529555952
 21
992.8918337567395
 31
0.0
  0
LINE
  5
1F3
330
22
100
AcDbEntity
  8
_4-2_
  6
Continuous
 62
     7
100
AcDbLine
 10
957.4947529555952
 20
992.8918337567395
 30
0.0
 11
957.4015046066534
 21
992.9891473497583
 31
0.0
  0
LINE
  5
1F4
330
22
100
AcDbEntity
  8
_4-2_
  6
Continuous
 62
     7
100
AcDbLine
 10
957.4015046066534
 20
992.9891473497583
 30
0.0
 11
957.3066607231732
 21
993.0849885862588
 31
0.0
  0
LINE
  5
1F5
330
22
100
AcDbEntity
  8
_4-2_
  6
Continuous
 62
     7
100
AcDbLine
 10
957.3066607231732
 20
993.0849885862588
 30
0.0
 11
957.2097925484827
 21
993.1788558605832
 31
0.0
  0
LINE
  5
1F6
330
22
100
AcDbEntity
  8
_4-2_
  6
Continuous
 62
     7
100
AcDbLine
 10
957.2097925484827
 20
993.1788558605832
 30
0.0
 11
957.1104713259165
 21
993.2702475670842
 31
0.0
  0
LINE
  5
1F7
330
22
100
AcDbEntity
  8
_4-2_
  6
Continuous
 62
     7
100
AcDbLine
 10
957.1104713259165
 20
993.2702475670842
 30
0.0
 11
957.0082682988033
 21
993.3586621000996
 31
0.0
  0
LINE
  5
1F8
330
22
100
AcDbEntity
  8
_4-2_
  6
Continuous
 62
     7
100
AcDbLine
 10
957.0082682988033
 20
993.3586621000996
 30
0.0
 11
956.9475011478115
 21
993.408380729652
 31
0.0
  0
LINE
  5
1F9
330
22
100
AcDbEntity
  8
_4-2_
  6
Continuous
 62
     7
100
AcDbLine
 10
956.9475011478115
 20
993.408380729652
 30
0.0
 11
956.8927175855964
 21
993.4513340749619
 31
0.0
  0
LINE
  5
1FA
330
22
100
AcDbEntity
  8
_4-2_
  6
Continuous
 62
     7
100
AcDbLine
 10
956.8927175855964
 20
993.4513340749619
 30
0.0
 11
956.7960843981468
 21
993.5227170548344
 31
0.0
  0
LINE
  5
1FB
330
22
100
AcDbEntity
  8
_4-2_
  6
Continuous
 62
     7
100
AcDbLine
 10
956.7960843981468
 20
993.5227170548344
 30
0.0
 11
956.6967311836544
 21
993.5901999854175
 31
0.0
  0
LINE
  5
1FC
330
22
100
AcDbEntity
  8
_4-2_
  6
Continuous
 62
     7
100
AcDbLine
 10
956.6967311836544
 20
993.5901999854175
 30
0.0
 11
956.5947020228856
 21
993.6531845050584
 31
0.0
  0
LINE
  5
1FD
330
22
100
AcDbEntity
  8
_4-2_
  6
Continuous
 62
     7
100
AcDbLine
 10
956.5947020228856
 20
993.6531845050584
 30
0.0
 11
956.4900409966169
 21
993.7110722521133
 31
0.0
  0
LINE
  5
1FE
330
22
100
AcDbEntity
  8
_4-2_
  6
Continuous
 62
     7
100
AcDbLine
 10
956.4900409966169
 20
993.7110722521133
 30
0.0
 11
956.3827921856143
 21
993.7632648649312
 31
0.0
  0
LINE
  5
1FF
330
22
100
AcDbEntity
  8
_4-2_
  6
Continuous
 62
     7
100
AcDbLine
 10
956.3827921856143
 20
993.7632648649312
 30
0.0
 11
956.3194195223836
 21
993.7906912842576
 31
0.0
  0
LINE
  5
200
330
22
100
AcDbEntity
  8
_4-2_
  6
Continuous
 62
     7
100
AcDbLine
 10
956.3194195223836
 20
993.7906912842576
 30
0.0
 11
956.2482285894221
 21
993.8185217300475
 31
0.0
  0
LINE
  5
201
330
22
100
AcDbEntity
  8
_4-2_
  6
Continuous
 62
     7
100
AcDbLine
 10
956.2482285894221
 20
993.8185217300475
 30
0.0
 11
956.1232983032647
 21
993.8605908728051
 31
0.0
  0
LINE
  5
202
330
22
100
AcDbEntity
  8
_4-2_
  6
Continuous
 62
     7
100
AcDbLine
 10
956.1232983032647
 20
993.8605908728051
 30
0.0
 11
955.9959844914766
 21
993.8959680924927
 31
0.0
  0
LINE
  5
203
330
22
100
AcDbEntity
  8
_4-2_
  6
Continuous
 62
     7
100
AcDbLine
 10
955.9959844914766
 20
993.8959680924927
 30
0.0
 11
955.8667350684713
 21
993.9255773885728
 31
0.0
  0
LINE
  5
204
330
22
100
AcDbEntity
  8
_4-2_
  6
Continuous
 62
     7
100
AcDbLine
 10
955.8667350684713
 20
993.9255773885728
 30
0.0
 11
955.7359979486527
 21
993.9503427605181
 31
0.0
  0
LINE
  5
205
330
22
100
AcDbEntity
  8
_4-2_
  6
Continuous
 62
     7
100
AcDbLine
 10
955.7359979486527
 20
993.9503427605181
 30
0.0
 11
955.6042210464301
 21
993.9711882077885
 31
0.0
  0
LINE
  5
206
330
22
100
AcDbEntity
  8
_4-2_
  6
Continuous
 62
     7
100
AcDbLine
 10
955.6042210464301
 20
993.9711882077885
 30
0.0
 11
955.5274905164136
 21
993.98184656156
 31
0.0
  0
LINE
  5
207
330
22
100
AcDbEntity
  8
_4-2_
  6
Continuous
 62
     7
100
AcDbLine
 10
955.5274905164136
 20
993.98184656156
 30
0.0
 11
955.4347049101108
 21
993.9935446861047
 31
0.0
  0
LINE
  5
208
330
22
100
AcDbEntity
  8
_4-2_
  6
Continuous
 62
     7
100
AcDbLine
 10
955.4347049101108
 20
993.9935446861047
 30
0.0
 11
955.2745047443073
 21
994.0103614117836
 31
0.0
  0
LINE
  5
209
330
22
100
AcDbEntity
  8
_4-2_
  6
Continuous
 62
     7
100
AcDbLine
 10
955.2745047443073
 20
994.0103614117836
 30
0.0
 11
955.1142576639431
 21
994.0221478163451
 31
0.0
  0
LINE
  5
20A
330
22
100
AcDbEntity
  8
_4-2_
  6
Continuous
 62
     7
100
AcDbLine
 10
955.1142576639431
 20
994.0221478163451
 30
0.0
 11
954.9542402660499
 21
994.0279891233377
 31
0.0
  0
LINE
  5
20B
330
22
100
AcDbEntity
  8
_4-2_
  6
Continuous
 62
     7
100
AcDbLine
 10
954.9542402660499
 20
994.0279891233377
 30
0.0
 11
954.7947291476525
 21
994.0269705563084
 31
0.0
  0
LINE
  5
20C
330
22
100
AcDbEntity
  8
_4-2_
  6
Continuous
 62
     7
100
AcDbLine
 10
954.7947291476525
 20
994.0269705563084
 30
0.0
 11
954.6360009057838
 21
994.0181773388077
 31
0.0
  0
LINE
  5
20D
330
22
100
AcDbEntity
  8
_4-2_
  6
Continuous
 62
     7
100
AcDbLine
 10
954.6360009057838
 20
994.0181773388077
 30
0.0
 11
954.5444062331359
 21
994.0091544583175
 31
0.0
  0
LINE
  5
20E
330
22
100
AcDbEntity
  8
_4-2_
  6
Continuous
 62
     7
100
AcDbLine
 10
954.5444062331359
 20
994.0091544583175
 30
0.0
 11
954.4773161134076
 21
994.0005983420158
 31
0.0
  0
LINE
  5
20F
330
22
100
AcDbEntity
  8
_4-2_
  6
Continuous
 62
     7
100
AcDbLine
 10
954.4773161134076
 20
994.0005983420158
 30
0.0
 11
954.3620348254268
 21
993.9824985724909
 31
0.0
  0
LINE
  5
210
330
22
100
AcDbEntity
  8
_4-2_
  6
Continuous
 62
     7
100
AcDbLine
 10
954.3620348254268
 20
993.9824985724909
 30
0.0
 11
954.2470530395251
 21
993.9610513965273
 31
0.0
  0
LINE
  5
211
330
22
100
AcDbEntity
  8
_4-2_
  6
Continuous
 62
     7
100
AcDbLine
 10
954.2470530395251
 20
993.9610513965273
 30
0.0
 11
954.1321430171155
 21
993.9372921302608
 31
0.0
  0
LINE
  5
212
330
22
100
AcDbEntity
  8
_4-2_
  6
Continuous
 62
     7
100
AcDbLine
 10
954.1321430171155
 20
993.9372921302608
 30
0.0
 11
954.0170770196009
 21
993.9122560898205
 31
0.0
  0
LINE
  5
213
330
22
100
AcDbEntity
  8
_4-2_
  6
Continuous
 62
     7
100
AcDbLine
 10
954.0170770196009
 20
993.9122560898205
 30
0.0
 11
953.9016273083968
 21
993.8869785913361
 31
0.0
  0
LINE
  5
214
330
22
100
AcDbEntity
  8
_4-2_
  6
Continuous
 62
     7
100
AcDbLine
 10
953.9016273083968
 20
993.8869785913361
 30
0.0
 11
953.8344009174366
 21
993.8726149745297
 31
0.0
  0
LINE
  5
215
330
22
100
AcDbEntity
  8
_4-2_
  6
Continuous
 62
     7
100
AcDbLine
 10
953.8344009174366
 20
993.8726149745297
 30
0.0
 11
953.7580813978564
 21
993.8568188985939
 31
0.0
  0
LINE
  5
216
330
22
100
AcDbEntity
  8
_4-2_
  6
Continuous
 62
     7
100
AcDbLine
 10
953.7580813978564
 20
993.8568188985939
 30
0.0
 11
953.6263326331294
 21
993.8297254509464
 31
0.0
  0
LINE
  5
217
330
22
100
AcDbEntity
  8
_4-2_
  6
Continuous
 62
     7
100
AcDbLine
 10
953.6263326331294
 20
993.8297254509464
 30
0.0
 11
953.4952668682313
 21
993.8008922271048
 31
0.0
  0
LINE
  5
218
330
22
100
AcDbEntity
  8
_4-2_
  6
Continuous
 62
     7
100
AcDbLine
 10
953.4952668682313
 20
993.8008922271048
 30
0.0
 11
953.3659187749396
 21
993.7680884510408
 31
0.0
  0
LINE
  5
219
330
22
100
AcDbEntity
  8
_4-2_
  6
Continuous
 62
     7
100
AcDbLine
 10
953.3659187749396
 20
993.7680884510408
 30
0.0
 11
953.2393230250301
 21
993.7290833467276
 31
0.0
  0
LINE
  5
21A
330
22
100
AcDbEntity
  8
_4-2_
  6
Continuous
 62
     7
100
AcDbLine
 10
953.2393230250301
 20
993.7290833467276
 30
0.0
 11
953.11651429028
 21
993.6816461381432
 31
0.0
  0
LINE
  5
21B
330
22
100
AcDbEntity
  8
_4-2_
  6
Continuous
 62
     7
100
AcDbLine
 10
953.11651429028
 20
993.6816461381432
 30
0.0
 11
953.0474281489528
 21
993.6493899252354
 31
0.0
  0
LINE
  5
21C
330
22
100
AcDbEntity
  8
_4-2_
  6
Continuous
 62
     7
100
AcDbLine
 10
953.0474281489528
 20
993.6493899252354
 30
0.0
 11
952.9853517544683
 21
993.6162115052823
 31
0.0
  0
LINE
  5
21D
330
22
100
AcDbEntity
  8
_4-2_
  6
Continuous
 62
     7
100
AcDbLine
 10
952.9853517544683
 20
993.6162115052823
 30
0.0
 11
952.8819618074733
 21
993.5516575795944
 31
0.0
  0
LINE
  5
21E
330
22
100
AcDbEntity
  8
_4-2_
  6
Continuous
 62
     7
100
AcDbLine
 10
952.8819618074733
 20
993.5516575795944
 30
0.0
 11
952.7831795753723
 21
993.4788140597632
 31
0.0
  0
LINE
  5
21F
330
22
100
AcDbEntity
  8
_4-2_
  6
Continuous
 62
     7
100
AcDbLine
 10
952.7831795753723
 20
993.4788140597632
 30
0.0
 11
952.6890076713634
 21
993.3988598889392
 31
0.0
  0
LINE
  5
220
330
22
100
AcDbEntity
  8
_4-2_
  6
Continuous
 62
     7
100
AcDbLine
 10
952.6890076713634
 20
993.3988598889392
 30
0.0
 11
952.5994487086352
 21
993.312974010287
 31
0.0
  0
LINE
  5
221
330
22
100
AcDbEntity
  8
_4-2_
  6
Continuous
 62
     7
100
AcDbLine
 10
952.5994487086352
 20
993.312974010287
 30
0.0
 11
952.5145053003807
 21
993.2223353669568
 31
0.0
  0
LINE
  5
222
330
22
100
AcDbEntity
  8
_4-2_
  6
Continuous
 62
     7
100
AcDbLine
 10
952.5145053003807
 20
993.2223353669568
 30
0.0
 11
952.4673540003895
 21
993.1680518019565
 31
0.0
  0
LINE
  5
223
330
22
100
AcDbEntity
  8
_4-2_
  6
Continuous
 62
     7
100
AcDbLine
 10
952.4673540003895
 20
993.1680518019565
 30
0.0
 11
952.4146696101576
 21
993.1039471844636
 31
0.0
  0
LINE
  5
224
330
22
100
AcDbEntity
  8
_4-2_
  6
Continuous
 62
     7
100
AcDbLine
 10
952.4146696101576
 20
993.1039471844636
 30
0.0
 11
952.3283121981155
 21
992.9906440533777
 31
0.0
  0
LINE
  5
225
330
22
100
AcDbEntity
  8
_4-2_
  6
Continuous
 62
     7
100
AcDbLine
 10
952.3283121981155
 20
992.9906440533777
 30
0.0
 11
952.2469932812288
 21
992.8742536317395
 31
0.0
  0
LINE
  5
226
330
22
100
AcDbEntity
  8
_4-2_
  6
Continuous
 62
     7
100
AcDbLine
 10
952.2469932812288
 20
992.8742536317395
 30
0.0
 11
952.169980842487
 21
992.7552748435598
 31
0.0
  0
LINE
  5
227
330
22
100
AcDbEntity
  8
_4-2_
  6
Continuous
 62
     7
100
AcDbLine
 10
952.169980842487
 20
992.7552748435598
 30
0.0
 11
952.0965428648816
 21
992.6342066128452
 31
0.0
  0
LINE
  5
228
330
22
100
AcDbEntity
  8
_4-2_
  6
Continuous
 62
     7
100
AcDbLine
 10
952.0965428648816
 20
992.6342066128452
 30
0.0
 11
952.0259473313997
 21
992.5115478636056
 31
0.0
  0
LINE
  5
229
330
22
100
AcDbEntity
  8
_4-2_
  6
Continuous
 62
     7
100
AcDbLine
 10
952.0259473313997
 20
992.5115478636056
 30
0.0
 11
951.9860158771125
 21
992.4398736154628
 31
0.0
  0
LINE
  5
22A
330
22
100
AcDbEntity
  8
_4-2_
  6
Continuous
 62
     7
100
AcDbLine
 10
951.9860158771125
 20
992.4398736154628
 30
0.0
 11
951.9439737724226
 21
992.3629569953757
 31
0.0
  0
LINE
  5
22B
330
22
100
AcDbEntity
  8
_4-2_
  6
Continuous
 62
     7
100
AcDbLine
 10
951.9439737724226
 20
992.3629569953757
 30
0.0
 11
951.8727354966671
 21
992.2297027726473
 31
0.0
  0
LINE
  5
22C
330
22
100
AcDbEntity
  8
_4-2_
  6
Continuous
 62
     7
100
AcDbLine
 10
951.8727354966671
 20
992.2297027726473
 30
0.0
 11
951.8026639039392
 21
992.0957671479349
 31
0.0
  0
LINE
  5
22D
330
22
100
AcDbEntity
  8
_4-2_
  6
Continuous
 62
     7
100
AcDbLine
 10
951.8026639039392
 20
992.0957671479349
 30
0.0
 11
951.7332785231605
 21
991.9612988597647
 31
0.0
  0
LINE
  5
22E
330
22
100
AcDbEntity
  8
_4-2_
  6
Continuous
 62
     7
100
AcDbLine
 10
951.7332785231605
 20
991.9612988597647
 30
0.0
 11
951.6640988832495
 21
991.826446646651
 31
0.0
  0
LINE
  5
22F
330
22
100
AcDbEntity
  8
_4-2_
  6
Continuous
 62
     7
100
AcDbLine
 10
951.6640988832495
 20
991.826446646651
 30
0.0
 11
951.5946445131254
 21
991.6913592471154
 31
0.0
  0
LINE
  5
230
330
22
100
AcDbEntity
  8
_4-2_
  6
Continuous
 62
     7
100
AcDbLine
 10
951.5946445131254
 20
991.6913592471154
 30
0.0
 11
951.5540457664821
 21
991.6129594036785
 31
0.0
  0
LINE
  5
231
330
22
100
AcDbEntity
  8
_4-2_
  6
Continuous
 62
     7
100
AcDbLine
 10
951.5540457664821
 20
991.6129594036785
 30
0.0
 11
951.4987873576211
 21
991.5074417892995
 31
0.0
  0
LINE
  5
232
330
22
100
AcDbEntity
  8
_4-2_
  6
Continuous
 62
     7
100
AcDbLine
 10
951.4987873576211
 20
991.5074417892995
 30
0.0
 11
951.4009718476636
 21
991.3265694356189
 31
0.0
  0
LINE
  5
233
330
22
100
AcDbEntity
  8
_4-2_
  6
Continuous
 62
     7
100
AcDbLine
 10
951.4009718476636
 20
991.3265694356189
 30
0.0
 11
951.2983333518974
 21
991.1486268254636
 31
0.0
  0
LINE
  5
234
330
22
100
AcDbEntity
  8
_4-2_
  6
Continuous
 62
     7
100
AcDbLine
 10
951.2983333518974
 20
991.1486268254636
 30
0.0
 11
951.1890058597812
 21
990.9754684329529
 31
0.0
  0
LINE
  5
235
330
22
100
AcDbEntity
  8
_4-2_
  6
Continuous
 62
     7
100
AcDbLine
 10
951.1890058597812
 20
990.9754684329529
 30
0.0
 11
951.0711233607805
 21
990.8089487322104
 31
0.0
  0
LINE
  5
236
330
22
100
AcDbEntity
  8
_4-2_
  6
Continuous
 62
     7
100
AcDbLine
 10
951.0711233607805
 20
990.8089487322104
 30
0.0
 11
950.9428198443588
 21
990.6509221973625
 31
0.0
  0
LINE
  5
237
330
22
100
AcDbEntity
  8
_4-2_
  6
Continuous
 62
     7
100
AcDbLine
 10
950.9428198443588
 20
990.6509221973625
 30
0.0
 11
950.8628935894675
 21
990.563889135001
 31
0.0
  0
LINE
  5
238
330
22
100
AcDbEntity
  8
_4-2_
  6
Continuous
 62
     7
100
AcDbLine
 10
950.8628935894675
 20
990.563889135001
 30
0.0
 11
950.8340091067777
 21
990.5344485063052
 31
0.0
  0
LINE
  5
239
330
22
100
AcDbEntity
  8
_4-2_
  6
Continuous
 62
     7
100
AcDbLine
 10
950.8340091067777
 20
990.5344485063052
 30
0.0
 11
950.7829470683152
 21
990.4848578219072
 31
0.0
  0
LINE
  5
23A
330
22
100
AcDbEntity
  8
_4-2_
  6
Continuous
 62
     7
100
AcDbLine
 10
950.7829470683152
 20
990.4848578219072
 30
0.0
 11
950.7303205731073
 21
990.4368577535072
 31
0.0
  0
LINE
  5
23B
330
22
100
AcDbEntity
  8
_4-2_
  6
Continuous
 62
     7
100
AcDbLine
 10
950.7303205731073
 20
990.4368577535072
 30
0.0
 11
950.6761668384244
 21
990.3905771889279
 31
0.0
  0
LINE
  5
23C
330
22
100
AcDbEntity
  8
_4-2_
  6
Continuous
 62
     7
100
AcDbLine
 10
950.6761668384244
 20
990.3905771889279
 30
0.0
 11
950.6205230815275
 21
990.3461450159968
 31
0.0
  0
LINE
  5
23D
330
22
100
AcDbEntity
  8
_4-2_
  6
Continuous
 62
     7
100
AcDbLine
 10
950.6205230815275
 20
990.3461450159968
 30
0.0
 11
950.5634265196823
 21
990.3036901225416
 31
0.0
  0
LINE
  5
23E
330
22
100
AcDbEntity
  8
_4-2_
  6
Continuous
 62
     7
100
AcDbLine
 10
950.5634265196823
 20
990.3036901225416
 30
0.0
 11
950.5296595041233
 21
990.2800230622965
 31
0.0
  0
LINE
  5
23F
330
22
100
AcDbEntity
  8
_4-2_
  6
Continuous
 62
     7
100
AcDbLine
 10
950.5296595041233
 20
990.2800230622965
 30
0.0
 11
950.4736586221923
 21
990.2429651308105
 31
0.0
  0
LINE
  5
240
330
22
100
AcDbEntity
  8
_4-2_
  6
Continuous
 62
     7
100
AcDbLine
 10
950.4736586221923
 20
990.2429651308105
 30
0.0
 11
950.3747889695858
 21
990.1827068406898
 31
0.0
  0
LINE
  5
241
330
22
100
AcDbEntity
  8
_4-2_
  6
Continuous
 62
     7
100
AcDbLine
 10
950.3747889695858
 20
990.1827068406898
 30
0.0
 11
950.2739069151907
 21
990.1256265850204
 31
0.0
  0
LINE
  5
242
330
22
100
AcDbEntity
  8
_4-2_
  6
Continuous
 62
     7
100
AcDbLine
 10
950.2739069151907
 20
990.1256265850204
 30
0.0
 11
950.1720819475073
 21
990.0700698922381
 31
0.0
  0
LINE
  5
243
330
22
100
AcDbEntity
  8
_4-2_
  6
Continuous
 62
     7
100
AcDbLine
 10
950.1720819475073
 20
990.0700698922381
 30
0.0
 11
950.0703835550377
 21
990.0143822907788
 31
0.0
  0
LINE
  5
244
330
22
100
AcDbEntity
  8
_4-2_
  6
Continuous
 62
     7
100
AcDbLine
 10
950.0703835550377
 20
990.0143822907788
 30
0.0
 11
949.9698812262801
 21
989.9569093090761
 31
0.0
  0
LINE
  5
245
330
22
100
AcDbEntity
  8
_4-2_
  6
Continuous
 62
     7
100
AcDbLine
 10
949.9698812262801
 20
989.9569093090761
 30
0.0
 11
949.9125593460764
 21
989.9221049706309
 31
0.0
  0
LINE
  5
246
330
22
100
AcDbEntity
  8
_4-2_
  6
Continuous
 62
     7
100
AcDbLine
 10
949.9125593460764
 20
989.9221049706309
 30
0.0
 11
949.8548024758264
 21
989.8850019894602
 31
0.0
  0
LINE
  5
247
330
22
100
AcDbEntity
  8
_4-2_
  6
Continuous
 62
     7
100
AcDbLine
 10
949.8548024758264
 20
989.8850019894602
 30
0.0
 11
949.7573380994804
 21
989.8178133883538
 31
0.0
  0
LINE
  5
248
330
22
100
AcDbEntity
  8
_4-2_
  6
Continuous
 62
     7
100
AcDbLine
 10
949.7573380994804
 20
989.8178133883538
 30
0.0
 11
949.6621365105927
 21
989.7471988946248
 31
0.0
  0
LINE
  5
249
330
22
100
AcDbEntity
  8
_4-2_
  6
Continuous
 62
     7
100
AcDbLine
 10
949.6621365105927
 20
989.7471988946248
 30
0.0
 11
949.5687137051326
 21
989.6739113618789
 31
0.0
  0
LINE
  5
24A
330
22
100
AcDbEntity
  8
_4-2_
  6
Continuous
 62
     7
100
AcDbLine
 10
949.5687137051326
 20
989.6739113618789
 30
0.0
 11
949.4765856790737
 21
989.5987036437238
 31
0.0
  0
LINE
  5
24B
330
22
100
AcDbEntity
  8
_4-2_
  6
Continuous
 62
     7
100
AcDbLine
 10
949.4765856790737
 20
989.5987036437238
 30
0.0
 11
949.3852684283879
 21
989.5223285937687
 31
0.0
  0
LINE
  5
24C
330
22
100
AcDbEntity
  8
_4-2_
  6
Continuous
 62
     7
100
AcDbLine
 10
949.3852684283879
 20
989.5223285937687
 30
0.0
 11
949.332485197512
 21
989.4777928568375
 31
0.0
  0
LINE
  5
24D
330
22
100
AcDbEntity
  8
_4-2_
  6
Continuous
 62
     7
100
AcDbLine
 10
949.332485197512
 20
989.4777928568375
 30
0.0
 11
949.2663340327503
 21
989.4218674918992
 31
0.0
  0
LINE
  5
24E
330
22
100
AcDbEntity
  8
_4-2_
  6
Continuous
 62
     7
100
AcDbLine
 10
949.2663340327503
 20
989.4218674918992
 30
0.0
 11
949.1528510463062
 21
989.3249405832765
 31
0.0
  0
LINE
  5
24F
330
22
100
AcDbEntity
  8
_4-2_
  6
Continuous
 62
     7
100
AcDbLine
 10
949.1528510463062
 20
989.3249405832765
 30
0.0
 11
949.0408668884157
 21
989.226572353125
 31
0.0
  0
LINE
  5
250
330
22
100
AcDbEntity
  8
_4-2_
  6
Continuous
 62
     7
100
AcDbLine
 10
949.0408668884157
 20
989.226572353125
 30
0.0
 11
948.9312843095246
 21
989.1258284794233
 31
0.0
  0
LINE
  5
251
330
22
100
AcDbEntity
  8
_4-2_
  6
Continuous
 62
     7
100
AcDbLine
 10
948.9312843095246
 20
989.1258284794233
 30
0.0
 11
948.8250060600812
 21
989.0217746401416
 31
0.0
  0
LINE
  5
252
330
22
100
AcDbEntity
  8
_4-2_
  6
Continuous
 62
     7
100
AcDbLine
 10
948.8250060600812
 20
989.0217746401416
 30
0.0
 11
948.722934890533
 21
988.9134765132602
 31
0.0
  0
LINE
  5
253
330
22
100
AcDbEntity
  8
_4-2_
  6
Continuous
 62
     7
100
AcDbLine
 10
948.722934890533
 20
988.9134765132602
 30
0.0
 11
948.6660170268207
 21
988.848350695628
 31
0.0
  0
LINE
  5
254
330
22
100
AcDbEntity
  8
_4-2_
  6
Continuous
 62
     7
100
AcDbLine
 10
948.6660170268207
 20
988.848350695628
 30
0.0
 11
948.6337299814232
 21
988.8095461484274
 31
0.0
  0
LINE
  5
255
330
22
100
AcDbEntity
  8
_4-2_
  6
Continuous
 62
     7
100
AcDbLine
 10
948.6337299814232
 20
988.8095461484274
 30
0.0
 11
948.5797767874812
 21
988.7411256860287
 31
0.0
  0
LINE
  5
256
330
22
100
AcDbEntity
  8
_4-2_
  6
Continuous
 62
     7
100
AcDbLine
 10
948.5797767874812
 20
988.7411256860287
 30
0.0
 11
948.5283018674003
 21
988.670812399928
 31
0.0
  0
LINE
  5
257
330
22
100
AcDbEntity
  8
_4-2_
  6
Continuous
 62
     7
100
AcDbLine
 10
948.5283018674003
 20
988.670812399928
 30
0.0
 11
948.4796639356847
 21
988.5986368169847
 31
0.0
  0
LINE
  5
258
330
22
100
AcDbEntity
  8
_4-2_
  6
Continuous
 62
     7
100
AcDbLine
 10
948.4796639356847
 20
988.5986368169847
 30
0.0
 11
948.4342217068441
 21
988.5246294640504
 31
0.0
  0
LINE
  5
259
330
22
100
AcDbEntity
  8
_4-2_
  6
Continuous
 62
     7
100
AcDbLine
 10
948.4342217068441
 20
988.5246294640504
 30
0.0
 11
948.3923338953884
 21
988.4488208679865
 31
0.0
  0
LINE
  5
25A
330
22
100
AcDbEntity
  8
_4-2_
  6
Continuous
 62
     7
100
AcDbLine
 10
948.3923338953884
 20
988.4488208679865
 30
0.0
 11
948.3698089509591
 21
988.4040385818346
 31
0.0
  0
LINE
  5
25B
330
22
100
AcDbEntity
  8
_4-2_
  6
Continuous
 62
     7
100
AcDbLine
 10
948.3698089509591
 20
988.4040385818346
 30
0.0
 11
948.3406515426104
 21
988.3406161499284
 31
0.0
  0
LINE
  5
25C
330
22
100
AcDbEntity
  8
_4-2_
  6
Continuous
 62
     7
100
AcDbLine
 10
948.3406515426104
 20
988.3406161499284
 30
0.0
 11
948.2959723186404
 21
988.2288884130232
 31
0.0
  0
LINE
  5
25D
330
22
100
AcDbEntity
  8
_4-2_
  6
Continuous
 62
     7
100
AcDbLine
 10
948.2959723186404
 20
988.2288884130232
 30
0.0
 11
948.2572527320012
 21
988.1146256516787
 31
0.0
  0
LINE
  5
25E
330
22
100
AcDbEntity
  8
_4-2_
  6
Continuous
 62
     7
100
AcDbLine
 10
948.2572527320012
 20
988.1146256516787
 30
0.0
 11
948.2231915518324
 21
987.9983813646846
 31
0.0
  0
LINE
  5
25F
330
22
100
AcDbEntity
  8
_4-2_
  6
Continuous
 62
     7
100
AcDbLine
 10
948.2231915518324
 20
987.9983813646846
 30
0.0
 11
948.1924875472788
 21
987.880709050826
 31
0.0
  0
LINE
  5
260
330
22
100
AcDbEntity
  8
_4-2_
  6
Continuous
 62
     7
100
AcDbLine
 10
948.1924875472788
 20
987.880709050826
 30
0.0
 11
948.1638394874796
 21
987.7621622088852
 31
0.0
  0
LINE
  5
261
330
22
100
AcDbEntity
  8
_4-2_
  6
Continuous
 62
     7
100
AcDbLine
 10
948.1638394874796
 20
987.7621622088852
 30
0.0
 11
948.1476528940611
 21
987.6932224390975
 31
0.0
  0
LINE
  5
262
330
22
100
AcDbEntity
  8
_4-4_
  6
Continuous
 62
     2
100
AcDbLine
 10
1012.365075308196
 20
993.0057224390976
 30
0.0
 11
985.2777340818494
 21
993.0057224390976
 31
0.0
  0
LINE
  5
263
330
22
100
AcDbEntity
  8
_4-4_
  6
Continuous
 62
     2
100
AcDbLine
 10
985.2777340818494
 20
993.0057224390976
 30
0.0
 11
981.4888729402884
 21
990.8182224390975
 31
0.0
  0
LINE
  5
264
330
22
100
AcDbEntity
  8
_4-4_
  6
Continuous
 62
     2
100
AcDbLine
 10
981.4888729402884
 20
990.8182224390975
 30
0.0
 11
954.8650753081965
 21
990.8182224390975
 31
0.0
  0
LINE
  5
265
330
22
100
AcDbEntity
  8
_4-2_
  6
Continuous
 62
     7
100
AcDbLine
 10
1017.365075308195
 20
987.6932224390975
 30
0.0
 11
954.8650753081965
 21
987.6932224390975
 31
0.0
  0
LINE
  5
266
330
22
100
AcDbEntity
  8
_4-4_
  6
Continuous
 62
     2
100
AcDbLine
 10
954.8650753081965
 20
987.6932224390975
 30
0.0
 11
767.3650753081965
 21
987.6932224390975
 31
0.0
  0
LINE
  5
267
330
22
100
AcDbEntity
  8
_4-4_
  6
Continuous
 62
     2
100
AcDbLine
 10
954.8650753081965
 20
987.6932224390975
 30
0.0
 11
954.8650753081965
 21
990.8182224390975
 31
0.0
  0
LINE
  5
268
330
22
100
AcDbEntity
  8
_4-6_
  6
Continuous
 62
     2
100
AcDbLine
 10
999.8650753082124
 20
987.6932224390975
 30
0.0
 11
997.6775753082124
 21
989.8807224390976
 31
0.0
  0
LINE
  5
269
330
22
100
AcDbEntity
  8
_4-6_
  6
Continuous
 62
     2
100
AcDbLine
 10
1003.615075308214
 20
987.6932224390975
 30
0.0
 11
1005.802575308198
 21
989.8807224390976
 31
0.0
  0
LINE
  5
26A
330
22
100
AcDbEntity
  8
_4-6_
  6
Continuous
 62
     2
100
AcDbLine
 10
997.3669151364019
 20
989.1307224390903
 30
0.0
 11
986.1150753081965
 21
989.1307224390903
 31
0.0
  0
LINE
  5
26B
330
22
100
AcDbEntity
  8
_4-6_
  6
Continuous
 62
     2
100
AcDbLine
 10
998.8044151364153
 20
987.6932224390975
 30
0.0
 11
997.3669151364019
 21
989.1307224390903
 31
0.0
  0
LINE
  5
26C
330
22
100
AcDbEntity
  8
_4-6_
  6
Continuous
 62
     2
100
AcDbLine
 10
1004.675735479978
 20
987.6932224390975
 30
0.0
 11
1006.113235479973
 21
989.1307224390903
 31
0.0
  0
LINE
  5
26D
330
22
100
AcDbEntity
  8
_4-6_
  6
Continuous
 62
     2
100
AcDbLine
 10
1004.675735479978
 20
987.6932224390975
 30
0.0
 11
998.8044151364153
 21
987.6932224390975
 31
0.0
  0
LINE
  5
26E
330
22
100
AcDbEntity
  8
_4-7_
  6
Continuous
 62
     7
100
AcDbLine
 10
1000.411949792697
 20
987.6932224390975
 30
0.0
 11
1003.068200823696
 21
987.6932224390975
 31
0.0
  0
LINE
  5
26F
330
22
100
AcDbEntity
  8
_4-7_
  6
Continuous
 62
     7
100
AcDbLine
 10
1004.865077885693
 20
989.4900995010949
 30
0.0
 11
1003.068200823696
 21
987.6932224390975
 31
0.0
  0
LINE
  5
270
330
22
100
AcDbEntity
  8
_4-7_
  6
Continuous
 62
     7
100
AcDbLine
 10
998.6150727306975
 20
989.4900995010949
 30
0.0
 11
1004.865077885693
 21
989.4900995010949
 31
0.0
  0
LINE
  5
271
330
22
100
AcDbEntity
  8
_4-7_
  6
Continuous
 62
     7
100
AcDbLine
 10
1004.865077885693
 20
989.802615997085
 30
0.0
 11
1004.865077885693
 21
989.4900995010949
 31
0.0
  0
LINE
  5
272
330
22
100
AcDbEntity
  8
_4-7_
  6
Continuous
 62
     7
100
AcDbLine
 10
998.6150727306975
 20
989.4900995010949
 30
0.0
 11
998.6150727306975
 21
989.802615997085
 31
0.0
  0
LINE
  5
273
330
22
100
AcDbEntity
  8
_4-7_
  6
Continuous
 62
     7
100
AcDbLine
 10
998.6150727306975
 20
989.802615997085
 30
0.0
 11
1004.865077885693
 21
989.802615997085
 31
0.0
  0
LINE
  5
274
330
22
100
AcDbEntity
  8
_4-7_
  6
Continuous
 62
     7
100
AcDbLine
 10
998.6150727306975
 20
989.4900995010949
 30
0.0
 11
1000.411949792697
 21
987.6932224390975
 31
0.0
  0
ARC
  5
275
330
22
100
AcDbEntity
  8
_4-7_
  6
DASHED3
 62
     7
100
AcDbCircle
 10
1001.740075308197
 20
989.0123241335643
 30
0.0
 40
1.150198462041649
100
AcDbArc
 50
217.1175231933594
 51
322.8824920654297
  0
LINE
  5
276
330
22
100
AcDbEntity
  8
_4-7_
  6
DASHED3
 62
     7
100
AcDbLine
 10
1000.146315410602
 20
989.4900995010949
 30
0.0
 11
1000.822893210632
 21
988.3182090361062
 31
0.0
  0
LINE
  5
277
330
22
100
AcDbEntity
  8
_4-7_
  6
DASHED3
 62
     7
100
AcDbLine
 10
1003.333812008305
 20
989.4900995010949
 30
0.0
 11
1002.657234208278
 21
988.3182090361062
 31
0.0
  0
LINE
  5
278
330
22
100
AcDbEntity
  8
_4-7_
  6
DASHED3
 62
     7
100
AcDbLine
 10
1003.333812008305
 20
989.4900995010949
 30
0.0
 11
1003.333812008305
 21
989.802615997085
 31
0.0
  0
LINE
  5
279
330
22
100
AcDbEntity
  8
_4-7_
  6
DASHED3
 62
     7
100
AcDbLine
 10
1000.146315410602
 20
989.4900995010949
 30
0.0
 11
1000.146315410602
 21
989.802615997085
 31
0.0
  0
LINE
  5
27A
330
22
100
AcDbEntity
  8
_4-7_
  6
Continuous
 62
     7
100
AcDbLine
 10
1000.490075308196
 20
987.6932224390975
 30
0.0
 11
1000.490075308196
 21
959.5682224390975
 31
0.0
  0
LINE
  5
27B
330
22
100
AcDbEntity
  8
_4-7_
  6
Continuous
 62
     7
100
AcDbLine
 10
1002.990075308197
 20
987.6932224390975
 30
0.0
 11
1002.990075308197
 21
959.5682224390975
 31
0.0
  0
LINE
  5
27C
330
22
100
AcDbEntity
  8
_4-2_
  6
Continuous
 62
     7
100
AcDbLine
 10
1017.365075308195
 20
984.5682224390975
 30
0.0
 11
1002.990075308197
 21
984.5682224390975
 31
0.0
  0
LINE
  5
27D
330
22
100
AcDbEntity
  8
_4-2_
  6
Continuous
 62
     7
100
AcDbLine
 10
1017.365075308197
 20
978.3182224390975
 30
0.0
 11
1002.990075308197
 21
978.3182224390975
 31
0.0
  0
LINE
  5
27E
330
22
100
AcDbEntity
  8
_4-2_
  6
Continuous
 62
     7
100
AcDbLine
 10
1000.490075308196
 20
978.3182224390975
 30
0.0
 11
767.3650753081965
 21
978.3182224390975
 31
0.0
  0
LINE
  5
27F
330
22
100
AcDbEntity
  8
_4-5_
  6
Continuous
 62
     2
100
AcDbLine
 10
1016.115075308196
 20
989.8807224390976
 30
0.0
 11
1016.115075308196
 21
989.1307224390903
 31
0.0
  0
LINE
  5
280
330
22
100
AcDbEntity
  8
_4-6_
  6
Continuous
 62
     2
100
AcDbLine
 10
1016.115075308196
 20
989.8807224390976
 30
0.0
 11
986.1150753081965
 21
989.8807224390976
 31
0.0
  0
LINE
  5
281
330
22
100
AcDbEntity
  8
_4-6_
  6
Continuous
 62
     2
100
AcDbLine
 10
1016.115075308196
 20
989.1307224390903
 30
0.0
 11
1006.113235479973
 21
989.1307224390903
 31
0.0
  0
LINE
  5
282
330
22
100
AcDbEntity
  8
_4-5_
  6
Continuous
 62
     2
100
AcDbLine
 10
1081.115075308196
 20
989.8807224390976
 30
0.0
 11
1081.115075308196
 21
989.1307224390903
 31
0.0
  0
LINE
  5
283
330
22
100
AcDbEntity
  8
_4-6_
  6
Continuous
 62
     2
100
AcDbLine
 10
1081.115075308196
 20
989.8807224390976
 30
0.0
 11
1111.115075308196
 21
989.8807224390976
 31
0.0
  0
LINE
  5
284
330
22
100
AcDbEntity
  8
_4-6_
  6
Continuous
 62
     2
100
AcDbLine
 10
1081.115075308196
 20
989.1307224390903
 30
0.0
 11
1091.116915136419
 21
989.1307224390903
 31
0.0
  0
TEXT
  5
285
330
22
100
AcDbEntity
  8
_4-A_
 62
     7
100
AcDbText
 10
1267.059494313671
 20
1073.266157338535
 30
0.0
 40
15.0
  1
塩ビシート 接着工法
100
AcDbText
  0
TEXT
  5
286
330
22
100
AcDbEntity
  8
_4-A_
 62
     7
100
AcDbText
 10
1267.059494313671
 20
1098.266157338535
 30
0.0
 40
15.0
  1
プルーフシーラー
100
AcDbText
  0
LINE
  5
287
330
22
100
AcDbEntity
  8
_4-A_
  6
Continuous
 62
     7
100
AcDbLine
 10
1257.059494313671
 20
1055.766157338535
 30
0.0
 11
1213.184089694685
 21
1055.766157338535
 31
0.0
  0
LINE
  5
288
330
22
100
AcDbEntity
  8
_4-A_
  6
Continuous
 62
     7
100
AcDbLine
 10
1257.059494313671
 20
1030.766157338535
 30
0.0
 11
1198.750332964944
 21
1030.766157338535
 31
0.0
  0
TEXT
  5
289
330
22
100
AcDbEntity
  8
_4-A_
 62
     7
100
AcDbText
 10
1267.059494313671
 20
1023.266157338535
 30
0.0
 40
15.0
  1
断熱材
100
AcDbText
  0
TEXT
  5
28A
330
22
100
AcDbEntity
  8
_4-A_
 62
     7
100
AcDbText
 10
1267.059494313671
 20
1048.266157338535
 30
0.0
 40
15.0
  1
ＯＬパネル
100
AcDbText
  0
LINE
  5
28B
330
22
100
AcDbEntity
  8
_4-A_
  6
Continuous
 62
     7
100
AcDbLine
 10
1257.059494313671
 20
1080.766157338535
 30
0.0
 11
1227.617846424426
 21
1080.766157338535
 31
0.0
  0
LINE
  5
28C
330
22
100
AcDbEntity
  8
_4-A_
  6
Continuous
 62
     7
100
AcDbLine
 10
1257.059494313671
 20
1105.766157338535
 30
0.0
 11
1209.622335028942
 21
1105.766157338535
 31
0.0
  0
LINE
  5
28D
330
22
100
AcDbEntity
  8
_4-A_
  6
Continuous
 62
     7
100
AcDbLine
 10
1257.059494313671
 20
1130.766157338535
 30
0.0
 11
1186.699209051961
 21
1130.766157338535
 31
0.0
  0
LINE
  5
28E
330
22
100
AcDbEntity
  8
_4-A_
  6
Continuous
 62
     7
100
AcDbLine
 10
1162.49802507298
 20
967.9753181780236
 30
0.0
 11
1227.617846424426
 21
1080.766157338535
 31
0.0
  0
LINE
  5
28F
330
22
100
AcDbEntity
  8
_4-A_
  6
Continuous
 62
     7
100
AcDbLine
 10
1144.151834611718
 20
992.3679242189408
 30
0.0
 11
1209.622335028942
 21
1105.766157338535
 31
0.0
  0
LINE
  5
290
330
22
100
AcDbEntity
  8
_4-A_
  6
Continuous
 62
     7
100
AcDbLine
 10
1105.358965287874
 20
989.8807224390976
 30
0.0
 11
1186.699209051961
 21
1130.766157338535
 31
0.0
  0
TEXT
  5
291
330
22
100
AcDbEntity
  8
_4-A_
 62
     7
100
AcDbText
 10
1267.059494313671
 20
1123.266157338535
 30
0.0
 40
15.0
  1
ＢＰ－Ｈ７を加工
100
AcDbText
  0
LINE
  5
292
330
22
100
AcDbEntity
  8
_4-4_
  6
Continuous
 62
     2
100
AcDbLine
 10
1142.365075308196
 20
987.6932224390975
 30
0.0
 11
1517.365075308196
 21
987.6932224390975
 31
0.0
  0
LINE
  5
293
330
22
100
AcDbEntity
  8
_4-A_
  6
Continuous
 62
     7
100
AcDbLine
 10
1139.611070378885
 20
903.9268340931224
 30
0.0
 11
1112.918460737662
 21
903.9268340931224
 31
0.0
  0
LINE
  5
294
330
22
100
AcDbEntity
  8
_4-A_
  6
Continuous
 62
     7
100
AcDbLine
 10
1096.478060032252
 20
932.4024434116838
 30
0.0
 11
1112.918460737662
 21
903.9268340931224
 31
0.0
  0
LINE
  5
295
330
22
100
AcDbEntity
  8
_4-E_
  6
Continuous
 62
     4
100
AcDbLine
 10
1161.442533536966
 20
865.8182224390978
 30
0.0
 11
1189.044463417993
 21
893.4201523201227
 31
0.0
  0
LINE
  5
296
330
22
100
AcDbEntity
  8
_4-E_
  6
Continuous
 62
     4
100
AcDbLine
 10
1211.062167018941
 20
915.4378559210726
 30
0.0
 11
1255.192533536966
 21
959.5682224390975
 31
0.0
  0
LINE
  5
297
330
22
100
AcDbEntity
  8
_4-E_
  6
Continuous
 62
     4
100
AcDbLine
 10
1147.300397913238
 20
865.8182224390978
 30
0.0
 11
1174.902327794264
 21
893.4201523201227
 31
0.0
  0
LINE
  5
298
330
22
100
AcDbEntity
  8
_4-E_
  6
Continuous
 62
     4
100
AcDbLine
 10
1196.920031395212
 20
915.4378559210726
 30
0.0
 11
1241.050397913238
 21
959.5682224390975
 31
0.0
  0
LINE
  5
299
330
22
100
AcDbEntity
  8
_4-E_
  6
Continuous
 62
     4
100
AcDbLine
 10
1154.371465725103
 20
865.8182224390978
 30
0.0
 11
1181.97339560613
 21
893.4201523201227
 31
0.0
  0
LINE
  5
29A
330
22
100
AcDbEntity
  8
_4-E_
  6
Continuous
 62
     4
100
AcDbLine
 10
1203.991099207077
 20
915.4378559210726
 30
0.0
 11
1248.121465725103
 21
959.5682224390975
 31
0.0
  0
LINE
  5
29B
330
22
100
AcDbEntity
  8
_4-D_
  6
Continuous
 62
     4
100
AcDbLine
 10
1002.990075308197
 20
961.7117581745972
 30
0.0
 11
1017.365075308197
 21
976.0867581745992
 31
0.0
  0
LINE
  5
29C
330
22
100
AcDbEntity
  8
_4-D_
  6
Continuous
 62
     4
100
AcDbLine
 10
1080.396052456185
 20
959.5682224390975
 30
0.0
 11
1094.240075308196
 21
973.4122452911107
 31
0.0
  0
LINE
  5
29D
330
22
100
AcDbEntity
  8
_4-D_
  6
Continuous
 62
     4
100
AcDbLine
 10
1092.562391625929
 20
978.3182224391
 30
0.0
 11
1094.240075308196
 21
979.9959061213668
 31
0.0
  0
LINE
  5
29E
330
22
100
AcDbEntity
  8
_4-D_
  6
Continuous
 62
     4
100
AcDbLine
 10
1096.740075308196
 20
982.4959061213666
 30
0.0
 11
1098.812391625926
 21
984.5682224390975
 31
0.0
  0
LINE
  5
29F
330
22
100
AcDbEntity
  8
_4-D_
  6
Continuous
 62
     4
100
AcDbLine
 10
994.52933423022
 20
978.3182224390975
 30
0.0
 11
1000.490075308196
 21
972.3574813611234
 31
0.0
  0
LINE
  5
2A0
330
22
100
AcDbEntity
  8
_4-D_
  6
Continuous
 62
     4
100
AcDbLine
 10
1002.990075308197
 20
969.8574813611211
 30
0.0
 11
1013.279334230222
 21
959.5682224390955
 31
0.0
  0
LINE
  5
2A1
330
22
100
AcDbEntity
  8
_4-A_
  6
Continuous
 62
     7
100
AcDbLine
 10
957.6190802375064
 20
903.9268340931224
 30
0.0
 11
984.3116898787304
 21
903.9268340931224
 31
0.0
  0
LINE
  5
2A2
330
22
100
AcDbEntity
  8
_4-A_
  6
Continuous
 62
     7
100
AcDbLine
 10
1000.75209058414
 20
932.4024434116838
 30
0.0
 11
984.3116898787304
 21
903.9268340931224
 31
0.0
  0
TEXT
  5
2A3
330
22
100
AcDbEntity
  8
_4-A_
 62
     7
100
AcDbText
 10
1149.611070378885
 20
896.4268340931223
 30
0.0
 40
15.0
  1
ＥＬ-2001注入
100
AcDbText
  0
TEXT
  5
2A4
330
22
100
AcDbEntity
  8
_4-A_
 62
     7
100
AcDbText
 10
850.1190802375065
 20
896.4268340931223
 30
0.0
 40
15.0
  1
ＥＬ-2001注入
100
AcDbText
  0
TEXT
  5
2A5
330
22
100
AcDbEntity
  8
_4-B_
 62
     7
100
AcDbText
 10
1117.763209513336
 20
937.148070971896
 30
0.0
 40
15.0
  1
40以上
100
AcDbText
  0
LINE
  5
2A6
330
22
100
AcDbEntity
  8
_4-7_
  6
Continuous
 62
     7
100
AcDbLine
 10
1097.365075308196
 20
957.0085442060284
 30
0.0
 11
1097.365075308196
 21
959.5682224390975
 31
0.0
  0
LINE
  5
2A7
330
22
100
AcDbEntity
  8
_4-7_
  6
Continuous
 62
     7
100
AcDbLine
 10
1097.365075308196
 20
959.5682224390975
 30
0.0
 11
1095.490075308196
 21
959.5682224390975
 31
0.0
  0
LINE
  5
2A8
330
22
100
AcDbEntity
  8
_4-7_
  6
Continuous
 62
     7
100
AcDbLine
 10
1097.365075308196
 20
957.0085442060284
 30
0.0
 11
1097.833825308196
 21
956.4931936309006
 31
0.0
  0
LINE
  5
2A9
330
22
100
AcDbEntity
  8
_4-7_
  6
Continuous
 62
     7
100
AcDbLine
 10
1097.833825308196
 20
956.4931936309006
 30
0.0
 11
1097.833825308196
 21
955.1815650514541
 31
0.0
  0
LINE
  5
2AA
330
22
100
AcDbEntity
  8
_4-7_
  6
Continuous
 62
     7
100
AcDbLine
 10
1097.833825308196
 20
955.1815650514541
 30
0.0
 11
1097.491188276946
 21
952.6080692306734
 31
0.0
  0
LINE
  5
2AB
330
22
100
AcDbEntity
  8
_4-7_
  6
Continuous
 62
     7
100
AcDbLine
 10
1097.491188276946
 20
952.6080692306734
 30
0.0
 11
1097.339985933196
 21
952.3533101628473
 31
0.0
  0
LINE
  5
2AC
330
22
100
AcDbEntity
  8
_4-7_
  6
Continuous
 62
     7
100
AcDbLine
 10
1097.339985933196
 20
952.3533101628473
 30
0.0
 11
1097.365075308196
 21
952.3533101628473
 31
0.0
  0
LINE
  5
2AD
330
22
100
AcDbEntity
  8
_4-7_
  6
Continuous
 62
     7
100
AcDbLine
 10
1097.365075308196
 20
952.3533101628473
 30
0.0
 11
1097.365075308196
 21
951.2195382337235
 31
0.0
  0
LINE
  5
2AE
330
22
100
AcDbEntity
  8
_4-7_
  6
Continuous
 62
     7
100
AcDbLine
 10
1097.365075308196
 20
951.2195382337235
 30
0.0
 11
1097.094442457842
 21
950.7041873568484
 31
0.0
  0
LINE
  5
2AF
330
22
100
AcDbEntity
  8
_4-7_
  6
Continuous
 62
     7
100
AcDbLine
 10
1097.175632339446
 20
950.5495820937849
 30
0.0
 11
1097.786950308196
 21
950.5495820937849
 31
0.0
  0
LINE
  5
2B0
330
22
100
AcDbEntity
  8
_4-7_
  6
Continuous
 62
     7
100
AcDbLine
 10
1097.786950308196
 20
950.5495820937849
 30
0.0
 11
1097.786950308196
 21
947.9037129726103
 31
0.0
  0
LINE
  5
2B1
330
22
100
AcDbEntity
  8
_4-7_
  6
Continuous
 62
     7
100
AcDbLine
 10
1097.786950308196
 20
947.9037129726103
 30
0.0
 11
1097.473531870696
 21
947.3028715694727
 31
0.0
  0
LINE
  5
2B2
330
22
100
AcDbEntity
  8
_4-7_
  6
Continuous
 62
     7
100
AcDbLine
 10
1097.473531870696
 20
947.3028715694727
 30
0.0
 11
1097.470544058196
 21
947.3028715694727
 31
0.0
  0
LINE
  5
2B3
330
22
100
AcDbEntity
  8
_4-7_
  6
Continuous
 62
     7
100
AcDbLine
 10
1097.470541449894
 20
947.302871790587
 30
0.0
 11
1097.470544058196
 21
947.3028715694727
 31
0.0
  0
LINE
  5
2B4
330
22
100
AcDbEntity
  8
_4-7_
  6
Continuous
 62
     7
100
AcDbLine
 10
1097.470541449894
 20
947.302871790587
 30
0.0
 11
1097.470544058196
 21
947.3028715694727
 31
0.0
  0
LINE
  5
2B5
330
22
100
AcDbEntity
  8
_4-7_
  6
Continuous
 62
     7
100
AcDbLine
 10
1097.450174526946
 20
946.6329154295353
 30
0.0
 11
1097.786950308196
 21
946.6329154295353
 31
0.0
  0
LINE
  5
2B6
330
22
100
AcDbEntity
  8
_4-7_
  6
Continuous
 62
     7
100
AcDbLine
 10
1097.786950308196
 20
946.6329154295353
 30
0.0
 11
1097.786950308196
 21
943.0096447190523
 31
0.0
  0
LINE
  5
2B7
330
22
100
AcDbEntity
  8
_4-7_
  6
Continuous
 62
     7
100
AcDbLine
 10
1097.786950308196
 20
943.0096447190523
 30
0.0
 11
1097.470545816283
 21
942.4070501129484
 31
0.0
  0
LINE
  5
2B8
330
22
100
AcDbEntity
  8
_4-7_
  6
Continuous
 62
     7
100
AcDbLine
 10
1097.470544058196
 20
942.4070382391599
 30
0.0
 11
1097.468299289223
 21
942.7054453624352
 31
0.0
  0
LINE
  5
2B9
330
22
100
AcDbEntity
  8
_4-7_
  6
Continuous
 62
     7
100
AcDbLine
 10
1097.468299289223
 20
942.7054453624352
 30
0.0
 11
1097.267874284459
 21
942.7162487652857
 31
0.0
  0
LINE
  5
2BA
330
22
100
AcDbEntity
  8
_4-7_
  6
Continuous
 62
     7
100
AcDbLine
 10
1097.168710509354
 20
942.870854028348
 30
0.0
 11
1097.450174526946
 21
943.3862049052223
 31
0.0
  0
LINE
  5
2BB
330
22
100
AcDbEntity
  8
_4-7_
  6
Continuous
 62
     7
100
AcDbLine
 10
1097.450174526946
 20
943.3862049052223
 30
0.0
 11
1097.450174622024
 21
943.6846120733447
 31
0.0
  0
LINE
  5
2BC
330
22
100
AcDbEntity
  8
_4-7_
  6
Continuous
 62
     7
100
AcDbLine
 10
1097.450174622024
 20
943.6846120733447
 30
0.0
 11
1097.232654370696
 21
943.6954154313481
 31
0.0
  0
LINE
  5
2BD
330
22
100
AcDbEntity
  8
_4-7_
  6
Continuous
 62
     7
100
AcDbLine
 10
1097.132910777121
 20
943.8500206944105
 30
0.0
 11
1097.450174526946
 21
944.3653715712857
 31
0.0
  0
LINE
  5
2BE
330
22
100
AcDbEntity
  8
_4-7_
  6
Continuous
 62
     7
100
AcDbLine
 10
1097.450174526946
 20
944.3653715712857
 30
0.0
 11
1097.450174526946
 21
944.6637787969782
 31
0.0
  0
LINE
  5
2BF
330
22
100
AcDbEntity
  8
_4-7_
  6
Continuous
 62
     7
100
AcDbLine
 10
1097.450174526946
 20
944.6637787969782
 30
0.0
 11
1097.232654370696
 21
944.6745820974104
 31
0.0
  0
LINE
  5
2C0
330
22
100
AcDbEntity
  8
_4-7_
  6
Continuous
 62
     7
100
AcDbLine
 10
1097.132910777121
 20
944.829187360473
 30
0.0
 11
1097.450174526946
 21
945.344538237348
 31
0.0
  0
LINE
  5
2C1
330
22
100
AcDbEntity
  8
_4-7_
  6
Continuous
 62
     7
100
AcDbLine
 10
1097.450174526946
 20
945.344538237348
 30
0.0
 11
1097.450174526946
 21
945.6429454630406
 31
0.0
  0
LINE
  5
2C2
330
22
100
AcDbEntity
  8
_4-7_
  6
Continuous
 62
     7
100
AcDbLine
 10
1097.450174526946
 20
945.6429454630406
 30
0.0
 11
1097.232654370696
 21
945.6537487634729
 31
0.0
  0
LINE
  5
2C3
330
22
100
AcDbEntity
  8
_4-7_
  6
Continuous
 62
     7
100
AcDbLine
 10
1097.132910777121
 20
945.8083540265352
 30
0.0
 11
1097.450174622024
 21
946.3237049034104
 31
0.0
  0
LINE
  5
2C4
330
22
100
AcDbEntity
  8
_4-7_
  6
Continuous
 62
     7
100
AcDbLine
 10
1097.450174622024
 20
946.3237049034104
 30
0.0
 11
1097.450174526946
 21
946.6329154295353
 31
0.0
  0
LINE
  5
2C5
330
22
100
AcDbEntity
  8
_4-7_
  6
Continuous
 62
     7
100
AcDbLine
 10
1097.470541449894
 20
947.302871790587
 30
0.0
 11
1097.468238199115
 21
947.6012789587084
 31
0.0
  0
LINE
  5
2C6
330
22
100
AcDbEntity
  8
_4-7_
  6
Continuous
 62
     7
100
AcDbLine
 10
1097.468238199115
 20
947.6012789587084
 30
0.0
 11
1097.269835151946
 21
947.6120820955976
 31
0.0
  0
LINE
  5
2C7
330
22
100
AcDbEntity
  8
_4-7_
  6
Continuous
 62
     7
100
AcDbLine
 10
1097.168527564247
 20
947.7666873586601
 30
0.0
 11
1097.450174622024
 21
948.2820382355352
 31
0.0
  0
LINE
  5
2C8
330
22
100
AcDbEntity
  8
_4-7_
  6
Continuous
 62
     7
100
AcDbLine
 10
1097.450174622024
 20
948.2820382355352
 30
0.0
 11
1097.450174622024
 21
948.5804454036568
 31
0.0
  0
LINE
  5
2C9
330
22
100
AcDbEntity
  8
_4-7_
  6
Continuous
 62
     7
100
AcDbLine
 10
1097.450174622024
 20
948.5804454036568
 30
0.0
 11
1097.232654370696
 21
948.59124876166
 31
0.0
  0
LINE
  5
2CA
330
22
100
AcDbEntity
  8
_4-7_
  6
Continuous
 62
     7
100
AcDbLine
 10
1097.132910777121
 20
948.7458540247224
 30
0.0
 11
1097.450174526946
 21
949.2612049015976
 31
0.0
  0
LINE
  5
2CB
330
22
100
AcDbEntity
  8
_4-7_
  6
Continuous
 62
     7
100
AcDbLine
 10
1097.450174526946
 20
949.2612049015976
 30
0.0
 11
1097.450174622024
 21
949.5596120697193
 31
0.0
  0
LINE
  5
2CC
330
22
100
AcDbEntity
  8
_4-7_
  6
Continuous
 62
     7
100
AcDbLine
 10
1097.450174622024
 20
949.5596120697193
 30
0.0
 11
1097.232100562891
 21
949.5705601659475
 31
0.0
  0
LINE
  5
2CD
330
22
100
AcDbEntity
  8
_4-7_
  6
Continuous
 62
     7
100
AcDbLine
 10
1097.132910777121
 20
949.725020690786
 30
0.0
 11
1097.450174622024
 21
950.2403715676601
 31
0.0
  0
LINE
  5
2CE
330
22
100
AcDbEntity
  8
_4-7_
  6
Continuous
 62
     7
100
AcDbLine
 10
1097.450174622024
 20
950.2403715676601
 30
0.0
 11
1097.450174523505
 21
950.5495820937849
 31
0.0
  0
LINE
  5
2CF
330
22
100
AcDbEntity
  8
_4-7_
  6
Continuous
 62
     7
100
AcDbLine
 10
1097.450174526946
 20
941.7370820992234
 30
0.0
 11
1097.786950308196
 21
941.7370820992234
 31
0.0
  0
LINE
  5
2D0
330
22
100
AcDbEntity
  8
_4-7_
  6
Continuous
 62
     7
100
AcDbLine
 10
1097.786950308196
 20
941.7370820992234
 30
0.0
 11
1097.786950308196
 21
939.7069310149497
 31
0.0
  0
LINE
  5
2D1
330
22
100
AcDbEntity
  8
_4-7_
  6
Continuous
 62
     7
100
AcDbLine
 10
1097.786950308196
 20
939.7069310149497
 30
0.0
 11
1097.470834214446
 21
937.511204908848
 31
0.0
  0
LINE
  5
2D2
330
22
100
AcDbEntity
  8
_4-7_
  6
Continuous
 62
     7
100
AcDbLine
 10
1097.470834214446
 20
937.511204908848
 30
0.0
 11
1097.470375140906
 21
937.8096118364366
 31
0.0
  0
LINE
  5
2D3
330
22
100
AcDbEntity
  8
_4-7_
  6
Continuous
 62
     7
100
AcDbLine
 10
1097.470375140906
 20
937.8096118364366
 30
0.0
 11
1097.277444839446
 21
937.8204154349727
 31
0.0
  0
LINE
  5
2D4
330
22
100
AcDbEntity
  8
_4-7_
  6
Continuous
 62
     7
100
AcDbLine
 10
1097.470834214446
 20
937.511204908848
 30
0.0
 11
1097.199911207842
 21
936.9958540319728
 31
0.0
  0
LINE
  5
2D5
330
22
100
AcDbEntity
  8
_4-7_
  6
Continuous
 62
     7
100
AcDbLine
 10
1097.187096986453
 20
937.9750206980352
 30
0.0
 11
1097.468723444867
 21
938.4903715749103
 31
0.0
  0
LINE
  5
2D6
330
22
100
AcDbEntity
  8
_4-7_
  6
Continuous
 62
     7
100
AcDbLine
 10
1097.468723444867
 20
938.4903715749103
 30
0.0
 11
1097.467420379702
 21
938.7887785024975
 31
0.0
  0
LINE
  5
2D7
330
22
100
AcDbEntity
  8
_4-7_
  6
Continuous
 62
     7
100
AcDbLine
 10
1097.467420379702
 20
938.7887785024975
 30
0.0
 11
1097.265966089446
 21
938.7995821010353
 31
0.0
  0
LINE
  5
2D8
330
22
100
AcDbEntity
  8
_4-7_
  6
Continuous
 62
     7
100
AcDbLine
 10
1097.17315015456
 20
938.9541873640975
 30
0.0
 11
1097.463067566637
 21
939.4695380004385
 31
0.0
  0
LINE
  5
2D9
330
22
100
AcDbEntity
  8
_4-7_
  6
Continuous
 62
     7
100
AcDbLine
 10
1097.463067566637
 20
939.4695380004385
 30
0.0
 11
1097.460528291203
 21
939.7679451685613
 31
0.0
  0
LINE
  5
2DA
330
22
100
AcDbEntity
  8
_4-7_
  6
Continuous
 62
     7
100
AcDbLine
 10
1097.460528291203
 20
939.7679451685613
 30
0.0
 11
1097.25136994416
 21
939.7787487670976
 31
0.0
  0
LINE
  5
2DB
330
22
100
AcDbEntity
  8
_4-7_
  6
Continuous
 62
     7
100
AcDbLine
 10
1097.153085809055
 20
939.9333540301601
 30
0.0
 11
1097.453212449183
 21
940.4487046665021
 31
0.0
  0
LINE
  5
2DC
330
22
100
AcDbEntity
  8
_4-7_
  6
Continuous
 62
     7
100
AcDbLine
 10
1097.453212449183
 20
940.4487046665021
 30
0.0
 11
1097.450174526946
 21
940.7471121327276
 31
0.0
  0
LINE
  5
2DD
330
22
100
AcDbEntity
  8
_4-7_
  6
Continuous
 62
     7
100
AcDbLine
 10
1097.450174526946
 20
940.7471121327276
 30
0.0
 11
1097.232654370696
 21
940.7579154331612
 31
0.0
  0
LINE
  5
2DE
330
22
100
AcDbEntity
  8
_4-7_
  6
Continuous
 62
     7
100
AcDbLine
 10
1097.132910777121
 20
940.9125206962224
 30
0.0
 11
1097.450174622024
 21
941.4278715730977
 31
0.0
  0
LINE
  5
2DF
330
22
100
AcDbEntity
  8
_4-7_
  6
Continuous
 62
     7
100
AcDbLine
 10
1097.450174622024
 20
941.4278715730977
 30
0.0
 11
1097.450174526946
 21
941.7370820992234
 31
0.0
  0
LINE
  5
2E0
330
22
100
AcDbEntity
  8
_4-7_
  6
Continuous
 62
     7
100
AcDbLine
 10
1097.281101089447
 20
936.8412487689104
 30
0.0
 11
1097.365075308196
 21
936.8412487689104
 31
0.0
  0
LINE
  5
2E1
330
22
100
AcDbEntity
  8
_4-7_
  6
Continuous
 62
     7
100
AcDbLine
 10
1097.365075308196
 20
936.8412487689104
 30
0.0
 11
1097.365075308196
 21
936.3516654358784
 31
0.0
  0
LINE
  5
2E2
330
22
100
AcDbEntity
  8
_4-7_
  6
Continuous
 62
     7
100
AcDbLine
 10
1097.365075308196
 20
936.3516654358784
 30
0.0
 11
1097.271325308197
 21
936.3516654358784
 31
0.0
  0
LINE
  5
2E3
330
22
100
AcDbEntity
  8
_4-7_
  6
Continuous
 62
     7
100
AcDbLine
 10
1097.271325308197
 20
936.3516654358784
 30
0.0
 11
1097.271325308197
 21
935.3467312259727
 31
0.0
  0
LINE
  5
2E4
330
22
100
AcDbEntity
  8
_4-7_
  6
Continuous
 62
     7
100
AcDbLine
 10
1097.271325308197
 20
935.3467312259727
 30
0.0
 11
1097.267283551445
 21
935.3467312259727
 31
0.0
  0
LINE
  5
2E5
330
22
100
AcDbEntity
  8
_4-7_
  6
Continuous
 62
     7
100
AcDbLine
 10
1097.235861558196
 20
935.1405908752225
 30
0.0
 11
1097.23586146661
 21
931.4215648797111
 31
0.0
  0
LINE
  5
2E6
330
22
100
AcDbEntity
  8
_4-7_
  6
Continuous
 62
     7
100
AcDbLine
 10
1097.23586146661
 20
931.4215648797111
 30
0.0
 11
1096.960588120696
 21
931.0144268646103
 31
0.0
  0
LINE
  5
2E7
330
22
100
AcDbEntity
  8
_4-7_
  6
Continuous
 62
     7
100
AcDbLine
 10
1096.960588120696
 20
931.0144268646103
 30
0.0
 11
1096.333825308197
 21
930.1932224572228
 31
0.0
  0
LINE
  5
2E8
330
22
100
AcDbEntity
  8
_4-7_
  6
Continuous
 62
     7
100
AcDbLine
 10
1096.333825308197
 20
930.1932224572228
 30
0.0
 11
1096.240463758513
 21
930.1932224572228
 31
0.0
  0
LINE
  5
2E9
330
22
100
AcDbEntity
  8
_4-7_
  6
Continuous
 62
     7
100
AcDbLine
 10
1096.240463758513
 20
930.1932224572228
 30
0.0
 11
1096.918647576833
 21
931.4215648797111
 31
0.0
  0
LINE
  5
2EA
330
22
100
AcDbEntity
  8
_4-7_
  6
Continuous
 62
     7
100
AcDbLine
 10
1096.918647576833
 20
931.4215648797111
 30
0.0
 11
1096.918647651945
 21
933.9037487707232
 31
0.0
  0
LINE
  5
2EB
330
22
100
AcDbEntity
  8
_4-7_
  6
Continuous
 62
     7
100
AcDbLine
 10
1096.554045464447
 20
933.9037487707232
 30
0.0
 11
1096.554045635341
 21
931.4215649751476
 31
0.0
  0
LINE
  5
2EC
330
22
100
AcDbEntity
  8
_4-7_
  6
Continuous
 62
     7
100
AcDbLine
 10
1096.554045635341
 20
931.4215649751476
 30
0.0
 11
1095.875861657071
 21
930.1932224572228
 31
0.0
  0
LINE
  5
2ED
330
22
100
AcDbEntity
  8
_4-7_
  6
Continuous
 62
     7
100
AcDbLine
 10
1095.875861657071
 20
930.1932224572228
 30
0.0
 11
1095.490075308196
 21
930.1932224572228
 31
0.0
  0
LINE
  5
2EE
330
22
100
AcDbEntity
  8
_4-7_
  6
Continuous
 62
     7
100
AcDbLine
 10
1097.101137873873
 20
950.7169369897638
 30
0.0
 11
1097.101137873873
 21
950.7169369897638
 31
0.0
  0
LINE
  5
2EF
330
22
100
AcDbEntity
  8
_4-7_
  6
Continuous
 62
     7
100
AcDbLine
 10
1097.101137873873
 20
950.7169369897638
 30
0.0
 11
1097.092889045526
 21
950.7005248926537
 31
0.0
  0
LINE
  5
2F0
330
22
100
AcDbEntity
  8
_4-7_
  6
Continuous
 62
     7
100
AcDbLine
 10
1097.092889045526
 20
950.7005248926537
 30
0.0
 11
1097.087357759669
 21
950.6827873364228
 31
0.0
  0
LINE
  5
2F1
330
22
100
AcDbEntity
  8
_4-7_
  6
Continuous
 62
     7
100
AcDbLine
 10
1097.087357759669
 20
950.6827873364228
 30
0.0
 11
1097.084712081623
 21
950.6642632677424
 31
0.0
  0
LINE
  5
2F2
330
22
100
AcDbEntity
  8
_4-7_
  6
Continuous
 62
     7
100
AcDbLine
 10
1097.084712081623
 20
950.6642632677424
 30
0.0
 11
1097.085032398978
 21
950.6455155310657
 31
0.0
  0
LINE
  5
2F3
330
22
100
AcDbEntity
  8
_4-7_
  6
Continuous
 62
     7
100
AcDbLine
 10
1097.085032398978
 20
950.6455155310657
 30
0.0
 11
1097.088308979052
 21
950.6271137668848
 31
0.0
  0
LINE
  5
2F4
330
22
100
AcDbEntity
  8
_4-7_
  6
Continuous
 62
     7
100
AcDbLine
 10
1097.088308979052
 20
950.6271137668848
 30
0.0
 11
1097.094442264618
 21
950.6096171034918
 31
0.0
  0
LINE
  5
2F5
330
22
100
AcDbEntity
  8
_4-7_
  6
Continuous
 62
     7
100
AcDbLine
 10
1097.094442264618
 20
950.6096171034918
 30
0.0
 11
1097.103245898897
 21
950.5935571681513
 31
0.0
  0
LINE
  5
2F6
330
22
100
AcDbEntity
  8
_4-7_
  6
Continuous
 62
     7
100
AcDbLine
 10
1097.103245898897
 20
950.5935571681513
 30
0.0
 11
1097.114452387917
 21
950.5794219338708
 31
0.0
  0
LINE
  5
2F7
330
22
100
AcDbEntity
  8
_4-7_
  6
Continuous
 62
     7
100
AcDbLine
 10
1097.114452387917
 20
950.5794219338708
 30
0.0
 11
1097.12772122818
 21
950.567640892592
 31
0.0
  0
LINE
  5
2F8
330
22
100
AcDbEntity
  8
_4-7_
  6
Continuous
 62
     7
100
AcDbLine
 10
1097.12772122818
 20
950.567640892592
 30
0.0
 11
1097.142649252688
 21
950.5585720052927
 31
0.0
  0
LINE
  5
2F9
330
22
100
AcDbEntity
  8
_4-7_
  6
Continuous
 62
     7
100
AcDbLine
 10
1097.142649252688
 20
950.5585720052927
 30
0.0
 11
1097.158782880972
 21
950.5524908255235
 31
0.0
  0
LINE
  5
2FA
330
22
100
AcDbEntity
  8
_4-7_
  6
Continuous
 62
     7
100
AcDbLine
 10
1097.158782880972
 20
950.5524908255235
 30
0.0
 11
1097.175631900899
 21
950.5495821268553
 31
0.0
  0
LINE
  5
2FB
330
22
100
AcDbEntity
  8
_4-7_
  6
Continuous
 62
     7
100
AcDbLine
 10
1097.175631900899
 20
950.5495821268553
 30
0.0
 11
1097.175632339446
 21
950.5495820937849
 31
0.0
  0
LINE
  5
2FC
330
22
100
AcDbEntity
  8
_4-7_
  6
Continuous
 62
     7
100
AcDbLine
 10
1097.132910777121
 20
949.7250206907857
 30
0.0
 11
1097.132910777121
 21
949.7250206907857
 31
0.0
  0
LINE
  5
2FD
330
22
100
AcDbEntity
  8
_4-7_
  6
Continuous
 62
     7
100
AcDbLine
 10
1097.132910777121
 20
949.7250206907857
 30
0.0
 11
1097.132491336128
 21
949.7000468445429
 31
0.0
  0
LINE
  5
2FE
330
22
100
AcDbEntity
  8
_4-7_
  6
Continuous
 62
     7
100
AcDbLine
 10
1097.132491336128
 20
949.7000468445429
 30
0.0
 11
1097.136022785232
 21
949.675372331054
 31
0.0
  0
LINE
  5
2FF
330
22
100
AcDbEntity
  8
_4-7_
  6
Continuous
 62
     7
100
AcDbLine
 10
1097.136022785232
 20
949.675372331054
 30
0.0
 11
1097.143397823134
 21
949.6517468729255
 31
0.0
  0
LINE
  5
300
330
22
100
AcDbEntity
  8
_4-7_
  6
Continuous
 62
     7
100
AcDbLine
 10
1097.143397823134
 20
949.6517468729255
 30
0.0
 11
1097.154392363043
 21
949.6298883177471
 31
0.0
  0
LINE
  5
301
330
22
100
AcDbEntity
  8
_4-7_
  6
Continuous
 62
     7
100
AcDbLine
 10
1097.154392363043
 20
949.6298883177471
 30
0.0
 11
1097.168672341426
 21
949.6104608266575
 31
0.0
  0
LINE
  5
302
330
22
100
AcDbEntity
  8
_4-7_
  6
Continuous
 62
     7
100
AcDbLine
 10
1097.168672341426
 20
949.6104608266575
 30
0.0
 11
1097.185803868366
 21
949.5940546941422
 31
0.0
  0
LINE
  5
303
330
22
100
AcDbEntity
  8
_4-7_
  6
Continuous
 62
     7
100
AcDbLine
 10
1097.185803868366
 20
949.5940546941422
 30
0.0
 11
1097.205266411085
 21
949.5811684122362
 31
0.0
  0
LINE
  5
304
330
22
100
AcDbEntity
  8
_4-7_
  6
Continuous
 62
     7
100
AcDbLine
 10
1097.205266411085
 20
949.5811684122362
 30
0.0
 11
1097.226468610073
 21
949.5721935240942
 31
0.0
  0
LINE
  5
305
330
22
100
AcDbEntity
  8
_4-7_
  6
Continuous
 62
     7
100
AcDbLine
 10
1097.226468610073
 20
949.5721935240942
 30
0.0
 11
1097.232654370696
 21
949.5704154277232
 31
0.0
  0
LINE
  5
306
330
22
100
AcDbEntity
  8
_4-7_
  6
Continuous
 62
     7
100
AcDbLine
 10
1097.132910777121
 20
948.7458540247223
 30
0.0
 11
1097.132910777121
 21
948.7458540247223
 31
0.0
  0
LINE
  5
307
330
22
100
AcDbEntity
  8
_4-7_
  6
Continuous
 62
     7
100
AcDbLine
 10
1097.132910777121
 20
948.7458540247223
 30
0.0
 11
1097.132491336128
 21
948.7208801784797
 31
0.0
  0
LINE
  5
308
330
22
100
AcDbEntity
  8
_4-7_
  6
Continuous
 62
     7
100
AcDbLine
 10
1097.132491336128
 20
948.7208801784797
 30
0.0
 11
1097.136022785232
 21
948.6962056649906
 31
0.0
  0
LINE
  5
309
330
22
100
AcDbEntity
  8
_4-7_
  6
Continuous
 62
     7
100
AcDbLine
 10
1097.136022785232
 20
948.6962056649906
 30
0.0
 11
1097.143397823134
 21
948.6725802068622
 31
0.0
  0
LINE
  5
30A
330
22
100
AcDbEntity
  8
_4-7_
  6
Continuous
 62
     7
100
AcDbLine
 10
1097.143397823134
 20
948.6725802068622
 30
0.0
 11
1097.154392363043
 21
948.6507216516836
 31
0.0
  0
LINE
  5
30B
330
22
100
AcDbEntity
  8
_4-7_
  6
Continuous
 62
     7
100
AcDbLine
 10
1097.154392363043
 20
948.6507216516836
 30
0.0
 11
1097.168672341426
 21
948.6312941605937
 31
0.0
  0
LINE
  5
30C
330
22
100
AcDbEntity
  8
_4-7_
  6
Continuous
 62
     7
100
AcDbLine
 10
1097.168672341426
 20
948.6312941605937
 30
0.0
 11
1097.185803868366
 21
948.6148880280788
 31
0.0
  0
LINE
  5
30D
330
22
100
AcDbEntity
  8
_4-7_
  6
Continuous
 62
     7
100
AcDbLine
 10
1097.185803868366
 20
948.6148880280788
 30
0.0
 11
1097.205266411085
 21
948.6020017461727
 31
0.0
  0
LINE
  5
30E
330
22
100
AcDbEntity
  8
_4-7_
  6
Continuous
 62
     7
100
AcDbLine
 10
1097.205266411085
 20
948.6020017461727
 30
0.0
 11
1097.226468610073
 21
948.5930268580307
 31
0.0
  0
LINE
  5
30F
330
22
100
AcDbEntity
  8
_4-7_
  6
Continuous
 62
     7
100
AcDbLine
 10
1097.226468610073
 20
948.5930268580307
 30
0.0
 11
1097.232654370696
 21
948.5912487616596
 31
0.0
  0
LINE
  5
310
330
22
100
AcDbEntity
  8
_4-7_
  6
Continuous
 62
     7
100
AcDbLine
 10
1097.168527564247
 20
947.7666873586597
 30
0.0
 11
1097.168527564247
 21
947.7666873586597
 31
0.0
  0
LINE
  5
311
330
22
100
AcDbEntity
  8
_4-7_
  6
Continuous
 62
     7
100
AcDbLine
 10
1097.168527564247
 20
947.7666873586597
 30
0.0
 11
1097.168108123255
 21
947.7417135124172
 31
0.0
  0
LINE
  5
312
330
22
100
AcDbEntity
  8
_4-7_
  6
Continuous
 62
     7
100
AcDbLine
 10
1097.168108123255
 20
947.7417135124172
 30
0.0
 11
1097.171639572357
 21
947.717038998928
 31
0.0
  0
LINE
  5
313
330
22
100
AcDbEntity
  8
_4-7_
  6
Continuous
 62
     7
100
AcDbLine
 10
1097.171639572357
 20
947.717038998928
 30
0.0
 11
1097.17901461026
 21
947.6934135407995
 31
0.0
  0
LINE
  5
314
330
22
100
AcDbEntity
  8
_4-7_
  6
Continuous
 62
     7
100
AcDbLine
 10
1097.17901461026
 20
947.6934135407995
 30
0.0
 11
1097.190009150169
 21
947.6715549856212
 31
0.0
  0
LINE
  5
315
330
22
100
AcDbEntity
  8
_4-7_
  6
Continuous
 62
     7
100
AcDbLine
 10
1097.190009150169
 20
947.6715549856212
 30
0.0
 11
1097.204289128552
 21
947.6521274945316
 31
0.0
  0
LINE
  5
316
330
22
100
AcDbEntity
  8
_4-7_
  6
Continuous
 62
     7
100
AcDbLine
 10
1097.204289128552
 20
947.6521274945316
 30
0.0
 11
1097.221420655491
 21
947.6357213620163
 31
0.0
  0
LINE
  5
317
330
22
100
AcDbEntity
  8
_4-7_
  6
Continuous
 62
     7
100
AcDbLine
 10
1097.221420655491
 20
947.6357213620163
 30
0.0
 11
1097.240883198211
 21
947.6228350801104
 31
0.0
  0
LINE
  5
318
330
22
100
AcDbEntity
  8
_4-7_
  6
Continuous
 62
     7
100
AcDbLine
 10
1097.240883198211
 20
947.6228350801104
 30
0.0
 11
1097.262085397199
 21
947.6138601919684
 31
0.0
  0
LINE
  5
319
330
22
100
AcDbEntity
  8
_4-7_
  6
Continuous
 62
     7
100
AcDbLine
 10
1097.262085397199
 20
947.6138601919684
 30
0.0
 11
1097.268271157822
 21
947.6120820955971
 31
0.0
  0
LINE
  5
31A
330
22
100
AcDbEntity
  8
_4-7_
  6
Continuous
 62
     7
100
AcDbLine
 10
1097.132910777121
 20
945.808354026535
 30
0.0
 11
1097.132910777121
 21
945.808354026535
 31
0.0
  0
LINE
  5
31B
330
22
100
AcDbEntity
  8
_4-7_
  6
Continuous
 62
     7
100
AcDbLine
 10
1097.132910777121
 20
945.808354026535
 30
0.0
 11
1097.132491336128
 21
945.7833801802923
 31
0.0
  0
LINE
  5
31C
330
22
100
AcDbEntity
  8
_4-7_
  6
Continuous
 62
     7
100
AcDbLine
 10
1097.132491336128
 20
945.7833801802923
 30
0.0
 11
1097.136022785232
 21
945.7587056668034
 31
0.0
  0
LINE
  5
31D
330
22
100
AcDbEntity
  8
_4-7_
  6
Continuous
 62
     7
100
AcDbLine
 10
1097.136022785232
 20
945.7587056668034
 30
0.0
 11
1097.143397823134
 21
945.7350802086748
 31
0.0
  0
LINE
  5
31E
330
22
100
AcDbEntity
  8
_4-7_
  6
Continuous
 62
     7
100
AcDbLine
 10
1097.143397823134
 20
945.7350802086748
 30
0.0
 11
1097.154392363043
 21
945.7132216534965
 31
0.0
  0
LINE
  5
31F
330
22
100
AcDbEntity
  8
_4-7_
  6
Continuous
 62
     7
100
AcDbLine
 10
1097.154392363043
 20
945.7132216534965
 30
0.0
 11
1097.168672341426
 21
945.6937941624067
 31
0.0
  0
LINE
  5
320
330
22
100
AcDbEntity
  8
_4-7_
  6
Continuous
 62
     7
100
AcDbLine
 10
1097.168672341426
 20
945.6937941624067
 30
0.0
 11
1097.185803868366
 21
945.6773880298914
 31
0.0
  0
LINE
  5
321
330
22
100
AcDbEntity
  8
_4-7_
  6
Continuous
 62
     7
100
AcDbLine
 10
1097.185803868366
 20
945.6773880298914
 30
0.0
 11
1097.205266411085
 21
945.6645017479857
 31
0.0
  0
LINE
  5
322
330
22
100
AcDbEntity
  8
_4-7_
  6
Continuous
 62
     7
100
AcDbLine
 10
1097.205266411085
 20
945.6645017479857
 30
0.0
 11
1097.226468610073
 21
945.6555268598433
 31
0.0
  0
LINE
  5
323
330
22
100
AcDbEntity
  8
_4-7_
  6
Continuous
 62
     7
100
AcDbLine
 10
1097.226468610073
 20
945.6555268598433
 30
0.0
 11
1097.232654370696
 21
945.6537487634724
 31
0.0
  0
LINE
  5
324
330
22
100
AcDbEntity
  8
_4-7_
  6
Continuous
 62
     7
100
AcDbLine
 10
1097.132910777121
 20
944.8291873604727
 30
0.0
 11
1097.132910777121
 21
944.8291873604727
 31
0.0
  0
LINE
  5
325
330
22
100
AcDbEntity
  8
_4-7_
  6
Continuous
 62
     7
100
AcDbLine
 10
1097.132910777121
 20
944.8291873604727
 30
0.0
 11
1097.132491336128
 21
944.8042135142301
 31
0.0
  0
LINE
  5
326
330
22
100
AcDbEntity
  8
_4-7_
  6
Continuous
 62
     7
100
AcDbLine
 10
1097.132491336128
 20
944.8042135142301
 30
0.0
 11
1097.136022785232
 21
944.7795390007412
 31
0.0
  0
LINE
  5
327
330
22
100
AcDbEntity
  8
_4-7_
  6
Continuous
 62
     7
100
AcDbLine
 10
1097.136022785232
 20
944.7795390007412
 30
0.0
 11
1097.143397823134
 21
944.7559135426125
 31
0.0
  0
LINE
  5
328
330
22
100
AcDbEntity
  8
_4-7_
  6
Continuous
 62
     7
100
AcDbLine
 10
1097.143397823134
 20
944.7559135426125
 30
0.0
 11
1097.154392363043
 21
944.7340549874342
 31
0.0
  0
LINE
  5
329
330
22
100
AcDbEntity
  8
_4-7_
  6
Continuous
 62
     7
100
AcDbLine
 10
1097.154392363043
 20
944.7340549874342
 30
0.0
 11
1097.168672341426
 21
944.7146274963442
 31
0.0
  0
LINE
  5
32A
330
22
100
AcDbEntity
  8
_4-7_
  6
Continuous
 62
     7
100
AcDbLine
 10
1097.168672341426
 20
944.7146274963442
 30
0.0
 11
1097.185803868366
 21
944.6982213638293
 31
0.0
  0
LINE
  5
32B
330
22
100
AcDbEntity
  8
_4-7_
  6
Continuous
 62
     7
100
AcDbLine
 10
1097.185803868366
 20
944.6982213638293
 30
0.0
 11
1097.205266411085
 21
944.6853350819232
 31
0.0
  0
LINE
  5
32C
330
22
100
AcDbEntity
  8
_4-7_
  6
Continuous
 62
     7
100
AcDbLine
 10
1097.205266411085
 20
944.6853350819232
 30
0.0
 11
1097.226468610073
 21
944.6763601937814
 31
0.0
  0
LINE
  5
32D
330
22
100
AcDbEntity
  8
_4-7_
  6
Continuous
 62
     7
100
AcDbLine
 10
1097.226468610073
 20
944.6763601937814
 30
0.0
 11
1097.232654370696
 21
944.6745820974099
 31
0.0
  0
LINE
  5
32E
330
22
100
AcDbEntity
  8
_4-7_
  6
Continuous
 62
     7
100
AcDbLine
 10
1097.132910777121
 20
943.8500206944103
 30
0.0
 11
1097.132910777121
 21
943.8500206944103
 31
0.0
  0
LINE
  5
32F
330
22
100
AcDbEntity
  8
_4-7_
  6
Continuous
 62
     7
100
AcDbLine
 10
1097.132910777121
 20
943.8500206944103
 30
0.0
 11
1097.132491336128
 21
943.8250468481674
 31
0.0
  0
LINE
  5
330
330
22
100
AcDbEntity
  8
_4-7_
  6
Continuous
 62
     7
100
AcDbLine
 10
1097.132491336128
 20
943.8250468481674
 30
0.0
 11
1097.136022785232
 21
943.8003723346788
 31
0.0
  0
LINE
  5
331
330
22
100
AcDbEntity
  8
_4-7_
  6
Continuous
 62
     7
100
AcDbLine
 10
1097.136022785232
 20
943.8003723346788
 30
0.0
 11
1097.143397823134
 21
943.7767468765501
 31
0.0
  0
LINE
  5
332
330
22
100
AcDbEntity
  8
_4-7_
  6
Continuous
 62
     7
100
AcDbLine
 10
1097.143397823134
 20
943.7767468765501
 30
0.0
 11
1097.154392363043
 21
943.754888321372
 31
0.0
  0
LINE
  5
333
330
22
100
AcDbEntity
  8
_4-7_
  6
Continuous
 62
     7
100
AcDbLine
 10
1097.154392363043
 20
943.754888321372
 30
0.0
 11
1097.168672341426
 21
943.7354608302818
 31
0.0
  0
LINE
  5
334
330
22
100
AcDbEntity
  8
_4-7_
  6
Continuous
 62
     7
100
AcDbLine
 10
1097.168672341426
 20
943.7354608302818
 30
0.0
 11
1097.185803868366
 21
943.7190546977667
 31
0.0
  0
LINE
  5
335
330
22
100
AcDbEntity
  8
_4-7_
  6
Continuous
 62
     7
100
AcDbLine
 10
1097.185803868366
 20
943.7190546977667
 30
0.0
 11
1097.205266411085
 21
943.7061684158607
 31
0.0
  0
LINE
  5
336
330
22
100
AcDbEntity
  8
_4-7_
  6
Continuous
 62
     7
100
AcDbLine
 10
1097.205266411085
 20
943.7061684158607
 30
0.0
 11
1097.226468610073
 21
943.6971935277188
 31
0.0
  0
LINE
  5
337
330
22
100
AcDbEntity
  8
_4-7_
  6
Continuous
 62
     7
100
AcDbLine
 10
1097.226468610073
 20
943.6971935277188
 30
0.0
 11
1097.232654370696
 21
943.6954154313475
 31
0.0
  0
LINE
  5
338
330
22
100
AcDbEntity
  8
_4-7_
  6
Continuous
 62
     7
100
AcDbLine
 10
1097.168710509354
 20
942.8708540283478
 30
0.0
 11
1097.168710509354
 21
942.8708540283478
 31
0.0
  0
LINE
  5
339
330
22
100
AcDbEntity
  8
_4-7_
  6
Continuous
 62
     7
100
AcDbLine
 10
1097.168710509354
 20
942.8708540283478
 30
0.0
 11
1097.168291068362
 21
942.8458801821053
 31
0.0
  0
LINE
  5
33A
330
22
100
AcDbEntity
  8
_4-7_
  6
Continuous
 62
     7
100
AcDbLine
 10
1097.168291068362
 20
942.8458801821053
 30
0.0
 11
1097.171822517464
 21
942.8212056686163
 31
0.0
  0
LINE
  5
33B
330
22
100
AcDbEntity
  8
_4-7_
  6
Continuous
 62
     7
100
AcDbLine
 10
1097.171822517464
 20
942.8212056686163
 30
0.0
 11
1097.179197555367
 21
942.7975802104878
 31
0.0
  0
LINE
  5
33C
330
22
100
AcDbEntity
  8
_4-7_
  6
Continuous
 62
     7
100
AcDbLine
 10
1097.179197555367
 20
942.7975802104878
 30
0.0
 11
1097.190192095276
 21
942.7757216553095
 31
0.0
  0
LINE
  5
33D
330
22
100
AcDbEntity
  8
_4-7_
  6
Continuous
 62
     7
100
AcDbLine
 10
1097.190192095276
 20
942.7757216553095
 30
0.0
 11
1097.204472073659
 21
942.7562941642195
 31
0.0
  0
LINE
  5
33E
330
22
100
AcDbEntity
  8
_4-7_
  6
Continuous
 62
     7
100
AcDbLine
 10
1097.204472073659
 20
942.7562941642195
 30
0.0
 11
1097.221603600599
 21
942.7398880317046
 31
0.0
  0
LINE
  5
33F
330
22
100
AcDbEntity
  8
_4-7_
  6
Continuous
 62
     7
100
AcDbLine
 10
1097.221603600599
 20
942.7398880317046
 30
0.0
 11
1097.241066143318
 21
942.7270017497985
 31
0.0
  0
LINE
  5
340
330
22
100
AcDbEntity
  8
_4-7_
  6
Continuous
 62
     7
100
AcDbLine
 10
1097.241066143318
 20
942.7270017497985
 30
0.0
 11
1097.262268342306
 21
942.7180268616563
 31
0.0
  0
LINE
  5
341
330
22
100
AcDbEntity
  8
_4-7_
  6
Continuous
 62
     7
100
AcDbLine
 10
1097.262268342306
 20
942.7180268616563
 30
0.0
 11
1097.268454102929
 21
942.7162487652852
 31
0.0
  0
LINE
  5
342
330
22
100
AcDbEntity
  8
_4-7_
  6
Continuous
 62
     7
100
AcDbLine
 10
1097.132910777121
 20
940.9125206962233
 30
0.0
 11
1097.132910777121
 21
940.9125206962233
 31
0.0
  0
LINE
  5
343
330
22
100
AcDbEntity
  8
_4-7_
  6
Continuous
 62
     7
100
AcDbLine
 10
1097.132910777121
 20
940.9125206962233
 30
0.0
 11
1097.132491336128
 21
940.8875468499804
 31
0.0
  0
LINE
  5
344
330
22
100
AcDbEntity
  8
_4-7_
  6
Continuous
 62
     7
100
AcDbLine
 10
1097.132491336128
 20
940.8875468499804
 30
0.0
 11
1097.136022785232
 21
940.8628723364916
 31
0.0
  0
LINE
  5
345
330
22
100
AcDbEntity
  8
_4-7_
  6
Continuous
 62
     7
100
AcDbLine
 10
1097.136022785232
 20
940.8628723364916
 30
0.0
 11
1097.143397823134
 21
940.8392468783629
 31
0.0
  0
LINE
  5
346
330
22
100
AcDbEntity
  8
_4-7_
  6
Continuous
 62
     7
100
AcDbLine
 10
1097.143397823134
 20
940.8392468783629
 30
0.0
 11
1097.154392363043
 21
940.8173883231846
 31
0.0
  0
LINE
  5
347
330
22
100
AcDbEntity
  8
_4-7_
  6
Continuous
 62
     7
100
AcDbLine
 10
1097.154392363043
 20
940.8173883231846
 30
0.0
 11
1097.168672341426
 21
940.7979608320948
 31
0.0
  0
LINE
  5
348
330
22
100
AcDbEntity
  8
_4-7_
  6
Continuous
 62
     7
100
AcDbLine
 10
1097.168672341426
 20
940.7979608320948
 30
0.0
 11
1097.185803868366
 21
940.7815546995799
 31
0.0
  0
LINE
  5
349
330
22
100
AcDbEntity
  8
_4-7_
  6
Continuous
 62
     7
100
AcDbLine
 10
1097.185803868366
 20
940.7815546995799
 30
0.0
 11
1097.205266411085
 21
940.7686684176736
 31
0.0
  0
LINE
  5
34A
330
22
100
AcDbEntity
  8
_4-7_
  6
Continuous
 62
     7
100
AcDbLine
 10
1097.205266411085
 20
940.7686684176736
 30
0.0
 11
1097.226468610073
 21
940.7596935295314
 31
0.0
  0
LINE
  5
34B
330
22
100
AcDbEntity
  8
_4-7_
  6
Continuous
 62
     7
100
AcDbLine
 10
1097.226468610073
 20
940.7596935295314
 30
0.0
 11
1097.232654370696
 21
940.7579154331605
 31
0.0
  0
LINE
  5
34C
330
22
100
AcDbEntity
  8
_4-7_
  6
Continuous
 62
     7
100
AcDbLine
 10
1097.153085809054
 20
939.9333540301595
 30
0.0
 11
1097.153085809054
 21
939.9333540301595
 31
0.0
  0
LINE
  5
34D
330
22
100
AcDbEntity
  8
_4-7_
  6
Continuous
 62
     7
100
AcDbLine
 10
1097.153085809054
 20
939.9333540301595
 30
0.0
 11
1097.152666368062
 21
939.9083801839166
 31
0.0
  0
LINE
  5
34E
330
22
100
AcDbEntity
  8
_4-7_
  6
Continuous
 62
     7
100
AcDbLine
 10
1097.152666368062
 20
939.9083801839166
 30
0.0
 11
1097.156197817165
 21
939.8837056704278
 31
0.0
  0
LINE
  5
34F
330
22
100
AcDbEntity
  8
_4-7_
  6
Continuous
 62
     7
100
AcDbLine
 10
1097.156197817165
 20
939.8837056704278
 30
0.0
 11
1097.163572855067
 21
939.8600802122993
 31
0.0
  0
LINE
  5
350
330
22
100
AcDbEntity
  8
_4-7_
  6
Continuous
 62
     7
100
AcDbLine
 10
1097.163572855067
 20
939.8600802122993
 30
0.0
 11
1097.174567394976
 21
939.8382216571212
 31
0.0
  0
LINE
  5
351
330
22
100
AcDbEntity
  8
_4-7_
  6
Continuous
 62
     7
100
AcDbLine
 10
1097.174567394976
 20
939.8382216571212
 30
0.0
 11
1097.188847373359
 21
939.8187941660314
 31
0.0
  0
LINE
  5
352
330
22
100
AcDbEntity
  8
_4-7_
  6
Continuous
 62
     7
100
AcDbLine
 10
1097.188847373359
 20
939.8187941660314
 30
0.0
 11
1097.205978900299
 21
939.8023880335165
 31
0.0
  0
LINE
  5
353
330
22
100
AcDbEntity
  8
_4-7_
  6
Continuous
 62
     7
100
AcDbLine
 10
1097.205978900299
 20
939.8023880335165
 30
0.0
 11
1097.225441443019
 21
939.7895017516098
 31
0.0
  0
LINE
  5
354
330
22
100
AcDbEntity
  8
_4-7_
  6
Continuous
 62
     7
100
AcDbLine
 10
1097.225441443019
 20
939.7895017516098
 30
0.0
 11
1097.246643642006
 21
939.780526863468
 31
0.0
  0
LINE
  5
355
330
22
100
AcDbEntity
  8
_4-7_
  6
Continuous
 62
     7
100
AcDbLine
 10
1097.246643642006
 20
939.780526863468
 30
0.0
 11
1097.25282940263
 21
939.7787487670973
 31
0.0
  0
LINE
  5
356
330
22
100
AcDbEntity
  8
_4-7_
  6
Continuous
 62
     7
100
AcDbLine
 10
1097.17315015456
 20
938.9541873640972
 30
0.0
 11
1097.17315015456
 21
938.9541873640972
 31
0.0
  0
LINE
  5
357
330
22
100
AcDbEntity
  8
_4-7_
  6
Continuous
 62
     7
100
AcDbLine
 10
1097.17315015456
 20
938.9541873640972
 30
0.0
 11
1097.172730713568
 21
938.9292135178543
 31
0.0
  0
LINE
  5
358
330
22
100
AcDbEntity
  8
_4-7_
  6
Continuous
 62
     7
100
AcDbLine
 10
1097.172730713568
 20
938.9292135178543
 30
0.0
 11
1097.176262162671
 21
938.9045390043657
 31
0.0
  0
LINE
  5
359
330
22
100
AcDbEntity
  8
_4-7_
  6
Continuous
 62
     7
100
AcDbLine
 10
1097.176262162671
 20
938.9045390043657
 30
0.0
 11
1097.183637200574
 21
938.880913546237
 31
0.0
  0
LINE
  5
35A
330
22
100
AcDbEntity
  8
_4-7_
  6
Continuous
 62
     7
100
AcDbLine
 10
1097.183637200574
 20
938.880913546237
 30
0.0
 11
1097.194631740482
 21
938.8590549910587
 31
0.0
  0
LINE
  5
35B
330
22
100
AcDbEntity
  8
_4-7_
  6
Continuous
 62
     7
100
AcDbLine
 10
1097.194631740482
 20
938.8590549910587
 30
0.0
 11
1097.208911718865
 21
938.839627499969
 31
0.0
  0
LINE
  5
35C
330
22
100
AcDbEntity
  8
_4-7_
  6
Continuous
 62
     7
100
AcDbLine
 10
1097.208911718865
 20
938.839627499969
 30
0.0
 11
1097.226043245805
 21
938.8232213674539
 31
0.0
  0
LINE
  5
35D
330
22
100
AcDbEntity
  8
_4-7_
  6
Continuous
 62
     7
100
AcDbLine
 10
1097.226043245805
 20
938.8232213674539
 30
0.0
 11
1097.245505788525
 21
938.8103350855475
 31
0.0
  0
LINE
  5
35E
330
22
100
AcDbEntity
  8
_4-7_
  6
Continuous
 62
     7
100
AcDbLine
 10
1097.245505788525
 20
938.8103350855475
 30
0.0
 11
1097.266707987512
 21
938.8013601974057
 31
0.0
  0
LINE
  5
35F
330
22
100
AcDbEntity
  8
_4-7_
  6
Continuous
 62
     7
100
AcDbLine
 10
1097.266707987512
 20
938.8013601974057
 30
0.0
 11
1097.272893748135
 21
938.7995821010347
 31
0.0
  0
LINE
  5
360
330
22
100
AcDbEntity
  8
_4-7_
  6
Continuous
 62
     7
100
AcDbLine
 10
1097.187096986454
 20
937.9750206980359
 30
0.0
 11
1097.187096986454
 21
937.9750206980359
 31
0.0
  0
LINE
  5
361
330
22
100
AcDbEntity
  8
_4-7_
  6
Continuous
 62
     7
100
AcDbLine
 10
1097.187096986454
 20
937.9750206980359
 30
0.0
 11
1097.186677545461
 21
937.9500468517932
 31
0.0
  0
LINE
  5
362
330
22
100
AcDbEntity
  8
_4-7_
  6
Continuous
 62
     7
100
AcDbLine
 10
1097.186677545461
 20
937.9500468517932
 30
0.0
 11
1097.190208994564
 21
937.9253723383044
 31
0.0
  0
LINE
  5
363
330
22
100
AcDbEntity
  8
_4-7_
  6
Continuous
 62
     7
100
AcDbLine
 10
1097.190208994564
 20
937.9253723383044
 30
0.0
 11
1097.197584032467
 21
937.9017468801757
 31
0.0
  0
LINE
  5
364
330
22
100
AcDbEntity
  8
_4-7_
  6
Continuous
 62
     7
100
AcDbLine
 10
1097.197584032467
 20
937.9017468801757
 30
0.0
 11
1097.208578572376
 21
937.8798883249976
 31
0.0
  0
LINE
  5
365
330
22
100
AcDbEntity
  8
_4-7_
  6
Continuous
 62
     7
100
AcDbLine
 10
1097.208578572376
 20
937.8798883249976
 30
0.0
 11
1097.222858550759
 21
937.8604608339079
 31
0.0
  0
LINE
  5
366
330
22
100
AcDbEntity
  8
_4-7_
  6
Continuous
 62
     7
100
AcDbLine
 10
1097.222858550759
 20
937.8604608339079
 30
0.0
 11
1097.239990077699
 21
937.8440547013926
 31
0.0
  0
LINE
  5
367
330
22
100
AcDbEntity
  8
_4-7_
  6
Continuous
 62
     7
100
AcDbLine
 10
1097.239990077699
 20
937.8440547013926
 30
0.0
 11
1097.259452620418
 21
937.8311684194864
 31
0.0
  0
LINE
  5
368
330
22
100
AcDbEntity
  8
_4-7_
  6
Continuous
 62
     7
100
AcDbLine
 10
1097.259452620418
 20
937.8311684194864
 30
0.0
 11
1097.280654819406
 21
937.8221935313442
 31
0.0
  0
LINE
  5
369
330
22
100
AcDbEntity
  8
_4-7_
  6
Continuous
 62
     7
100
AcDbLine
 10
1097.280654819406
 20
937.8221935313442
 30
0.0
 11
1097.286840580029
 21
937.8204154349734
 31
0.0
  0
LINE
  5
36A
330
22
100
AcDbEntity
  8
_4-7_
  6
Continuous
 62
     7
100
AcDbLine
 10
1097.208036098288
 20
937.0113092325787
 30
0.0
 11
1097.208036098288
 21
937.0113092325787
 31
0.0
  0
LINE
  5
36B
330
22
100
AcDbEntity
  8
_4-7_
  6
Continuous
 62
     7
100
AcDbLine
 10
1097.208036098288
 20
937.0113092325787
 30
0.0
 11
1097.199497253444
 21
936.9948792313429
 31
0.0
  0
LINE
  5
36C
330
22
100
AcDbEntity
  8
_4-7_
  6
Continuous
 62
     7
100
AcDbLine
 10
1097.199497253444
 20
936.9948792313429
 30
0.0
 11
1097.193683184977
 21
936.977068675522
 31
0.0
  0
LINE
  5
36D
330
22
100
AcDbEntity
  8
_4-7_
  6
Continuous
 62
     7
100
AcDbLine
 10
1097.193683184977
 20
936.977068675522
 30
0.0
 11
1097.190770550413
 21
936.9584187298418
 31
0.0
  0
LINE
  5
36E
330
22
100
AcDbEntity
  8
_4-7_
  6
Continuous
 62
     7
100
AcDbLine
 10
1097.190770550413
 20
936.9584187298418
 30
0.0
 11
1097.190847848682
 21
936.9394960634647
 31
0.0
  0
LINE
  5
36F
330
22
100
AcDbEntity
  8
_4-7_
  6
Continuous
 62
     7
100
AcDbLine
 10
1097.190847848682
 20
936.9394960634647
 30
0.0
 11
1097.193912731113
 21
936.9208756320329
 31
0.0
  0
LINE
  5
370
330
22
100
AcDbEntity
  8
_4-7_
  6
Continuous
 62
     7
100
AcDbLine
 10
1097.193912731113
 20
936.9208756320329
 30
0.0
 11
1097.199872072805
 21
936.9031232079331
 31
0.0
  0
LINE
  5
371
330
22
100
AcDbEntity
  8
_4-7_
  6
Continuous
 62
     7
100
AcDbLine
 10
1097.199872072805
 20
936.9031232079331
 30
0.0
 11
1097.208544802177
 21
936.8867781895888
 31
0.0
  0
LINE
  5
372
330
22
100
AcDbEntity
  8
_4-7_
  6
Continuous
 62
     7
100
AcDbLine
 10
1097.208544802177
 20
936.8867781895888
 30
0.0
 11
1097.219667402735
 21
936.8723372121111
 31
0.0
  0
LINE
  5
373
330
22
100
AcDbEntity
  8
_4-7_
  6
Continuous
 62
     7
100
AcDbLine
 10
1097.219667402735
 20
936.8723372121111
 30
0.0
 11
1097.232901919888
 21
936.8602390572931
 31
0.0
  0
LINE
  5
374
330
22
100
AcDbEntity
  8
_4-7_
  6
Continuous
 62
     7
100
AcDbLine
 10
1097.232901919888
 20
936.8602390572931
 30
0.0
 11
1097.247846229532
 21
936.8508513214473
 31
0.0
  0
LINE
  5
375
330
22
100
AcDbEntity
  8
_4-7_
  6
Continuous
 62
     7
100
AcDbLine
 10
1097.247846229532
 20
936.8508513214473
 30
0.0
 11
1097.26404625638
 21
936.8444592461766
 31
0.0
  0
LINE
  5
376
330
22
100
AcDbEntity
  8
_4-7_
  6
Continuous
 62
     7
100
AcDbLine
 10
1097.26404625638
 20
936.8444592461766
 30
0.0
 11
1097.281009770812
 21
936.8412570514541
 31
0.0
  0
LINE
  5
377
330
22
100
AcDbEntity
  8
_4-7_
  6
Continuous
 62
     7
100
AcDbLine
 10
1097.281009770812
 20
936.8412570514541
 30
0.0
 11
1097.281101089447
 21
936.8412487689104
 31
0.0
  0
LINE
  5
378
330
22
100
AcDbEntity
  8
_4-7_
  6
Continuous
 62
     7
100
AcDbLine
 10
1097.470544058196
 20
942.4070382391603
 30
0.0
 11
1097.470544058196
 21
942.4070382391603
 31
0.0
  0
LINE
  5
379
330
22
100
AcDbEntity
  8
_4-7_
  6
Continuous
 62
     7
100
AcDbLine
 10
1097.470544058196
 20
942.4070382391603
 30
0.0
 11
1097.41784041395
 21
942.3993757662556
 31
0.0
  0
LINE
  5
37A
330
22
100
AcDbEntity
  8
_4-7_
  6
Continuous
 62
     7
100
AcDbLine
 10
1097.41784041395
 20
942.3993757662556
 30
0.0
 11
1097.367147713039
 21
942.3817679745635
 31
0.0
  0
LINE
  5
37B
330
22
100
AcDbEntity
  8
_4-7_
  6
Continuous
 62
     7
100
AcDbLine
 10
1097.367147713039
 20
942.3817679745635
 30
0.0
 11
1097.320006227527
 21
942.3547498679253
 31
0.0
  0
LINE
  5
37C
330
22
100
AcDbEntity
  8
_4-7_
  6
Continuous
 62
     7
100
AcDbLine
 10
1097.320006227527
 20
942.3547498679253
 30
0.0
 11
1097.277848327599
 21
942.3191423778385
 31
0.0
  0
LINE
  5
37D
330
22
100
AcDbEntity
  8
_4-7_
  6
Continuous
 62
     7
100
AcDbLine
 10
1097.277848327599
 20
942.3191423778385
 30
0.0
 11
1097.241954959709
 21
942.276027419872
 31
0.0
  0
LINE
  5
37E
330
22
100
AcDbEntity
  8
_4-7_
  6
Continuous
 62
     7
100
AcDbLine
 10
1097.241954959709
 20
942.276027419872
 30
0.0
 11
1097.213416725679
 21
942.2267150202056
 31
0.0
  0
LINE
  5
37F
330
22
100
AcDbEntity
  8
_4-7_
  6
Continuous
 62
     7
100
AcDbLine
 10
1097.213416725679
 20
942.2267150202056
 30
0.0
 11
1097.193100745308
 21
942.1727035111505
 31
0.0
  0
LINE
  5
380
330
22
100
AcDbEntity
  8
_4-7_
  6
Continuous
 62
     7
100
AcDbLine
 10
1097.193100745308
 20
942.1727035111505
 30
0.0
 11
1097.18162430938
 21
942.1156340050782
 31
0.0
  0
LINE
  5
381
330
22
100
AcDbEntity
  8
_4-7_
  6
Continuous
 62
     7
100
AcDbLine
 10
1097.18162430938
 20
942.1156340050782
 30
0.0
 11
1097.179336123593
 21
942.0572405300516
 31
0.0
  0
LINE
  5
382
330
22
100
AcDbEntity
  8
_4-7_
  6
Continuous
 62
     7
100
AcDbLine
 10
1097.179336123593
 20
942.0572405300516
 30
0.0
 11
1097.186305713313
 21
941.9992973422612
 31
0.0
  0
LINE
  5
383
330
22
100
AcDbEntity
  8
_4-7_
  6
Continuous
 62
     7
100
AcDbLine
 10
1097.186305713313
 20
941.9992973422612
 30
0.0
 11
1097.202321311086
 21
941.9435650161473
 31
0.0
  0
LINE
  5
384
330
22
100
AcDbEntity
  8
_4-7_
  6
Continuous
 62
     7
100
AcDbLine
 10
1097.202321311086
 20
941.9435650161473
 30
0.0
 11
1097.226896291075
 21
941.8917369502368
 31
0.0
  0
LINE
  5
385
330
22
100
AcDbEntity
  8
_4-7_
  6
Continuous
 62
     7
100
AcDbLine
 10
1097.226896291075
 20
941.8917369502368
 30
0.0
 11
1097.25928395495
 21
941.8453879140868
 31
0.0
  0
LINE
  5
386
330
22
100
AcDbEntity
  8
_4-7_
  6
Continuous
 62
     7
100
AcDbLine
 10
1097.25928395495
 20
941.8453879140868
 30
0.0
 11
1097.298500219934
 21
941.8059261997058
 31
0.0
  0
LINE
  5
387
330
22
100
AcDbEntity
  8
_4-7_
  6
Continuous
 62
     7
100
AcDbLine
 10
1097.298500219934
 20
941.8059261997058
 30
0.0
 11
1097.343353519658
 21
941.774550831318
 31
0.0
  0
LINE
  5
388
330
22
100
AcDbEntity
  8
_4-7_
  6
Continuous
 62
     7
100
AcDbLine
 10
1097.343353519658
 20
941.774550831318
 30
0.0
 11
1097.392481009308
 21
941.7522151336141
 31
0.0
  0
LINE
  5
389
330
22
100
AcDbEntity
  8
_4-7_
  6
Continuous
 62
     7
100
AcDbLine
 10
1097.392481009308
 20
941.7522151336141
 30
0.0
 11
1097.444389974969
 21
941.739597765467
 31
0.0
  0
LINE
  5
38A
330
22
100
AcDbEntity
  8
_4-7_
  6
Continuous
 62
     7
100
AcDbLine
 10
1097.444389974969
 20
941.739597765467
 30
0.0
 11
1097.470544058196
 21
941.7370820992227
 31
0.0
  0
LINE
  5
38B
330
22
100
AcDbEntity
  8
_4-7_
  6
Continuous
 62
     7
100
AcDbLine
 10
1097.470544058196
 20
947.3028715694736
 30
0.0
 11
1097.470544058196
 21
947.3028715694736
 31
0.0
  0
LINE
  5
38C
330
22
100
AcDbEntity
  8
_4-7_
  6
Continuous
 62
     7
100
AcDbLine
 10
1097.470544058196
 20
947.3028715694736
 30
0.0
 11
1097.41784041395
 21
947.2952090965685
 31
0.0
  0
LINE
  5
38D
330
22
100
AcDbEntity
  8
_4-7_
  6
Continuous
 62
     7
100
AcDbLine
 10
1097.41784041395
 20
947.2952090965685
 30
0.0
 11
1097.367147713039
 21
947.2776013048767
 31
0.0
  0
LINE
  5
38E
330
22
100
AcDbEntity
  8
_4-7_
  6
Continuous
 62
     7
100
AcDbLine
 10
1097.367147713039
 20
947.2776013048767
 30
0.0
 11
1097.320006227527
 21
947.2505831982383
 31
0.0
  0
LINE
  5
38F
330
22
100
AcDbEntity
  8
_4-7_
  6
Continuous
 62
     7
100
AcDbLine
 10
1097.320006227527
 20
947.2505831982383
 30
0.0
 11
1097.277848327599
 21
947.2149757081515
 31
0.0
  0
LINE
  5
390
330
22
100
AcDbEntity
  8
_4-7_
  6
Continuous
 62
     7
100
AcDbLine
 10
1097.277848327599
 20
947.2149757081515
 30
0.0
 11
1097.241954959709
 21
947.1718607501848
 31
0.0
  0
LINE
  5
391
330
22
100
AcDbEntity
  8
_4-7_
  6
Continuous
 62
     7
100
AcDbLine
 10
1097.241954959709
 20
947.1718607501848
 30
0.0
 11
1097.213416725679
 21
947.1225483505188
 31
0.0
  0
LINE
  5
392
330
22
100
AcDbEntity
  8
_4-7_
  6
Continuous
 62
     7
100
AcDbLine
 10
1097.213416725679
 20
947.1225483505188
 30
0.0
 11
1097.193100745308
 21
947.0685368414635
 31
0.0
  0
LINE
  5
393
330
22
100
AcDbEntity
  8
_4-7_
  6
Continuous
 62
     7
100
AcDbLine
 10
1097.193100745308
 20
947.0685368414635
 30
0.0
 11
1097.18162430938
 21
947.0114673353911
 31
0.0
  0
LINE
  5
394
330
22
100
AcDbEntity
  8
_4-7_
  6
Continuous
 62
     7
100
AcDbLine
 10
1097.18162430938
 20
947.0114673353911
 30
0.0
 11
1097.179336123593
 21
946.9530738603648
 31
0.0
  0
LINE
  5
395
330
22
100
AcDbEntity
  8
_4-7_
  6
Continuous
 62
     7
100
AcDbLine
 10
1097.179336123593
 20
946.9530738603648
 30
0.0
 11
1097.186305713313
 21
946.8951306725742
 31
0.0
  0
LINE
  5
396
330
22
100
AcDbEntity
  8
_4-7_
  6
Continuous
 62
     7
100
AcDbLine
 10
1097.186305713313
 20
946.8951306725742
 30
0.0
 11
1097.202321311086
 21
946.8393983464606
 31
0.0
  0
LINE
  5
397
330
22
100
AcDbEntity
  8
_4-7_
  6
Continuous
 62
     7
100
AcDbLine
 10
1097.202321311086
 20
946.8393983464606
 30
0.0
 11
1097.226896291075
 21
946.7875702805502
 31
0.0
  0
LINE
  5
398
330
22
100
AcDbEntity
  8
_4-7_
  6
Continuous
 62
     7
100
AcDbLine
 10
1097.226896291075
 20
946.7875702805502
 30
0.0
 11
1097.25928395495
 21
946.7412212443996
 31
0.0
  0
LINE
  5
399
330
22
100
AcDbEntity
  8
_4-7_
  6
Continuous
 62
     7
100
AcDbLine
 10
1097.25928395495
 20
946.7412212443996
 30
0.0
 11
1097.298500219934
 21
946.7017595300191
 31
0.0
  0
LINE
  5
39A
330
22
100
AcDbEntity
  8
_4-7_
  6
Continuous
 62
     7
100
AcDbLine
 10
1097.298500219934
 20
946.7017595300191
 30
0.0
 11
1097.343353519658
 21
946.6703841616308
 31
0.0
  0
LINE
  5
39B
330
22
100
AcDbEntity
  8
_4-7_
  6
Continuous
 62
     7
100
AcDbLine
 10
1097.343353519658
 20
946.6703841616308
 30
0.0
 11
1097.392481009308
 21
946.6480484639273
 31
0.0
  0
LINE
  5
39C
330
22
100
AcDbEntity
  8
_4-7_
  6
Continuous
 62
     7
100
AcDbLine
 10
1097.392481009308
 20
946.6480484639273
 30
0.0
 11
1097.444389974969
 21
946.63543109578
 31
0.0
  0
LINE
  5
39D
330
22
100
AcDbEntity
  8
_4-7_
  6
Continuous
 62
     7
100
AcDbLine
 10
1097.444389974969
 20
946.63543109578
 30
0.0
 11
1097.470544058196
 21
946.632915429536
 31
0.0
  0
LINE
  5
39E
330
22
100
AcDbEntity
  8
_4-7_
  6
Continuous
 62
     7
100
AcDbLine
 10
1097.267283551446
 20
935.3467312259724
 30
0.0
 11
1097.267283551446
 21
935.3467312259724
 31
0.0
  0
LINE
  5
39F
330
22
100
AcDbEntity
  8
_4-7_
  6
Continuous
 62
     7
100
AcDbLine
 10
1097.267283551446
 20
935.3467312259724
 30
0.0
 11
1097.244667792757
 21
935.2632410217431
 31
0.0
  0
LINE
  5
3A0
330
22
100
AcDbEntity
  8
_4-7_
  6
Continuous
 62
     7
100
AcDbLine
 10
1097.244667792757
 20
935.2632410217431
 30
0.0
 11
1097.235582557794
 21
935.1767016141083
 31
0.0
  0
LINE
  5
3A1
330
22
100
AcDbEntity
  8
_4-7_
  6
Continuous
 62
     7
100
AcDbLine
 10
1097.235582557794
 20
935.1767016141083
 30
0.0
 11
1097.235861468266
 21
935.1405908752223
 31
0.0
  0
LINE
  5
3A2
330
22
100
AcDbEntity
  8
_4-7_
  6
Continuous
 62
     7
100
AcDbLine
 10
1096.918647651946
 20
933.9037487707228
 30
0.0
 11
1096.918647651946
 21
933.9037487707228
 31
0.0
  0
LINE
  5
3A3
330
22
100
AcDbEntity
  8
_4-7_
  6
Continuous
 62
     7
100
AcDbLine
 10
1096.918647651946
 20
933.9037487707228
 30
0.0
 11
1096.914872165982
 21
933.9384553802089
 31
0.0
  0
LINE
  5
3A4
330
22
100
AcDbEntity
  8
_4-7_
  6
Continuous
 62
     7
100
AcDbLine
 10
1096.914872165982
 20
933.9384553802089
 30
0.0
 11
1096.905672269763
 21
933.9719139348241
 31
0.0
  0
LINE
  5
3A5
330
22
100
AcDbEntity
  8
_4-7_
  6
Continuous
 62
     7
100
AcDbLine
 10
1096.905672269763
 20
933.9719139348241
 30
0.0
 11
1096.891327497481
 21
934.0031078133176
 31
0.0
  0
LINE
  5
3A6
330
22
100
AcDbEntity
  8
_4-7_
  6
Continuous
 62
     7
100
AcDbLine
 10
1096.891327497481
 20
934.0031078133176
 30
0.0
 11
1096.872273707784
 21
934.0310892054759
 31
0.0
  0
LINE
  5
3A7
330
22
100
AcDbEntity
  8
_4-7_
  6
Continuous
 62
     7
100
AcDbLine
 10
1096.872273707784
 20
934.0310892054759
 30
0.0
 11
1096.849089840429
 21
934.0550079108577
 31
0.0
  0
LINE
  5
3A8
330
22
100
AcDbEntity
  8
_4-7_
  6
Continuous
 62
     7
100
AcDbLine
 10
1096.849089840429
 20
934.0550079108577
 30
0.0
 11
1096.822480325493
 21
934.0741371717033
 31
0.0
  0
LINE
  5
3A9
330
22
100
AcDbEntity
  8
_4-7_
  6
Continuous
 62
     7
100
AcDbLine
 10
1096.822480325493
 20
934.0741371717033
 30
0.0
 11
1096.793253679624
 21
934.0878957551021
 31
0.0
  0
LINE
  5
3AA
330
22
100
AcDbEntity
  8
_4-7_
  6
Continuous
 62
     7
100
AcDbLine
 10
1096.793253679624
 20
934.0878957551021
 30
0.0
 11
1096.762297939668
 21
934.0958656134592
 31
0.0
  0
LINE
  5
3AB
330
22
100
AcDbEntity
  8
_4-7_
  6
Continuous
 62
     7
100
AcDbLine
 10
1096.762297939668
 20
934.0958656134592
 30
0.0
 11
1096.730553680117
 21
934.0978045866622
 31
0.0
  0
LINE
  5
3AC
330
22
100
AcDbEntity
  8
_4-7_
  6
Continuous
 62
     7
100
AcDbLine
 10
1096.730553680117
 20
934.0978045866622
 30
0.0
 11
1096.698985434235
 21
934.0936537599905
 31
0.0
  0
LINE
  5
3AD
330
22
100
AcDbEntity
  8
_4-7_
  6
Continuous
 62
     7
100
AcDbLine
 10
1096.698985434235
 20
934.0936537599905
 30
0.0
 11
1096.668552387199
 21
934.0835392542123
 31
0.0
  0
LINE
  5
3AE
330
22
100
AcDbEntity
  8
_4-7_
  6
Continuous
 62
     7
100
AcDbLine
 10
1096.668552387199
 20
934.0835392542123
 30
0.0
 11
1096.640179231743
 21
934.0677683934682
 31
0.0
  0
LINE
  5
3AF
330
22
100
AcDbEntity
  8
_4-7_
  6
Continuous
 62
     7
100
AcDbLine
 10
1096.640179231743
 20
934.0677683934682
 30
0.0
 11
1096.614728071839
 21
934.0468203673806
 31
0.0
  0
LINE
  5
3B0
330
22
100
AcDbEntity
  8
_4-7_
  6
Continuous
 62
     7
100
AcDbLine
 10
1096.614728071839
 20
934.0468203673806
 30
0.0
 11
1096.5929722281
 21
934.0213316711228
 31
0.0
  0
LINE
  5
3B1
330
22
100
AcDbEntity
  8
_4-7_
  6
Continuous
 62
     7
100
AcDbLine
 10
1096.5929722281
 20
934.0213316711228
 30
0.0
 11
1096.575572740831
 21
933.992076765832
 31
0.0
  0
LINE
  5
3B2
330
22
100
AcDbEntity
  8
_4-7_
  6
Continuous
 62
     7
100
AcDbLine
 10
1096.575572740831
 20
933.992076765832
 30
0.0
 11
1096.563058284647
 21
933.9599445470017
 31
0.0
  0
LINE
  5
3B3
330
22
100
AcDbEntity
  8
_4-7_
  6
Continuous
 62
     7
100
AcDbLine
 10
1096.563058284647
 20
933.9599445470017
 30
0.0
 11
1096.555809104966
 21
933.9259113358423
 31
0.0
  0
LINE
  5
3B4
330
22
100
AcDbEntity
  8
_4-7_
  6
Continuous
 62
     7
100
AcDbLine
 10
1096.555809104966
 20
933.9259113358423
 30
0.0
 11
1096.554045464446
 21
933.8910112142523
 31
0.0
  0
LINE
  5
3B5
330
22
100
AcDbEntity
  8
_4-7_
  6
Continuous
 62
     7
100
AcDbLine
 10
1096.554045464446
 20
933.8910112142523
 30
0.0
 11
1096.554045464446
 21
933.8910112142523
 31
0.0
  0
LINE
  5
3B6
330
22
100
AcDbEntity
  8
_4-7_
  6
Continuous
 62
     7
100
AcDbLine
 10
1093.615075308196
 20
957.0085442060284
 30
0.0
 11
1093.615075308196
 21
959.5682224390975
 31
0.0
  0
LINE
  5
3B7
330
22
100
AcDbEntity
  8
_4-7_
  6
Continuous
 62
     7
100
AcDbLine
 10
1093.615075308196
 20
959.5682224390975
 30
0.0
 11
1095.490075308196
 21
959.5682224390975
 31
0.0
  0
LINE
  5
3B8
330
22
100
AcDbEntity
  8
_4-7_
  6
Continuous
 62
     7
100
AcDbLine
 10
1093.615075308196
 20
957.0085442060284
 30
0.0
 11
1093.146325308196
 21
956.4931936309006
 31
0.0
  0
LINE
  5
3B9
330
22
100
AcDbEntity
  8
_4-7_
  6
Continuous
 62
     7
100
AcDbLine
 10
1093.146325308196
 20
956.4931936309006
 30
0.0
 11
1093.146325308196
 21
955.1815650514541
 31
0.0
  0
LINE
  5
3BA
330
22
100
AcDbEntity
  8
_4-7_
  6
Continuous
 62
     7
100
AcDbLine
 10
1093.146325308196
 20
955.1815650514541
 30
0.0
 11
1093.488962339447
 21
952.6080692306734
 31
0.0
  0
LINE
  5
3BB
330
22
100
AcDbEntity
  8
_4-7_
  6
Continuous
 62
     7
100
AcDbLine
 10
1093.488962339447
 20
952.6080692306734
 30
0.0
 11
1093.640164683196
 21
952.3533101628473
 31
0.0
  0
LINE
  5
3BC
330
22
100
AcDbEntity
  8
_4-7_
  6
Continuous
 62
     7
100
AcDbLine
 10
1093.640164683196
 20
952.3533101628473
 30
0.0
 11
1093.615075308196
 21
952.3533101628473
 31
0.0
  0
LINE
  5
3BD
330
22
100
AcDbEntity
  8
_4-7_
  6
Continuous
 62
     7
100
AcDbLine
 10
1093.615075308196
 20
952.3533101628473
 30
0.0
 11
1093.615075308196
 21
951.2195382337235
 31
0.0
  0
LINE
  5
3BE
330
22
100
AcDbEntity
  8
_4-7_
  6
Continuous
 62
     7
100
AcDbLine
 10
1093.615075308196
 20
951.2195382337235
 30
0.0
 11
1093.885708158552
 21
950.7041873568484
 31
0.0
  0
LINE
  5
3BF
330
22
100
AcDbEntity
  8
_4-7_
  6
Continuous
 62
     7
100
AcDbLine
 10
1093.804518276947
 20
950.5495820937849
 30
0.0
 11
1093.193200308196
 21
950.5495820937849
 31
0.0
  0
LINE
  5
3C0
330
22
100
AcDbEntity
  8
_4-7_
  6
Continuous
 62
     7
100
AcDbLine
 10
1093.193200308196
 20
950.5495820937849
 30
0.0
 11
1093.193200308196
 21
947.9037129726103
 31
0.0
  0
LINE
  5
3C1
330
22
100
AcDbEntity
  8
_4-7_
  6
Continuous
 62
     7
100
AcDbLine
 10
1093.193200308196
 20
947.9037129726103
 30
0.0
 11
1093.506618745696
 21
947.3028715694727
 31
0.0
  0
LINE
  5
3C2
330
22
100
AcDbEntity
  8
_4-7_
  6
Continuous
 62
     7
100
AcDbLine
 10
1093.506618745696
 20
947.3028715694727
 30
0.0
 11
1093.509606558197
 21
947.3028715694727
 31
0.0
  0
LINE
  5
3C3
330
22
100
AcDbEntity
  8
_4-7_
  6
Continuous
 62
     7
100
AcDbLine
 10
1093.509609166499
 20
947.302871790587
 30
0.0
 11
1093.509606558197
 21
947.3028715694727
 31
0.0
  0
LINE
  5
3C4
330
22
100
AcDbEntity
  8
_4-7_
  6
Continuous
 62
     7
100
AcDbLine
 10
1093.509609166499
 20
947.302871790587
 30
0.0
 11
1093.509606558197
 21
947.3028715694727
 31
0.0
  0
LINE
  5
3C5
330
22
100
AcDbEntity
  8
_4-7_
  6
Continuous
 62
     7
100
AcDbLine
 10
1093.529976089446
 20
946.6329154295353
 30
0.0
 11
1093.193200308196
 21
946.6329154295353
 31
0.0
  0
LINE
  5
3C6
330
22
100
AcDbEntity
  8
_4-7_
  6
Continuous
 62
     7
100
AcDbLine
 10
1093.193200308196
 20
946.6329154295353
 30
0.0
 11
1093.193200308196
 21
943.0096447190523
 31
0.0
  0
LINE
  5
3C7
330
22
100
AcDbEntity
  8
_4-7_
  6
Continuous
 62
     7
100
AcDbLine
 10
1093.193200308196
 20
943.0096447190523
 30
0.0
 11
1093.50960480011
 21
942.4070501129484
 31
0.0
  0
LINE
  5
3C8
330
22
100
AcDbEntity
  8
_4-7_
  6
Continuous
 62
     7
100
AcDbLine
 10
1093.509606558197
 20
942.4070382391599
 30
0.0
 11
1093.511851327169
 21
942.7054453624352
 31
0.0
  0
LINE
  5
3C9
330
22
100
AcDbEntity
  8
_4-7_
  6
Continuous
 62
     7
100
AcDbLine
 10
1093.511851327169
 20
942.7054453624352
 30
0.0
 11
1093.712276331934
 21
942.7162487652857
 31
0.0
  0
LINE
  5
3CA
330
22
100
AcDbEntity
  8
_4-7_
  6
Continuous
 62
     7
100
AcDbLine
 10
1093.811440107038
 20
942.870854028348
 30
0.0
 11
1093.529976089446
 21
943.3862049052223
 31
0.0
  0
LINE
  5
3CB
330
22
100
AcDbEntity
  8
_4-7_
  6
Continuous
 62
     7
100
AcDbLine
 10
1093.529976089446
 20
943.3862049052223
 30
0.0
 11
1093.529975994369
 21
943.6846120733447
 31
0.0
  0
LINE
  5
3CC
330
22
100
AcDbEntity
  8
_4-7_
  6
Continuous
 62
     7
100
AcDbLine
 10
1093.529975994369
 20
943.6846120733447
 30
0.0
 11
1093.747496245697
 21
943.6954154313481
 31
0.0
  0
LINE
  5
3CD
330
22
100
AcDbEntity
  8
_4-7_
  6
Continuous
 62
     7
100
AcDbLine
 10
1093.847239839271
 20
943.8500206944105
 30
0.0
 11
1093.529976089446
 21
944.3653715712857
 31
0.0
  0
LINE
  5
3CE
330
22
100
AcDbEntity
  8
_4-7_
  6
Continuous
 62
     7
100
AcDbLine
 10
1093.529976089446
 20
944.3653715712857
 30
0.0
 11
1093.529976089446
 21
944.6637787969782
 31
0.0
  0
LINE
  5
3CF
330
22
100
AcDbEntity
  8
_4-7_
  6
Continuous
 62
     7
100
AcDbLine
 10
1093.529976089446
 20
944.6637787969782
 30
0.0
 11
1093.747496245697
 21
944.6745820974104
 31
0.0
  0
LINE
  5
3D0
330
22
100
AcDbEntity
  8
_4-7_
  6
Continuous
 62
     7
100
AcDbLine
 10
1093.847239839271
 20
944.829187360473
 30
0.0
 11
1093.529976089446
 21
945.344538237348
 31
0.0
  0
LINE
  5
3D1
330
22
100
AcDbEntity
  8
_4-7_
  6
Continuous
 62
     7
100
AcDbLine
 10
1093.529976089446
 20
945.344538237348
 30
0.0
 11
1093.529976089446
 21
945.6429454630406
 31
0.0
  0
LINE
  5
3D2
330
22
100
AcDbEntity
  8
_4-7_
  6
Continuous
 62
     7
100
AcDbLine
 10
1093.529976089446
 20
945.6429454630406
 30
0.0
 11
1093.747496245697
 21
945.6537487634729
 31
0.0
  0
LINE
  5
3D3
330
22
100
AcDbEntity
  8
_4-7_
  6
Continuous
 62
     7
100
AcDbLine
 10
1093.847239839271
 20
945.8083540265352
 30
0.0
 11
1093.529975994369
 21
946.3237049034104
 31
0.0
  0
LINE
  5
3D4
330
22
100
AcDbEntity
  8
_4-7_
  6
Continuous
 62
     7
100
AcDbLine
 10
1093.529975994369
 20
946.3237049034104
 30
0.0
 11
1093.529976089446
 21
946.6329154295353
 31
0.0
  0
LINE
  5
3D5
330
22
100
AcDbEntity
  8
_4-7_
  6
Continuous
 62
     7
100
AcDbLine
 10
1093.509609166499
 20
947.302871790587
 30
0.0
 11
1093.511912417278
 21
947.6012789587084
 31
0.0
  0
LINE
  5
3D6
330
22
100
AcDbEntity
  8
_4-7_
  6
Continuous
 62
     7
100
AcDbLine
 10
1093.511912417278
 20
947.6012789587084
 30
0.0
 11
1093.710315464446
 21
947.6120820955976
 31
0.0
  0
LINE
  5
3D7
330
22
100
AcDbEntity
  8
_4-7_
  6
Continuous
 62
     7
100
AcDbLine
 10
1093.811623052147
 20
947.7666873586601
 30
0.0
 11
1093.529975994369
 21
948.2820382355352
 31
0.0
  0
LINE
  5
3D8
330
22
100
AcDbEntity
  8
_4-7_
  6
Continuous
 62
     7
100
AcDbLine
 10
1093.529975994369
 20
948.2820382355352
 30
0.0
 11
1093.529975994369
 21
948.5804454036568
 31
0.0
  0
LINE
  5
3D9
330
22
100
AcDbEntity
  8
_4-7_
  6
Continuous
 62
     7
100
AcDbLine
 10
1093.529975994369
 20
948.5804454036568
 30
0.0
 11
1093.747496245697
 21
948.59124876166
 31
0.0
  0
LINE
  5
3DA
330
22
100
AcDbEntity
  8
_4-7_
  6
Continuous
 62
     7
100
AcDbLine
 10
1093.847239839271
 20
948.7458540247224
 30
0.0
 11
1093.529976089446
 21
949.2612049015976
 31
0.0
  0
LINE
  5
3DB
330
22
100
AcDbEntity
  8
_4-7_
  6
Continuous
 62
     7
100
AcDbLine
 10
1093.529976089446
 20
949.2612049015976
 30
0.0
 11
1093.529975994369
 21
949.5596120697193
 31
0.0
  0
LINE
  5
3DC
330
22
100
AcDbEntity
  8
_4-7_
  6
Continuous
 62
     7
100
AcDbLine
 10
1093.529975994369
 20
949.5596120697193
 30
0.0
 11
1093.748050053502
 21
949.5705601659475
 31
0.0
  0
LINE
  5
3DD
330
22
100
AcDbEntity
  8
_4-7_
  6
Continuous
 62
     7
100
AcDbLine
 10
1093.847239839271
 20
949.725020690786
 30
0.0
 11
1093.529975994369
 21
950.2403715676601
 31
0.0
  0
LINE
  5
3DE
330
22
100
AcDbEntity
  8
_4-7_
  6
Continuous
 62
     7
100
AcDbLine
 10
1093.529975994369
 20
950.2403715676601
 30
0.0
 11
1093.529976092888
 21
950.5495820937849
 31
0.0
  0
LINE
  5
3DF
330
22
100
AcDbEntity
  8
_4-7_
  6
Continuous
 62
     7
100
AcDbLine
 10
1093.529976089446
 20
941.7370820992234
 30
0.0
 11
1093.193200308196
 21
941.7370820992234
 31
0.0
  0
LINE
  5
3E0
330
22
100
AcDbEntity
  8
_4-7_
  6
Continuous
 62
     7
100
AcDbLine
 10
1093.193200308196
 20
941.7370820992234
 30
0.0
 11
1093.193200308196
 21
939.7069310149497
 31
0.0
  0
LINE
  5
3E1
330
22
100
AcDbEntity
  8
_4-7_
  6
Continuous
 62
     7
100
AcDbLine
 10
1093.193200308196
 20
939.7069310149497
 30
0.0
 11
1093.509316401947
 21
937.511204908848
 31
0.0
  0
LINE
  5
3E2
330
22
100
AcDbEntity
  8
_4-7_
  6
Continuous
 62
     7
100
AcDbLine
 10
1093.509316401947
 20
937.511204908848
 30
0.0
 11
1093.509775475485
 21
937.8096118364366
 31
0.0
  0
LINE
  5
3E3
330
22
100
AcDbEntity
  8
_4-7_
  6
Continuous
 62
     7
100
AcDbLine
 10
1093.509775475485
 20
937.8096118364366
 30
0.0
 11
1093.702705776947
 21
937.8204154349727
 31
0.0
  0
LINE
  5
3E4
330
22
100
AcDbEntity
  8
_4-7_
  6
Continuous
 62
     7
100
AcDbLine
 10
1093.509316401947
 20
937.511204908848
 30
0.0
 11
1093.780239408551
 21
936.9958540319728
 31
0.0
  0
LINE
  5
3E5
330
22
100
AcDbEntity
  8
_4-7_
  6
Continuous
 62
     7
100
AcDbLine
 10
1093.79305362994
 20
937.9750206980352
 30
0.0
 11
1093.511427171526
 21
938.4903715749103
 31
0.0
  0
LINE
  5
3E6
330
22
100
AcDbEntity
  8
_4-7_
  6
Continuous
 62
     7
100
AcDbLine
 10
1093.511427171526
 20
938.4903715749103
 30
0.0
 11
1093.51273023669
 21
938.7887785024975
 31
0.0
  0
LINE
  5
3E7
330
22
100
AcDbEntity
  8
_4-7_
  6
Continuous
 62
     7
100
AcDbLine
 10
1093.51273023669
 20
938.7887785024975
 30
0.0
 11
1093.714184526946
 21
938.7995821010353
 31
0.0
  0
LINE
  5
3E8
330
22
100
AcDbEntity
  8
_4-7_
  6
Continuous
 62
     7
100
AcDbLine
 10
1093.807000461834
 20
938.9541873640975
 30
0.0
 11
1093.517083049755
 21
939.4695380004385
 31
0.0
  0
LINE
  5
3E9
330
22
100
AcDbEntity
  8
_4-7_
  6
Continuous
 62
     7
100
AcDbLine
 10
1093.517083049755
 20
939.4695380004385
 30
0.0
 11
1093.51962232519
 21
939.7679451685613
 31
0.0
  0
LINE
  5
3EA
330
22
100
AcDbEntity
  8
_4-7_
  6
Continuous
 62
     7
100
AcDbLine
 10
1093.51962232519
 20
939.7679451685613
 30
0.0
 11
1093.728780672233
 21
939.7787487670976
 31
0.0
  0
LINE
  5
3EB
330
22
100
AcDbEntity
  8
_4-7_
  6
Continuous
 62
     7
100
AcDbLine
 10
1093.827064807338
 20
939.9333540301601
 30
0.0
 11
1093.52693816721
 21
940.4487046665021
 31
0.0
  0
LINE
  5
3EC
330
22
100
AcDbEntity
  8
_4-7_
  6
Continuous
 62
     7
100
AcDbLine
 10
1093.52693816721
 20
940.4487046665021
 30
0.0
 11
1093.529976089446
 21
940.7471121327276
 31
0.0
  0
LINE
  5
3ED
330
22
100
AcDbEntity
  8
_4-7_
  6
Continuous
 62
     7
100
AcDbLine
 10
1093.529976089446
 20
940.7471121327276
 30
0.0
 11
1093.747496245697
 21
940.7579154331612
 31
0.0
  0
LINE
  5
3EE
330
22
100
AcDbEntity
  8
_4-7_
  6
Continuous
 62
     7
100
AcDbLine
 10
1093.847239839271
 20
940.9125206962224
 30
0.0
 11
1093.529975994369
 21
941.4278715730977
 31
0.0
  0
LINE
  5
3EF
330
22
100
AcDbEntity
  8
_4-7_
  6
Continuous
 62
     7
100
AcDbLine
 10
1093.529975994369
 20
941.4278715730977
 30
0.0
 11
1093.529976089446
 21
941.7370820992234
 31
0.0
  0
LINE
  5
3F0
330
22
100
AcDbEntity
  8
_4-7_
  6
Continuous
 62
     7
100
AcDbLine
 10
1093.699049526946
 20
936.8412487689104
 30
0.0
 11
1093.615075308196
 21
936.8412487689104
 31
0.0
  0
LINE
  5
3F1
330
22
100
AcDbEntity
  8
_4-7_
  6
Continuous
 62
     7
100
AcDbLine
 10
1093.615075308196
 20
936.8412487689104
 30
0.0
 11
1093.615075308196
 21
936.3516654358784
 31
0.0
  0
LINE
  5
3F2
330
22
100
AcDbEntity
  8
_4-7_
  6
Continuous
 62
     7
100
AcDbLine
 10
1093.615075308196
 20
936.3516654358784
 30
0.0
 11
1093.708825308196
 21
936.3516654358784
 31
0.0
  0
LINE
  5
3F3
330
22
100
AcDbEntity
  8
_4-7_
  6
Continuous
 62
     7
100
AcDbLine
 10
1093.708825308196
 20
936.3516654358784
 30
0.0
 11
1093.708825308196
 21
935.3467312259727
 31
0.0
  0
LINE
  5
3F4
330
22
100
AcDbEntity
  8
_4-7_
  6
Continuous
 62
     7
100
AcDbLine
 10
1093.708825308196
 20
935.3467312259727
 30
0.0
 11
1093.712867064946
 21
935.3467312259727
 31
0.0
  0
LINE
  5
3F5
330
22
100
AcDbEntity
  8
_4-7_
  6
Continuous
 62
     7
100
AcDbLine
 10
1093.744289058197
 20
935.1405908752225
 30
0.0
 11
1093.744289149783
 21
931.4215648797111
 31
0.0
  0
LINE
  5
3F6
330
22
100
AcDbEntity
  8
_4-7_
  6
Continuous
 62
     7
100
AcDbLine
 10
1093.744289149783
 20
931.4215648797111
 30
0.0
 11
1094.019562495696
 21
931.0144268646103
 31
0.0
  0
LINE
  5
3F7
330
22
100
AcDbEntity
  8
_4-7_
  6
Continuous
 62
     7
100
AcDbLine
 10
1094.019562495696
 20
931.0144268646103
 30
0.0
 11
1094.646325308196
 21
930.1932224572228
 31
0.0
  0
LINE
  5
3F8
330
22
100
AcDbEntity
  8
_4-7_
  6
Continuous
 62
     7
100
AcDbLine
 10
1094.646325308196
 20
930.1932224572228
 30
0.0
 11
1094.739686857881
 21
930.1932224572228
 31
0.0
  0
LINE
  5
3F9
330
22
100
AcDbEntity
  8
_4-7_
  6
Continuous
 62
     7
100
AcDbLine
 10
1094.739686857881
 20
930.1932224572228
 30
0.0
 11
1094.061503039558
 21
931.4215648797111
 31
0.0
  0
LINE
  5
3FA
330
22
100
AcDbEntity
  8
_4-7_
  6
Continuous
 62
     7
100
AcDbLine
 10
1094.061503039558
 20
931.4215648797111
 30
0.0
 11
1094.061502964446
 21
933.9037487707232
 31
0.0
  0
LINE
  5
3FB
330
22
100
AcDbEntity
  8
_4-7_
  6
Continuous
 62
     7
100
AcDbLine
 10
1094.426105151946
 20
933.9037487707232
 30
0.0
 11
1094.426104981051
 21
931.4215649751476
 31
0.0
  0
LINE
  5
3FC
330
22
100
AcDbEntity
  8
_4-7_
  6
Continuous
 62
     7
100
AcDbLine
 10
1094.426104981051
 20
931.4215649751476
 30
0.0
 11
1095.104288959322
 21
930.1932224572228
 31
0.0
  0
LINE
  5
3FD
330
22
100
AcDbEntity
  8
_4-7_
  6
Continuous
 62
     7
100
AcDbLine
 10
1095.104288959322
 20
930.1932224572228
 30
0.0
 11
1095.490075308196
 21
930.1932224572228
 31
0.0
  0
LINE
  5
3FE
330
22
100
AcDbEntity
  8
_4-7_
  6
Continuous
 62
     7
100
AcDbLine
 10
1093.804518276946
 20
950.5495820937849
 30
0.0
 11
1093.804518276946
 21
950.5495820937849
 31
0.0
  0
LINE
  5
3FF
330
22
100
AcDbEntity
  8
_4-7_
  6
Continuous
 62
     7
100
AcDbLine
 10
1093.804518276946
 20
950.5495820937849
 30
0.0
 11
1093.821367308758
 21
950.552490709232
 31
0.0
  0
LINE
  5
400
330
22
100
AcDbEntity
  8
_4-7_
  6
Continuous
 62
     7
100
AcDbLine
 10
1093.821367308758
 20
950.552490709232
 30
0.0
 11
1093.837500961892
 21
950.5585718093131
 31
0.0
  0
LINE
  5
401
330
22
100
AcDbEntity
  8
_4-7_
  6
Continuous
 62
     7
100
AcDbLine
 10
1093.837500961892
 20
950.5585718093131
 30
0.0
 11
1093.852429023459
 21
950.5676406228799
 31
0.0
  0
LINE
  5
402
330
22
100
AcDbEntity
  8
_4-7_
  6
Continuous
 62
     7
100
AcDbLine
 10
1093.852429023459
 20
950.5676406228799
 30
0.0
 11
1093.865697911863
 21
950.5794215986208
 31
0.0
  0
LINE
  5
403
330
22
100
AcDbEntity
  8
_4-7_
  6
Continuous
 62
     7
100
AcDbLine
 10
1093.865697911863
 20
950.5794215986208
 30
0.0
 11
1093.876904458644
 21
950.5935567775491
 31
0.0
  0
LINE
  5
404
330
22
100
AcDbEntity
  8
_4-7_
  6
Continuous
 62
     7
100
AcDbLine
 10
1093.876904458644
 20
950.5935567775491
 30
0.0
 11
1093.88570815855
 21
950.6096166694067
 31
0.0
  0
LINE
  5
405
330
22
100
AcDbEntity
  8
_4-7_
  6
Continuous
 62
     7
100
AcDbLine
 10
1093.88570815855
 20
950.6096166694067
 30
0.0
 11
1093.891841515614
 21
950.6271133025057
 31
0.0
  0
LINE
  5
406
330
22
100
AcDbEntity
  8
_4-7_
  6
Continuous
 62
     7
100
AcDbLine
 10
1093.891841515614
 20
950.6271133025057
 30
0.0
 11
1093.895118170884
 21
950.6455150505027
 31
0.0
  0
LINE
  5
407
330
22
100
AcDbEntity
  8
_4-7_
  6
Continuous
 62
     7
100
AcDbLine
 10
1093.895118170884
 20
950.6455150505027
 30
0.0
 11
1093.895438564848
 21
950.6642627855971
 31
0.0
  0
LINE
  5
408
330
22
100
AcDbEntity
  8
_4-7_
  6
Continuous
 62
     7
100
AcDbLine
 10
1093.895438564848
 20
950.6642627855971
 30
0.0
 11
1093.892792962498
 21
950.6827868673449
 31
0.0
  0
LINE
  5
409
330
22
100
AcDbEntity
  8
_4-7_
  6
Continuous
 62
     7
100
AcDbLine
 10
1093.892792962498
 20
950.6827868673449
 30
0.0
 11
1093.887261749123
 21
950.7005244508958
 31
0.0
  0
LINE
  5
40A
330
22
100
AcDbEntity
  8
_4-7_
  6
Continuous
 62
     7
100
AcDbLine
 10
1093.887261749123
 20
950.7005244508958
 30
0.0
 11
1093.879012987842
 21
950.7169365887488
 31
0.0
  0
LINE
  5
40B
330
22
100
AcDbEntity
  8
_4-7_
  6
Continuous
 62
     7
100
AcDbLine
 10
1093.879012987842
 20
950.7169365887488
 30
0.0
 11
1093.879012742519
 21
950.7169369897638
 31
0.0
  0
LINE
  5
40C
330
22
100
AcDbEntity
  8
_4-7_
  6
Continuous
 62
     7
100
AcDbLine
 10
1093.747496245696
 20
949.5704154277232
 30
0.0
 11
1093.747496245696
 21
949.5704154277232
 31
0.0
  0
LINE
  5
40D
330
22
100
AcDbEntity
  8
_4-7_
  6
Continuous
 62
     7
100
AcDbLine
 10
1093.747496245696
 20
949.5704154277232
 30
0.0
 11
1093.769073263405
 21
949.5782363966352
 31
0.0
  0
LINE
  5
40E
330
22
100
AcDbEntity
  8
_4-7_
  6
Continuous
 62
     7
100
AcDbLine
 10
1093.769073263405
 20
949.5782363966352
 30
0.0
 11
1093.789087187376
 21
949.5900578471216
 31
0.0
  0
LINE
  5
40F
330
22
100
AcDbEntity
  8
_4-7_
  6
Continuous
 62
     7
100
AcDbLine
 10
1093.789087187376
 20
949.5900578471216
 30
0.0
 11
1093.806929904656
 21
949.6055205903912
 31
0.0
  0
LINE
  5
410
330
22
100
AcDbEntity
  8
_4-7_
  6
Continuous
 62
     7
100
AcDbLine
 10
1093.806929904656
 20
949.6055205903912
 30
0.0
 11
1093.822059273309
 21
949.6241547988145
 31
0.0
  0
LINE
  5
411
330
22
100
AcDbEntity
  8
_4-7_
  6
Continuous
 62
     7
100
AcDbLine
 10
1093.822059273309
 20
949.6241547988145
 30
0.0
 11
1093.834015595124
 21
949.6453942813975
 31
0.0
  0
LINE
  5
412
330
22
100
AcDbEntity
  8
_4-7_
  6
Continuous
 62
     7
100
AcDbLine
 10
1093.834015595124
 20
949.6453942813975
 30
0.0
 11
1093.842435583314
 21
949.6685936872104
 31
0.0
  0
LINE
  5
413
330
22
100
AcDbEntity
  8
_4-7_
  6
Continuous
 62
     7
100
AcDbLine
 10
1093.842435583314
 20
949.6685936872104
 30
0.0
 11
1093.847063400798
 21
949.6930481140463
 31
0.0
  0
LINE
  5
414
330
22
100
AcDbEntity
  8
_4-7_
  6
Continuous
 62
     7
100
AcDbLine
 10
1093.847063400798
 20
949.6930481140463
 30
0.0
 11
1093.847758433684
 21
949.7180145265208
 31
0.0
  0
LINE
  5
415
330
22
100
AcDbEntity
  8
_4-7_
  6
Continuous
 62
     7
100
AcDbLine
 10
1093.847758433684
 20
949.7180145265208
 30
0.0
 11
1093.847239839271
 21
949.7250206907857
 31
0.0
  0
LINE
  5
416
330
22
100
AcDbEntity
  8
_4-7_
  6
Continuous
 62
     7
100
AcDbLine
 10
1093.747496245696
 20
948.5912487616596
 30
0.0
 11
1093.747496245696
 21
948.5912487616596
 31
0.0
  0
LINE
  5
417
330
22
100
AcDbEntity
  8
_4-7_
  6
Continuous
 62
     7
100
AcDbLine
 10
1093.747496245696
 20
948.5912487616596
 30
0.0
 11
1093.769073263405
 21
948.5990697305714
 31
0.0
  0
LINE
  5
418
330
22
100
AcDbEntity
  8
_4-7_
  6
Continuous
 62
     7
100
AcDbLine
 10
1093.769073263405
 20
948.5990697305714
 30
0.0
 11
1093.789087187376
 21
948.6108911810578
 31
0.0
  0
LINE
  5
419
330
22
100
AcDbEntity
  8
_4-7_
  6
Continuous
 62
     7
100
AcDbLine
 10
1093.789087187376
 20
948.6108911810578
 30
0.0
 11
1093.806929904656
 21
948.6263539243276
 31
0.0
  0
LINE
  5
41A
330
22
100
AcDbEntity
  8
_4-7_
  6
Continuous
 62
     7
100
AcDbLine
 10
1093.806929904656
 20
948.6263539243276
 30
0.0
 11
1093.822059273309
 21
948.6449881327507
 31
0.0
  0
LINE
  5
41B
330
22
100
AcDbEntity
  8
_4-7_
  6
Continuous
 62
     7
100
AcDbLine
 10
1093.822059273309
 20
948.6449881327507
 30
0.0
 11
1093.834015595124
 21
948.6662276153341
 31
0.0
  0
LINE
  5
41C
330
22
100
AcDbEntity
  8
_4-7_
  6
Continuous
 62
     7
100
AcDbLine
 10
1093.834015595124
 20
948.6662276153341
 30
0.0
 11
1093.842435583314
 21
948.6894270211468
 31
0.0
  0
LINE
  5
41D
330
22
100
AcDbEntity
  8
_4-7_
  6
Continuous
 62
     7
100
AcDbLine
 10
1093.842435583314
 20
948.6894270211468
 30
0.0
 11
1093.847063400798
 21
948.7138814479829
 31
0.0
  0
LINE
  5
41E
330
22
100
AcDbEntity
  8
_4-7_
  6
Continuous
 62
     7
100
AcDbLine
 10
1093.847063400798
 20
948.7138814479829
 30
0.0
 11
1093.847758433684
 21
948.7388478604573
 31
0.0
  0
LINE
  5
41F
330
22
100
AcDbEntity
  8
_4-7_
  6
Continuous
 62
     7
100
AcDbLine
 10
1093.847758433684
 20
948.7388478604573
 30
0.0
 11
1093.847239839271
 21
948.7458540247223
 31
0.0
  0
LINE
  5
420
330
22
100
AcDbEntity
  8
_4-7_
  6
Continuous
 62
     7
100
AcDbLine
 10
1093.711879458571
 20
947.6120820955971
 30
0.0
 11
1093.711879458571
 21
947.6120820955971
 31
0.0
  0
LINE
  5
421
330
22
100
AcDbEntity
  8
_4-7_
  6
Continuous
 62
     7
100
AcDbLine
 10
1093.711879458571
 20
947.6120820955971
 30
0.0
 11
1093.733456476281
 21
947.6199030645091
 31
0.0
  0
LINE
  5
422
330
22
100
AcDbEntity
  8
_4-7_
  6
Continuous
 62
     7
100
AcDbLine
 10
1093.733456476281
 20
947.6199030645091
 30
0.0
 11
1093.753470400251
 21
947.6317245149955
 31
0.0
  0
LINE
  5
423
330
22
100
AcDbEntity
  8
_4-7_
  6
Continuous
 62
     7
100
AcDbLine
 10
1093.753470400251
 20
947.6317245149955
 30
0.0
 11
1093.771313117531
 21
947.6471872582653
 31
0.0
  0
LINE
  5
424
330
22
100
AcDbEntity
  8
_4-7_
  6
Continuous
 62
     7
100
AcDbLine
 10
1093.771313117531
 20
947.6471872582653
 30
0.0
 11
1093.786442486184
 21
947.6658214666883
 31
0.0
  0
LINE
  5
425
330
22
100
AcDbEntity
  8
_4-7_
  6
Continuous
 62
     7
100
AcDbLine
 10
1093.786442486184
 20
947.6658214666883
 30
0.0
 11
1093.798398808
 21
947.6870609492717
 31
0.0
  0
LINE
  5
426
330
22
100
AcDbEntity
  8
_4-7_
  6
Continuous
 62
     7
100
AcDbLine
 10
1093.798398808
 20
947.6870609492717
 30
0.0
 11
1093.80681879619
 21
947.7102603550845
 31
0.0
  0
LINE
  5
427
330
22
100
AcDbEntity
  8
_4-7_
  6
Continuous
 62
     7
100
AcDbLine
 10
1093.80681879619
 20
947.7102603550845
 30
0.0
 11
1093.811446613674
 21
947.7347147819202
 31
0.0
  0
LINE
  5
428
330
22
100
AcDbEntity
  8
_4-7_
  6
Continuous
 62
     7
100
AcDbLine
 10
1093.811446613674
 20
947.7347147819202
 30
0.0
 11
1093.81214164656
 21
947.7596811943948
 31
0.0
  0
LINE
  5
429
330
22
100
AcDbEntity
  8
_4-7_
  6
Continuous
 62
     7
100
AcDbLine
 10
1093.81214164656
 20
947.7596811943948
 30
0.0
 11
1093.811623052146
 21
947.7666873586597
 31
0.0
  0
LINE
  5
42A
330
22
100
AcDbEntity
  8
_4-7_
  6
Continuous
 62
     7
100
AcDbLine
 10
1093.747496245696
 20
945.6537487634724
 30
0.0
 11
1093.747496245696
 21
945.6537487634724
 31
0.0
  0
LINE
  5
42B
330
22
100
AcDbEntity
  8
_4-7_
  6
Continuous
 62
     7
100
AcDbLine
 10
1093.747496245696
 20
945.6537487634724
 30
0.0
 11
1093.769073263405
 21
945.6615697323844
 31
0.0
  0
LINE
  5
42C
330
22
100
AcDbEntity
  8
_4-7_
  6
Continuous
 62
     7
100
AcDbLine
 10
1093.769073263405
 20
945.6615697323844
 30
0.0
 11
1093.789087187376
 21
945.6733911828708
 31
0.0
  0
LINE
  5
42D
330
22
100
AcDbEntity
  8
_4-7_
  6
Continuous
 62
     7
100
AcDbLine
 10
1093.789087187376
 20
945.6733911828708
 30
0.0
 11
1093.806929904656
 21
945.6888539261404
 31
0.0
  0
LINE
  5
42E
330
22
100
AcDbEntity
  8
_4-7_
  6
Continuous
 62
     7
100
AcDbLine
 10
1093.806929904656
 20
945.6888539261404
 30
0.0
 11
1093.822059273309
 21
945.7074881345633
 31
0.0
  0
LINE
  5
42F
330
22
100
AcDbEntity
  8
_4-7_
  6
Continuous
 62
     7
100
AcDbLine
 10
1093.822059273309
 20
945.7074881345633
 30
0.0
 11
1093.834015595124
 21
945.728727617147
 31
0.0
  0
LINE
  5
430
330
22
100
AcDbEntity
  8
_4-7_
  6
Continuous
 62
     7
100
AcDbLine
 10
1093.834015595124
 20
945.728727617147
 30
0.0
 11
1093.842435583314
 21
945.7519270229596
 31
0.0
  0
LINE
  5
431
330
22
100
AcDbEntity
  8
_4-7_
  6
Continuous
 62
     7
100
AcDbLine
 10
1093.842435583314
 20
945.7519270229596
 30
0.0
 11
1093.847063400798
 21
945.7763814497955
 31
0.0
  0
LINE
  5
432
330
22
100
AcDbEntity
  8
_4-7_
  6
Continuous
 62
     7
100
AcDbLine
 10
1093.847063400798
 20
945.7763814497955
 30
0.0
 11
1093.847758433684
 21
945.8013478622701
 31
0.0
  0
LINE
  5
433
330
22
100
AcDbEntity
  8
_4-7_
  6
Continuous
 62
     7
100
AcDbLine
 10
1093.847758433684
 20
945.8013478622701
 30
0.0
 11
1093.847239839271
 21
945.808354026535
 31
0.0
  0
LINE
  5
434
330
22
100
AcDbEntity
  8
_4-7_
  6
Continuous
 62
     7
100
AcDbLine
 10
1093.747496245696
 20
944.6745820974099
 30
0.0
 11
1093.747496245696
 21
944.6745820974099
 31
0.0
  0
LINE
  5
435
330
22
100
AcDbEntity
  8
_4-7_
  6
Continuous
 62
     7
100
AcDbLine
 10
1093.747496245696
 20
944.6745820974099
 30
0.0
 11
1093.769073263405
 21
944.6824030663218
 31
0.0
  0
LINE
  5
436
330
22
100
AcDbEntity
  8
_4-7_
  6
Continuous
 62
     7
100
AcDbLine
 10
1093.769073263405
 20
944.6824030663218
 30
0.0
 11
1093.789087187376
 21
944.6942245168083
 31
0.0
  0
LINE
  5
437
330
22
100
AcDbEntity
  8
_4-7_
  6
Continuous
 62
     7
100
AcDbLine
 10
1093.789087187376
 20
944.6942245168083
 30
0.0
 11
1093.806929904656
 21
944.7096872600781
 31
0.0
  0
LINE
  5
438
330
22
100
AcDbEntity
  8
_4-7_
  6
Continuous
 62
     7
100
AcDbLine
 10
1093.806929904656
 20
944.7096872600781
 30
0.0
 11
1093.822059273309
 21
944.7283214685011
 31
0.0
  0
LINE
  5
439
330
22
100
AcDbEntity
  8
_4-7_
  6
Continuous
 62
     7
100
AcDbLine
 10
1093.822059273309
 20
944.7283214685011
 30
0.0
 11
1093.834015595124
 21
944.7495609510847
 31
0.0
  0
LINE
  5
43A
330
22
100
AcDbEntity
  8
_4-7_
  6
Continuous
 62
     7
100
AcDbLine
 10
1093.834015595124
 20
944.7495609510847
 30
0.0
 11
1093.842435583314
 21
944.7727603568973
 31
0.0
  0
LINE
  5
43B
330
22
100
AcDbEntity
  8
_4-7_
  6
Continuous
 62
     7
100
AcDbLine
 10
1093.842435583314
 20
944.7727603568973
 30
0.0
 11
1093.847063400798
 21
944.7972147837329
 31
0.0
  0
LINE
  5
43C
330
22
100
AcDbEntity
  8
_4-7_
  6
Continuous
 62
     7
100
AcDbLine
 10
1093.847063400798
 20
944.7972147837329
 30
0.0
 11
1093.847758433684
 21
944.8221811962076
 31
0.0
  0
LINE
  5
43D
330
22
100
AcDbEntity
  8
_4-7_
  6
Continuous
 62
     7
100
AcDbLine
 10
1093.847758433684
 20
944.8221811962076
 30
0.0
 11
1093.847239839271
 21
944.8291873604727
 31
0.0
  0
LINE
  5
43E
330
22
100
AcDbEntity
  8
_4-7_
  6
Continuous
 62
     7
100
AcDbLine
 10
1093.747496245696
 20
943.6954154313475
 30
0.0
 11
1093.747496245696
 21
943.6954154313475
 31
0.0
  0
LINE
  5
43F
330
22
100
AcDbEntity
  8
_4-7_
  6
Continuous
 62
     7
100
AcDbLine
 10
1093.747496245696
 20
943.6954154313475
 30
0.0
 11
1093.769073263405
 21
943.7032364002595
 31
0.0
  0
LINE
  5
440
330
22
100
AcDbEntity
  8
_4-7_
  6
Continuous
 62
     7
100
AcDbLine
 10
1093.769073263405
 20
943.7032364002595
 30
0.0
 11
1093.789087187376
 21
943.7150578507459
 31
0.0
  0
LINE
  5
441
330
22
100
AcDbEntity
  8
_4-7_
  6
Continuous
 62
     7
100
AcDbLine
 10
1093.789087187376
 20
943.7150578507459
 30
0.0
 11
1093.806929904656
 21
943.7305205940155
 31
0.0
  0
LINE
  5
442
330
22
100
AcDbEntity
  8
_4-7_
  6
Continuous
 62
     7
100
AcDbLine
 10
1093.806929904656
 20
943.7305205940155
 30
0.0
 11
1093.822059273309
 21
943.7491548024388
 31
0.0
  0
LINE
  5
443
330
22
100
AcDbEntity
  8
_4-7_
  6
Continuous
 62
     7
100
AcDbLine
 10
1093.822059273309
 20
943.7491548024388
 30
0.0
 11
1093.834015595124
 21
943.7703942850221
 31
0.0
  0
LINE
  5
444
330
22
100
AcDbEntity
  8
_4-7_
  6
Continuous
 62
     7
100
AcDbLine
 10
1093.834015595124
 20
943.7703942850221
 30
0.0
 11
1093.842435583314
 21
943.7935936908349
 31
0.0
  0
LINE
  5
445
330
22
100
AcDbEntity
  8
_4-7_
  6
Continuous
 62
     7
100
AcDbLine
 10
1093.842435583314
 20
943.7935936908349
 30
0.0
 11
1093.847063400798
 21
943.8180481176708
 31
0.0
  0
LINE
  5
446
330
22
100
AcDbEntity
  8
_4-7_
  6
Continuous
 62
     7
100
AcDbLine
 10
1093.847063400798
 20
943.8180481176708
 30
0.0
 11
1093.847758433684
 21
943.8430145301452
 31
0.0
  0
LINE
  5
447
330
22
100
AcDbEntity
  8
_4-7_
  6
Continuous
 62
     7
100
AcDbLine
 10
1093.847758433684
 20
943.8430145301452
 30
0.0
 11
1093.847239839271
 21
943.8500206944103
 31
0.0
  0
LINE
  5
448
330
22
100
AcDbEntity
  8
_4-7_
  6
Continuous
 62
     7
100
AcDbLine
 10
1093.711696513462
 20
942.7162487652852
 30
0.0
 11
1093.711696513462
 21
942.7162487652852
 31
0.0
  0
LINE
  5
449
330
22
100
AcDbEntity
  8
_4-7_
  6
Continuous
 62
     7
100
AcDbLine
 10
1093.711696513462
 20
942.7162487652852
 30
0.0
 11
1093.733273531172
 21
942.724069734197
 31
0.0
  0
LINE
  5
44A
330
22
100
AcDbEntity
  8
_4-7_
  6
Continuous
 62
     7
100
AcDbLine
 10
1093.733273531172
 20
942.724069734197
 30
0.0
 11
1093.753287455143
 21
942.7358911846836
 31
0.0
  0
LINE
  5
44B
330
22
100
AcDbEntity
  8
_4-7_
  6
Continuous
 62
     7
100
AcDbLine
 10
1093.753287455143
 20
942.7358911846836
 30
0.0
 11
1093.771130172422
 21
942.7513539279532
 31
0.0
  0
LINE
  5
44C
330
22
100
AcDbEntity
  8
_4-7_
  6
Continuous
 62
     7
100
AcDbLine
 10
1093.771130172422
 20
942.7513539279532
 30
0.0
 11
1093.786259541075
 21
942.7699881363762
 31
0.0
  0
LINE
  5
44D
330
22
100
AcDbEntity
  8
_4-7_
  6
Continuous
 62
     7
100
AcDbLine
 10
1093.786259541075
 20
942.7699881363762
 30
0.0
 11
1093.798215862891
 21
942.7912276189598
 31
0.0
  0
LINE
  5
44E
330
22
100
AcDbEntity
  8
_4-7_
  6
Continuous
 62
     7
100
AcDbLine
 10
1093.798215862891
 20
942.7912276189598
 30
0.0
 11
1093.806635851081
 21
942.8144270247726
 31
0.0
  0
LINE
  5
44F
330
22
100
AcDbEntity
  8
_4-7_
  6
Continuous
 62
     7
100
AcDbLine
 10
1093.806635851081
 20
942.8144270247726
 30
0.0
 11
1093.811263668565
 21
942.8388814516084
 31
0.0
  0
LINE
  5
450
330
22
100
AcDbEntity
  8
_4-7_
  6
Continuous
 62
     7
100
AcDbLine
 10
1093.811263668565
 20
942.8388814516084
 30
0.0
 11
1093.811958701451
 21
942.8638478640829
 31
0.0
  0
LINE
  5
451
330
22
100
AcDbEntity
  8
_4-7_
  6
Continuous
 62
     7
100
AcDbLine
 10
1093.811958701451
 20
942.8638478640829
 30
0.0
 11
1093.811440107038
 21
942.8708540283478
 31
0.0
  0
LINE
  5
452
330
22
100
AcDbEntity
  8
_4-7_
  6
Continuous
 62
     7
100
AcDbLine
 10
1093.747496245696
 20
940.7579154331605
 30
0.0
 11
1093.747496245696
 21
940.7579154331605
 31
0.0
  0
LINE
  5
453
330
22
100
AcDbEntity
  8
_4-7_
  6
Continuous
 62
     7
100
AcDbLine
 10
1093.747496245696
 20
940.7579154331605
 30
0.0
 11
1093.769073263405
 21
940.7657364020725
 31
0.0
  0
LINE
  5
454
330
22
100
AcDbEntity
  8
_4-7_
  6
Continuous
 62
     7
100
AcDbLine
 10
1093.769073263405
 20
940.7657364020725
 30
0.0
 11
1093.789087187376
 21
940.7775578525587
 31
0.0
  0
LINE
  5
455
330
22
100
AcDbEntity
  8
_4-7_
  6
Continuous
 62
     7
100
AcDbLine
 10
1093.789087187376
 20
940.7775578525587
 30
0.0
 11
1093.806929904656
 21
940.7930205958285
 31
0.0
  0
LINE
  5
456
330
22
100
AcDbEntity
  8
_4-7_
  6
Continuous
 62
     7
100
AcDbLine
 10
1093.806929904656
 20
940.7930205958285
 30
0.0
 11
1093.822059273309
 21
940.8116548042517
 31
0.0
  0
LINE
  5
457
330
22
100
AcDbEntity
  8
_4-7_
  6
Continuous
 62
     7
100
AcDbLine
 10
1093.822059273309
 20
940.8116548042517
 30
0.0
 11
1093.834015595124
 21
940.8328942868351
 31
0.0
  0
LINE
  5
458
330
22
100
AcDbEntity
  8
_4-7_
  6
Continuous
 62
     7
100
AcDbLine
 10
1093.834015595124
 20
940.8328942868351
 30
0.0
 11
1093.842435583314
 21
940.8560936926479
 31
0.0
  0
LINE
  5
459
330
22
100
AcDbEntity
  8
_4-7_
  6
Continuous
 62
     7
100
AcDbLine
 10
1093.842435583314
 20
940.8560936926479
 30
0.0
 11
1093.847063400798
 21
940.8805481194839
 31
0.0
  0
LINE
  5
45A
330
22
100
AcDbEntity
  8
_4-7_
  6
Continuous
 62
     7
100
AcDbLine
 10
1093.847063400798
 20
940.8805481194839
 30
0.0
 11
1093.847758433684
 21
940.9055145319582
 31
0.0
  0
LINE
  5
45B
330
22
100
AcDbEntity
  8
_4-7_
  6
Continuous
 62
     7
100
AcDbLine
 10
1093.847758433684
 20
940.9055145319582
 30
0.0
 11
1093.847239839271
 21
940.9125206962233
 31
0.0
  0
LINE
  5
45C
330
22
100
AcDbEntity
  8
_4-7_
  6
Continuous
 62
     7
100
AcDbLine
 10
1093.727321213762
 20
939.7787487670973
 30
0.0
 11
1093.727321213762
 21
939.7787487670973
 31
0.0
  0
LINE
  5
45D
330
22
100
AcDbEntity
  8
_4-7_
  6
Continuous
 62
     7
100
AcDbLine
 10
1093.727321213762
 20
939.7787487670973
 30
0.0
 11
1093.748898231472
 21
939.786569736009
 31
0.0
  0
LINE
  5
45E
330
22
100
AcDbEntity
  8
_4-7_
  6
Continuous
 62
     7
100
AcDbLine
 10
1093.748898231472
 20
939.786569736009
 30
0.0
 11
1093.768912155442
 21
939.7983911864953
 31
0.0
  0
LINE
  5
45F
330
22
100
AcDbEntity
  8
_4-7_
  6
Continuous
 62
     7
100
AcDbLine
 10
1093.768912155442
 20
939.7983911864953
 30
0.0
 11
1093.786754872722
 21
939.8138539297651
 31
0.0
  0
LINE
  5
460
330
22
100
AcDbEntity
  8
_4-7_
  6
Continuous
 62
     7
100
AcDbLine
 10
1093.786754872722
 20
939.8138539297651
 30
0.0
 11
1093.801884241375
 21
939.8324881381883
 31
0.0
  0
LINE
  5
461
330
22
100
AcDbEntity
  8
_4-7_
  6
Continuous
 62
     7
100
AcDbLine
 10
1093.801884241375
 20
939.8324881381883
 30
0.0
 11
1093.813840563191
 21
939.8537276207715
 31
0.0
  0
LINE
  5
462
330
22
100
AcDbEntity
  8
_4-7_
  6
Continuous
 62
     7
100
AcDbLine
 10
1093.813840563191
 20
939.8537276207715
 30
0.0
 11
1093.822260551381
 21
939.8769270265843
 31
0.0
  0
LINE
  5
463
330
22
100
AcDbEntity
  8
_4-7_
  6
Continuous
 62
     7
100
AcDbLine
 10
1093.822260551381
 20
939.8769270265843
 30
0.0
 11
1093.826888368865
 21
939.9013814534203
 31
0.0
  0
LINE
  5
464
330
22
100
AcDbEntity
  8
_4-7_
  6
Continuous
 62
     7
100
AcDbLine
 10
1093.826888368865
 20
939.9013814534203
 30
0.0
 11
1093.827583401751
 21
939.9263478658944
 31
0.0
  0
LINE
  5
465
330
22
100
AcDbEntity
  8
_4-7_
  6
Continuous
 62
     7
100
AcDbLine
 10
1093.827583401751
 20
939.9263478658944
 30
0.0
 11
1093.827064807338
 21
939.9333540301595
 31
0.0
  0
LINE
  5
466
330
22
100
AcDbEntity
  8
_4-7_
  6
Continuous
 62
     7
100
AcDbLine
 10
1093.707256868258
 20
938.7995821010347
 30
0.0
 11
1093.707256868258
 21
938.7995821010347
 31
0.0
  0
LINE
  5
467
330
22
100
AcDbEntity
  8
_4-7_
  6
Continuous
 62
     7
100
AcDbLine
 10
1093.707256868258
 20
938.7995821010347
 30
0.0
 11
1093.728833885967
 21
938.8074030699463
 31
0.0
  0
LINE
  5
468
330
22
100
AcDbEntity
  8
_4-7_
  6
Continuous
 62
     7
100
AcDbLine
 10
1093.728833885967
 20
938.8074030699463
 30
0.0
 11
1093.748847809938
 21
938.8192245204331
 31
0.0
  0
LINE
  5
469
330
22
100
AcDbEntity
  8
_4-7_
  6
Continuous
 62
     7
100
AcDbLine
 10
1093.748847809938
 20
938.8192245204331
 30
0.0
 11
1093.766690527218
 21
938.8346872637027
 31
0.0
  0
LINE
  5
46A
330
22
100
AcDbEntity
  8
_4-7_
  6
Continuous
 62
     7
100
AcDbLine
 10
1093.766690527218
 20
938.8346872637027
 30
0.0
 11
1093.781819895871
 21
938.8533214721261
 31
0.0
  0
LINE
  5
46B
330
22
100
AcDbEntity
  8
_4-7_
  6
Continuous
 62
     7
100
AcDbLine
 10
1093.781819895871
 20
938.8533214721261
 30
0.0
 11
1093.793776217686
 21
938.8745609547092
 31
0.0
  0
LINE
  5
46C
330
22
100
AcDbEntity
  8
_4-7_
  6
Continuous
 62
     7
100
AcDbLine
 10
1093.793776217686
 20
938.8745609547092
 30
0.0
 11
1093.802196205876
 21
938.8977603605217
 31
0.0
  0
LINE
  5
46D
330
22
100
AcDbEntity
  8
_4-7_
  6
Continuous
 62
     7
100
AcDbLine
 10
1093.802196205876
 20
938.8977603605217
 30
0.0
 11
1093.80682402336
 21
938.9222147873582
 31
0.0
  0
LINE
  5
46E
330
22
100
AcDbEntity
  8
_4-7_
  6
Continuous
 62
     7
100
AcDbLine
 10
1093.80682402336
 20
938.9222147873582
 30
0.0
 11
1093.807519056246
 21
938.9471811998321
 31
0.0
  0
LINE
  5
46F
330
22
100
AcDbEntity
  8
_4-7_
  6
Continuous
 62
     7
100
AcDbLine
 10
1093.807519056246
 20
938.9471811998321
 30
0.0
 11
1093.807000461833
 21
938.9541873640972
 31
0.0
  0
LINE
  5
470
330
22
100
AcDbEntity
  8
_4-7_
  6
Continuous
 62
     7
100
AcDbLine
 10
1093.693310036364
 20
937.8204154349734
 30
0.0
 11
1093.693310036364
 21
937.8204154349734
 31
0.0
  0
LINE
  5
471
330
22
100
AcDbEntity
  8
_4-7_
  6
Continuous
 62
     7
100
AcDbLine
 10
1093.693310036364
 20
937.8204154349734
 30
0.0
 11
1093.714887054074
 21
937.8282364038854
 31
0.0
  0
LINE
  5
472
330
22
100
AcDbEntity
  8
_4-7_
  6
Continuous
 62
     7
100
AcDbLine
 10
1093.714887054074
 20
937.8282364038854
 30
0.0
 11
1093.734900978044
 21
937.8400578543718
 31
0.0
  0
LINE
  5
473
330
22
100
AcDbEntity
  8
_4-7_
  6
Continuous
 62
     7
100
AcDbLine
 10
1093.734900978044
 20
937.8400578543718
 30
0.0
 11
1093.752743695324
 21
937.8555205976415
 31
0.0
  0
LINE
  5
474
330
22
100
AcDbEntity
  8
_4-7_
  6
Continuous
 62
     7
100
AcDbLine
 10
1093.752743695324
 20
937.8555205976415
 30
0.0
 11
1093.767873063977
 21
937.8741548060645
 31
0.0
  0
LINE
  5
475
330
22
100
AcDbEntity
  8
_4-7_
  6
Continuous
 62
     7
100
AcDbLine
 10
1093.767873063977
 20
937.8741548060645
 30
0.0
 11
1093.779829385792
 21
937.895394288648
 31
0.0
  0
LINE
  5
476
330
22
100
AcDbEntity
  8
_4-7_
  6
Continuous
 62
     7
100
AcDbLine
 10
1093.779829385792
 20
937.895394288648
 30
0.0
 11
1093.788249373983
 21
937.9185936944608
 31
0.0
  0
LINE
  5
477
330
22
100
AcDbEntity
  8
_4-7_
  6
Continuous
 62
     7
100
AcDbLine
 10
1093.788249373983
 20
937.9185936944608
 30
0.0
 11
1093.792877191467
 21
937.9430481212967
 31
0.0
  0
LINE
  5
478
330
22
100
AcDbEntity
  8
_4-7_
  6
Continuous
 62
     7
100
AcDbLine
 10
1093.792877191467
 20
937.9430481212967
 30
0.0
 11
1093.793572224353
 21
937.9680145337712
 31
0.0
  0
LINE
  5
479
330
22
100
AcDbEntity
  8
_4-7_
  6
Continuous
 62
     7
100
AcDbLine
 10
1093.793572224353
 20
937.9680145337712
 30
0.0
 11
1093.79305362994
 21
937.9750206980359
 31
0.0
  0
LINE
  5
47A
330
22
100
AcDbEntity
  8
_4-7_
  6
Continuous
 62
     7
100
AcDbLine
 10
1093.699049526946
 20
936.8412487689104
 30
0.0
 11
1093.699049526946
 21
936.8412487689104
 31
0.0
  0
LINE
  5
47B
330
22
100
AcDbEntity
  8
_4-7_
  6
Continuous
 62
     7
100
AcDbLine
 10
1093.699049526946
 20
936.8412487689104
 30
0.0
 11
1093.716015736908
 21
936.8444336556908
 31
0.0
  0
LINE
  5
47C
330
22
100
AcDbEntity
  8
_4-7_
  6
Continuous
 62
     7
100
AcDbLine
 10
1093.716015736908
 20
936.8444336556908
 30
0.0
 11
1093.732221152053
 21
936.8508092005729
 31
0.0
  0
LINE
  5
47D
330
22
100
AcDbEntity
  8
_4-7_
  6
Continuous
 62
     7
100
AcDbLine
 10
1093.732221152053
 20
936.8508092005729
 30
0.0
 11
1093.747173379042
 21
936.860181685852
 31
0.0
  0
LINE
  5
47E
330
22
100
AcDbEntity
  8
_4-7_
  6
Continuous
 62
     7
100
AcDbLine
 10
1093.747173379042
 20
936.860181685852
 30
0.0
 11
1093.760418102024
 21
936.8722663333052
 31
0.0
  0
LINE
  5
47F
330
22
100
AcDbEntity
  8
_4-7_
  6
Continuous
 62
     7
100
AcDbLine
 10
1093.760418102024
 20
936.8722663333052
 30
0.0
 11
1093.771552886794
 21
936.8866959570349
 31
0.0
  0
LINE
  5
480
330
22
100
AcDbEntity
  8
_4-7_
  6
Continuous
 62
     7
100
AcDbLine
 10
1093.771552886794
 20
936.8866959570349
 30
0.0
 11
1093.780239408551
 21
936.9030321202258
 31
0.0
  0
LINE
  5
481
330
22
100
AcDbEntity
  8
_4-7_
  6
Continuous
 62
     7
100
AcDbLine
 10
1093.780239408551
 20
936.9030321202258
 30
0.0
 11
1093.786213731727
 21
936.9207784568256
 31
0.0
  0
LINE
  5
482
330
22
100
AcDbEntity
  8
_4-7_
  6
Continuous
 62
     7
100
AcDbLine
 10
1093.786213731727
 20
936.9207784568256
 30
0.0
 11
1093.789294329535
 21
936.9393957533777
 31
0.0
  0
LINE
  5
483
330
22
100
AcDbEntity
  8
_4-7_
  6
Continuous
 62
     7
100
AcDbLine
 10
1093.789294329535
 20
936.9393957533777
 30
0.0
 11
1093.78938759957
 21
936.9583183327462
 31
0.0
  0
LINE
  5
484
330
22
100
AcDbEntity
  8
_4-7_
  6
Continuous
 62
     7
100
AcDbLine
 10
1093.78938759957
 20
936.9583183327462
 30
0.0
 11
1093.786490707869
 21
936.9769712419321
 31
0.0
  0
LINE
  5
485
330
22
100
AcDbEntity
  8
_4-7_
  6
Continuous
 62
     7
100
AcDbLine
 10
1093.786490707869
 20
936.9769712419321
 30
0.0
 11
1093.780691675021
 21
936.9947877217295
 31
0.0
  0
LINE
  5
486
330
22
100
AcDbEntity
  8
_4-7_
  6
Continuous
 62
     7
100
AcDbLine
 10
1093.780691675021
 20
936.9947877217295
 30
0.0
 11
1093.772166701703
 21
937.0112264274153
 31
0.0
  0
LINE
  5
487
330
22
100
AcDbEntity
  8
_4-7_
  6
Continuous
 62
     7
100
AcDbLine
 10
1093.772166701703
 20
937.0112264274153
 30
0.0
 11
1093.772114518105
 21
937.0113092325787
 31
0.0
  0
LINE
  5
488
330
22
100
AcDbEntity
  8
_4-7_
  6
Continuous
 62
     7
100
AcDbLine
 10
1093.509606558197
 20
941.7370820992227
 30
0.0
 11
1093.509606558197
 21
941.7370820992227
 31
0.0
  0
LINE
  5
489
330
22
100
AcDbEntity
  8
_4-7_
  6
Continuous
 62
     7
100
AcDbLine
 10
1093.509606558197
 20
941.7370820992227
 30
0.0
 11
1093.562310202443
 21
941.7447445721277
 31
0.0
  0
LINE
  5
48A
330
22
100
AcDbEntity
  8
_4-7_
  6
Continuous
 62
     7
100
AcDbLine
 10
1093.562310202443
 20
941.7447445721277
 30
0.0
 11
1093.613002903354
 21
941.7623523638194
 31
0.0
  0
LINE
  5
48B
330
22
100
AcDbEntity
  8
_4-7_
  6
Continuous
 62
     7
100
AcDbLine
 10
1093.613002903354
 20
941.7623523638194
 30
0.0
 11
1093.660144388866
 21
941.789370470458
 31
0.0
  0
LINE
  5
48C
330
22
100
AcDbEntity
  8
_4-7_
  6
Continuous
 62
     7
100
AcDbLine
 10
1093.660144388866
 20
941.789370470458
 30
0.0
 11
1093.702302288794
 21
941.8249779605448
 31
0.0
  0
LINE
  5
48D
330
22
100
AcDbEntity
  8
_4-7_
  6
Continuous
 62
     7
100
AcDbLine
 10
1093.702302288794
 20
941.8249779605448
 30
0.0
 11
1093.738195656684
 21
941.8680929185113
 31
0.0
  0
LINE
  5
48E
330
22
100
AcDbEntity
  8
_4-7_
  6
Continuous
 62
     7
100
AcDbLine
 10
1093.738195656684
 20
941.8680929185113
 30
0.0
 11
1093.766733890714
 21
941.9174053181777
 31
0.0
  0
LINE
  5
48F
330
22
100
AcDbEntity
  8
_4-7_
  6
Continuous
 62
     7
100
AcDbLine
 10
1093.766733890714
 20
941.9174053181777
 30
0.0
 11
1093.787049871084
 21
941.9714168272328
 31
0.0
  0
LINE
  5
490
330
22
100
AcDbEntity
  8
_4-7_
  6
Continuous
 62
     7
100
AcDbLine
 10
1093.787049871084
 20
941.9714168272328
 30
0.0
 11
1093.798526307013
 21
942.0284863333051
 31
0.0
  0
LINE
  5
491
330
22
100
AcDbEntity
  8
_4-7_
  6
Continuous
 62
     7
100
AcDbLine
 10
1093.798526307013
 20
942.0284863333051
 30
0.0
 11
1093.8008144928
 21
942.0868798083315
 31
0.0
  0
LINE
  5
492
330
22
100
AcDbEntity
  8
_4-7_
  6
Continuous
 62
     7
100
AcDbLine
 10
1093.8008144928
 20
942.0868798083315
 30
0.0
 11
1093.793844903079
 21
942.1448229961223
 31
0.0
  0
LINE
  5
493
330
22
100
AcDbEntity
  8
_4-7_
  6
Continuous
 62
     7
100
AcDbLine
 10
1093.793844903079
 20
942.1448229961223
 30
0.0
 11
1093.777829305307
 21
942.200555322236
 31
0.0
  0
LINE
  5
494
330
22
100
AcDbEntity
  8
_4-7_
  6
Continuous
 62
     7
100
AcDbLine
 10
1093.777829305307
 20
942.200555322236
 30
0.0
 11
1093.753254325317
 21
942.2523833881463
 31
0.0
  0
LINE
  5
495
330
22
100
AcDbEntity
  8
_4-7_
  6
Continuous
 62
     7
100
AcDbLine
 10
1093.753254325317
 20
942.2523833881463
 30
0.0
 11
1093.720866661442
 21
942.2987324242965
 31
0.0
  0
LINE
  5
496
330
22
100
AcDbEntity
  8
_4-7_
  6
Continuous
 62
     7
100
AcDbLine
 10
1093.720866661442
 20
942.2987324242965
 30
0.0
 11
1093.681650396459
 21
942.3381941386772
 31
0.0
  0
LINE
  5
497
330
22
100
AcDbEntity
  8
_4-7_
  6
Continuous
 62
     7
100
AcDbLine
 10
1093.681650396459
 20
942.3381941386772
 30
0.0
 11
1093.636797096735
 21
942.3695695070653
 31
0.0
  0
LINE
  5
498
330
22
100
AcDbEntity
  8
_4-7_
  6
Continuous
 62
     7
100
AcDbLine
 10
1093.636797096735
 20
942.3695695070653
 30
0.0
 11
1093.587669607085
 21
942.3919052047692
 31
0.0
  0
LINE
  5
499
330
22
100
AcDbEntity
  8
_4-7_
  6
Continuous
 62
     7
100
AcDbLine
 10
1093.587669607085
 20
942.3919052047692
 30
0.0
 11
1093.535760641423
 21
942.4045225729166
 31
0.0
  0
LINE
  5
49A
330
22
100
AcDbEntity
  8
_4-7_
  6
Continuous
 62
     7
100
AcDbLine
 10
1093.535760641423
 20
942.4045225729166
 30
0.0
 11
1093.509606558197
 21
942.4070382391603
 31
0.0
  0
LINE
  5
49B
330
22
100
AcDbEntity
  8
_4-7_
  6
Continuous
 62
     7
100
AcDbLine
 10
1093.509606558197
 20
946.632915429536
 30
0.0
 11
1093.509606558197
 21
946.632915429536
 31
0.0
  0
LINE
  5
49C
330
22
100
AcDbEntity
  8
_4-7_
  6
Continuous
 62
     7
100
AcDbLine
 10
1093.509606558197
 20
946.632915429536
 30
0.0
 11
1093.562310202443
 21
946.6405779024409
 31
0.0
  0
LINE
  5
49D
330
22
100
AcDbEntity
  8
_4-7_
  6
Continuous
 62
     7
100
AcDbLine
 10
1093.562310202443
 20
946.6405779024409
 30
0.0
 11
1093.613002903354
 21
946.6581856941328
 31
0.0
  0
LINE
  5
49E
330
22
100
AcDbEntity
  8
_4-7_
  6
Continuous
 62
     7
100
AcDbLine
 10
1093.613002903354
 20
946.6581856941328
 30
0.0
 11
1093.660144388866
 21
946.6852038007711
 31
0.0
  0
LINE
  5
49F
330
22
100
AcDbEntity
  8
_4-7_
  6
Continuous
 62
     7
100
AcDbLine
 10
1093.660144388866
 20
946.6852038007711
 30
0.0
 11
1093.702302288794
 21
946.7208112908577
 31
0.0
  0
LINE
  5
4A0
330
22
100
AcDbEntity
  8
_4-7_
  6
Continuous
 62
     7
100
AcDbLine
 10
1093.702302288794
 20
946.7208112908577
 30
0.0
 11
1093.738195656684
 21
946.7639262488242
 31
0.0
  0
LINE
  5
4A1
330
22
100
AcDbEntity
  8
_4-7_
  6
Continuous
 62
     7
100
AcDbLine
 10
1093.738195656684
 20
946.7639262488242
 30
0.0
 11
1093.766733890714
 21
946.8132386484906
 31
0.0
  0
LINE
  5
4A2
330
22
100
AcDbEntity
  8
_4-7_
  6
Continuous
 62
     7
100
AcDbLine
 10
1093.766733890714
 20
946.8132386484906
 30
0.0
 11
1093.787049871084
 21
946.8672501575456
 31
0.0
  0
LINE
  5
4A3
330
22
100
AcDbEntity
  8
_4-7_
  6
Continuous
 62
     7
100
AcDbLine
 10
1093.787049871084
 20
946.8672501575456
 30
0.0
 11
1093.798526307013
 21
946.9243196636183
 31
0.0
  0
LINE
  5
4A4
330
22
100
AcDbEntity
  8
_4-7_
  6
Continuous
 62
     7
100
AcDbLine
 10
1093.798526307013
 20
946.9243196636183
 30
0.0
 11
1093.8008144928
 21
946.9827131386447
 31
0.0
  0
LINE
  5
4A5
330
22
100
AcDbEntity
  8
_4-7_
  6
Continuous
 62
     7
100
AcDbLine
 10
1093.8008144928
 20
946.9827131386447
 30
0.0
 11
1093.793844903079
 21
947.0406563264353
 31
0.0
  0
LINE
  5
4A6
330
22
100
AcDbEntity
  8
_4-7_
  6
Continuous
 62
     7
100
AcDbLine
 10
1093.793844903079
 20
947.0406563264353
 30
0.0
 11
1093.777829305307
 21
947.096388652549
 31
0.0
  0
LINE
  5
4A7
330
22
100
AcDbEntity
  8
_4-7_
  6
Continuous
 62
     7
100
AcDbLine
 10
1093.777829305307
 20
947.096388652549
 30
0.0
 11
1093.753254325317
 21
947.1482167184593
 31
0.0
  0
LINE
  5
4A8
330
22
100
AcDbEntity
  8
_4-7_
  6
Continuous
 62
     7
100
AcDbLine
 10
1093.753254325317
 20
947.1482167184593
 30
0.0
 11
1093.720866661442
 21
947.1945657546097
 31
0.0
  0
LINE
  5
4A9
330
22
100
AcDbEntity
  8
_4-7_
  6
Continuous
 62
     7
100
AcDbLine
 10
1093.720866661442
 20
947.1945657546097
 30
0.0
 11
1093.681650396459
 21
947.2340274689903
 31
0.0
  0
LINE
  5
4AA
330
22
100
AcDbEntity
  8
_4-7_
  6
Continuous
 62
     7
100
AcDbLine
 10
1093.681650396459
 20
947.2340274689903
 30
0.0
 11
1093.636797096735
 21
947.2654028373783
 31
0.0
  0
LINE
  5
4AB
330
22
100
AcDbEntity
  8
_4-7_
  6
Continuous
 62
     7
100
AcDbLine
 10
1093.636797096735
 20
947.2654028373783
 30
0.0
 11
1093.587669607085
 21
947.2877385350821
 31
0.0
  0
LINE
  5
4AC
330
22
100
AcDbEntity
  8
_4-7_
  6
Continuous
 62
     7
100
AcDbLine
 10
1093.587669607085
 20
947.2877385350821
 30
0.0
 11
1093.535760641423
 21
947.3003559032292
 31
0.0
  0
LINE
  5
4AD
330
22
100
AcDbEntity
  8
_4-7_
  6
Continuous
 62
     7
100
AcDbLine
 10
1093.535760641423
 20
947.3003559032292
 30
0.0
 11
1093.509606558197
 21
947.3028715694736
 31
0.0
  0
LINE
  5
4AE
330
22
100
AcDbEntity
  8
_4-7_
  6
Continuous
 62
     7
100
AcDbLine
 10
1093.744289148127
 20
935.1405908752223
 30
0.0
 11
1093.744289148127
 21
935.1405908752223
 31
0.0
  0
LINE
  5
4AF
330
22
100
AcDbEntity
  8
_4-7_
  6
Continuous
 62
     7
100
AcDbLine
 10
1093.744289148127
 20
935.1405908752223
 30
0.0
 11
1093.740911695361
 21
935.2276256389197
 31
0.0
  0
LINE
  5
4B0
330
22
100
AcDbEntity
  8
_4-7_
  6
Continuous
 62
     7
100
AcDbLine
 10
1093.740911695361
 20
935.2276256389197
 30
0.0
 11
1093.723838765349
 21
935.3126933545965
 31
0.0
  0
LINE
  5
4B1
330
22
100
AcDbEntity
  8
_4-7_
  6
Continuous
 62
     7
100
AcDbLine
 10
1093.723838765349
 20
935.3126933545965
 30
0.0
 11
1093.712867064947
 21
935.3467312259724
 31
0.0
  0
LINE
  5
4B2
330
22
100
AcDbEntity
  8
_4-7_
  6
Continuous
 62
     7
100
AcDbLine
 10
1094.426105151946
 20
933.8910112142523
 30
0.0
 11
1094.426105151946
 21
933.8910112142523
 31
0.0
  0
LINE
  5
4B3
330
22
100
AcDbEntity
  8
_4-7_
  6
Continuous
 62
     7
100
AcDbLine
 10
1094.426105151946
 20
933.8910112142523
 30
0.0
 11
1094.424341511425
 21
933.9259113358423
 31
0.0
  0
LINE
  5
4B4
330
22
100
AcDbEntity
  8
_4-7_
  6
Continuous
 62
     7
100
AcDbLine
 10
1094.424341511425
 20
933.9259113358423
 30
0.0
 11
1094.417092331744
 21
933.9599445470019
 31
0.0
  0
LINE
  5
4B5
330
22
100
AcDbEntity
  8
_4-7_
  6
Continuous
 62
     7
100
AcDbLine
 10
1094.417092331744
 20
933.9599445470019
 30
0.0
 11
1094.404577875561
 21
933.992076765832
 31
0.0
  0
LINE
  5
4B6
330
22
100
AcDbEntity
  8
_4-7_
  6
Continuous
 62
     7
100
AcDbLine
 10
1094.404577875561
 20
933.992076765832
 30
0.0
 11
1094.387178388291
 21
934.0213316711228
 31
0.0
  0
LINE
  5
4B7
330
22
100
AcDbEntity
  8
_4-7_
  6
Continuous
 62
     7
100
AcDbLine
 10
1094.387178388291
 20
934.0213316711228
 30
0.0
 11
1094.365422544553
 21
934.0468203673806
 31
0.0
  0
LINE
  5
4B8
330
22
100
AcDbEntity
  8
_4-7_
  6
Continuous
 62
     7
100
AcDbLine
 10
1094.365422544553
 20
934.0468203673806
 30
0.0
 11
1094.339971384648
 21
934.0677683934682
 31
0.0
  0
LINE
  5
4B9
330
22
100
AcDbEntity
  8
_4-7_
  6
Continuous
 62
     7
100
AcDbLine
 10
1094.339971384648
 20
934.0677683934682
 30
0.0
 11
1094.311598229193
 21
934.0835392542123
 31
0.0
  0
LINE
  5
4BA
330
22
100
AcDbEntity
  8
_4-7_
  6
Continuous
 62
     7
100
AcDbLine
 10
1094.311598229193
 20
934.0835392542123
 30
0.0
 11
1094.281165182157
 21
934.0936537599905
 31
0.0
  0
LINE
  5
4BB
330
22
100
AcDbEntity
  8
_4-7_
  6
Continuous
 62
     7
100
AcDbLine
 10
1094.281165182157
 20
934.0936537599905
 30
0.0
 11
1094.249596936275
 21
934.0978045866622
 31
0.0
  0
LINE
  5
4BC
330
22
100
AcDbEntity
  8
_4-7_
  6
Continuous
 62
     7
100
AcDbLine
 10
1094.249596936275
 20
934.0978045866622
 30
0.0
 11
1094.217852676724
 21
934.0958656134592
 31
0.0
  0
LINE
  5
4BD
330
22
100
AcDbEntity
  8
_4-7_
  6
Continuous
 62
     7
100
AcDbLine
 10
1094.217852676724
 20
934.0958656134592
 30
0.0
 11
1094.186896936767
 21
934.0878957551021
 31
0.0
  0
LINE
  5
4BE
330
22
100
AcDbEntity
  8
_4-7_
  6
Continuous
 62
     7
100
AcDbLine
 10
1094.186896936767
 20
934.0878957551021
 30
0.0
 11
1094.157670290899
 21
934.0741371717033
 31
0.0
  0
LINE
  5
4BF
330
22
100
AcDbEntity
  8
_4-7_
  6
Continuous
 62
     7
100
AcDbLine
 10
1094.157670290899
 20
934.0741371717033
 30
0.0
 11
1094.131060775963
 21
934.0550079108577
 31
0.0
  0
LINE
  5
4C0
330
22
100
AcDbEntity
  8
_4-7_
  6
Continuous
 62
     7
100
AcDbLine
 10
1094.131060775963
 20
934.0550079108577
 30
0.0
 11
1094.107876908608
 21
934.0310892054761
 31
0.0
  0
LINE
  5
4C1
330
22
100
AcDbEntity
  8
_4-7_
  6
Continuous
 62
     7
100
AcDbLine
 10
1094.107876908608
 20
934.0310892054761
 30
0.0
 11
1094.08882311891
 21
934.0031078133176
 31
0.0
  0
LINE
  5
4C2
330
22
100
AcDbEntity
  8
_4-7_
  6
Continuous
 62
     7
100
AcDbLine
 10
1094.08882311891
 20
934.0031078133176
 30
0.0
 11
1094.074478346628
 21
933.9719139348241
 31
0.0
  0
LINE
  5
4C3
330
22
100
AcDbEntity
  8
_4-7_
  6
Continuous
 62
     7
100
AcDbLine
 10
1094.074478346628
 20
933.9719139348241
 30
0.0
 11
1094.06527845041
 21
933.9384553802089
 31
0.0
  0
LINE
  5
4C4
330
22
100
AcDbEntity
  8
_4-7_
  6
Continuous
 62
     7
100
AcDbLine
 10
1094.06527845041
 20
933.9384553802089
 30
0.0
 11
1094.061502964446
 21
933.9037487707228
 31
0.0
  0
LINE
  5
4C5
330
22
100
AcDbEntity
  8
_4-7_
  6
Continuous
 62
     7
100
AcDbLine
 10
1094.061502964446
 20
933.9037487707228
 30
0.0
 11
1094.061502964446
 21
933.9037487707228
 31
0.0
  0
LINE
  5
4C6
330
22
100
AcDbEntity
  8
_4-7_
  6
Continuous
 62
     7
100
AcDbLine
 10
1003.615075308196
 20
957.0085442060284
 30
0.0
 11
1003.615075308196
 21
959.5682224390975
 31
0.0
  0
LINE
  5
4C7
330
22
100
AcDbEntity
  8
_4-7_
  6
Continuous
 62
     7
100
AcDbLine
 10
1003.615075308196
 20
959.5682224390975
 30
0.0
 11
1001.740075308197
 21
959.5682224390975
 31
0.0
  0
LINE
  5
4C8
330
22
100
AcDbEntity
  8
_4-7_
  6
Continuous
 62
     7
100
AcDbLine
 10
1003.615075308196
 20
957.0085442060284
 30
0.0
 11
1004.083825308197
 21
956.4931936309006
 31
0.0
  0
LINE
  5
4C9
330
22
100
AcDbEntity
  8
_4-7_
  6
Continuous
 62
     7
100
AcDbLine
 10
1004.083825308197
 20
956.4931936309006
 30
0.0
 11
1004.083825308197
 21
955.1815650514541
 31
0.0
  0
LINE
  5
4CA
330
22
100
AcDbEntity
  8
_4-7_
  6
Continuous
 62
     7
100
AcDbLine
 10
1004.083825308197
 20
955.1815650514541
 30
0.0
 11
1003.741188276946
 21
952.6080692306734
 31
0.0
  0
LINE
  5
4CB
330
22
100
AcDbEntity
  8
_4-7_
  6
Continuous
 62
     7
100
AcDbLine
 10
1003.741188276946
 20
952.6080692306734
 30
0.0
 11
1003.589985933196
 21
952.3533101628473
 31
0.0
  0
LINE
  5
4CC
330
22
100
AcDbEntity
  8
_4-7_
  6
Continuous
 62
     7
100
AcDbLine
 10
1003.589985933196
 20
952.3533101628473
 30
0.0
 11
1003.615075308196
 21
952.3533101628473
 31
0.0
  0
LINE
  5
4CD
330
22
100
AcDbEntity
  8
_4-7_
  6
Continuous
 62
     7
100
AcDbLine
 10
1003.615075308196
 20
952.3533101628473
 30
0.0
 11
1003.615075308196
 21
951.2195382337235
 31
0.0
  0
LINE
  5
4CE
330
22
100
AcDbEntity
  8
_4-7_
  6
Continuous
 62
     7
100
AcDbLine
 10
1003.615075308196
 20
951.2195382337235
 30
0.0
 11
1003.344442457841
 21
950.7041873568484
 31
0.0
  0
LINE
  5
4CF
330
22
100
AcDbEntity
  8
_4-7_
  6
Continuous
 62
     7
100
AcDbLine
 10
1003.425632339446
 20
950.5495820937849
 30
0.0
 11
1004.036950308196
 21
950.5495820937849
 31
0.0
  0
LINE
  5
4D0
330
22
100
AcDbEntity
  8
_4-7_
  6
Continuous
 62
     7
100
AcDbLine
 10
1004.036950308196
 20
950.5495820937849
 30
0.0
 11
1004.036950308196
 21
947.9037129726103
 31
0.0
  0
LINE
  5
4D1
330
22
100
AcDbEntity
  8
_4-7_
  6
Continuous
 62
     7
100
AcDbLine
 10
1004.036950308196
 20
947.9037129726103
 30
0.0
 11
1003.723531870696
 21
947.3028715694727
 31
0.0
  0
LINE
  5
4D2
330
22
100
AcDbEntity
  8
_4-7_
  6
Continuous
 62
     7
100
AcDbLine
 10
1003.723531870696
 20
947.3028715694727
 30
0.0
 11
1003.720544058196
 21
947.3028715694727
 31
0.0
  0
LINE
  5
4D3
330
22
100
AcDbEntity
  8
_4-7_
  6
Continuous
 62
     7
100
AcDbLine
 10
1003.720541449893
 20
947.302871790587
 30
0.0
 11
1003.720544058196
 21
947.3028715694727
 31
0.0
  0
LINE
  5
4D4
330
22
100
AcDbEntity
  8
_4-7_
  6
Continuous
 62
     7
100
AcDbLine
 10
1003.720541449893
 20
947.302871790587
 30
0.0
 11
1003.720544058196
 21
947.3028715694727
 31
0.0
  0
LINE
  5
4D5
330
22
100
AcDbEntity
  8
_4-7_
  6
Continuous
 62
     7
100
AcDbLine
 10
1003.700174526946
 20
946.6329154295353
 30
0.0
 11
1004.036950308196
 21
946.6329154295353
 31
0.0
  0
LINE
  5
4D6
330
22
100
AcDbEntity
  8
_4-7_
  6
Continuous
 62
     7
100
AcDbLine
 10
1004.036950308196
 20
946.6329154295353
 30
0.0
 11
1004.036950308196
 21
943.0096447190523
 31
0.0
  0
LINE
  5
4D7
330
22
100
AcDbEntity
  8
_4-7_
  6
Continuous
 62
     7
100
AcDbLine
 10
1004.036950308196
 20
943.0096447190523
 30
0.0
 11
1003.720545816283
 21
942.4070501129484
 31
0.0
  0
LINE
  5
4D8
330
22
100
AcDbEntity
  8
_4-7_
  6
Continuous
 62
     7
100
AcDbLine
 10
1003.720544058196
 20
942.4070382391599
 30
0.0
 11
1003.718299289223
 21
942.7054453624352
 31
0.0
  0
LINE
  5
4D9
330
22
100
AcDbEntity
  8
_4-7_
  6
Continuous
 62
     7
100
AcDbLine
 10
1003.718299289223
 20
942.7054453624352
 30
0.0
 11
1003.517874284459
 21
942.7162487652857
 31
0.0
  0
LINE
  5
4DA
330
22
100
AcDbEntity
  8
_4-7_
  6
Continuous
 62
     7
100
AcDbLine
 10
1003.418710509353
 20
942.870854028348
 30
0.0
 11
1003.700174526946
 21
943.3862049052223
 31
0.0
  0
LINE
  5
4DB
330
22
100
AcDbEntity
  8
_4-7_
  6
Continuous
 62
     7
100
AcDbLine
 10
1003.700174526946
 20
943.3862049052223
 30
0.0
 11
1003.700174622023
 21
943.6846120733447
 31
0.0
  0
LINE
  5
4DC
330
22
100
AcDbEntity
  8
_4-7_
  6
Continuous
 62
     7
100
AcDbLine
 10
1003.700174622023
 20
943.6846120733447
 30
0.0
 11
1003.482654370696
 21
943.6954154313481
 31
0.0
  0
LINE
  5
4DD
330
22
100
AcDbEntity
  8
_4-7_
  6
Continuous
 62
     7
100
AcDbLine
 10
1003.382910777121
 20
943.8500206944105
 30
0.0
 11
1003.700174526946
 21
944.3653715712857
 31
0.0
  0
LINE
  5
4DE
330
22
100
AcDbEntity
  8
_4-7_
  6
Continuous
 62
     7
100
AcDbLine
 10
1003.700174526946
 20
944.3653715712857
 30
0.0
 11
1003.700174526946
 21
944.6637787969782
 31
0.0
  0
LINE
  5
4DF
330
22
100
AcDbEntity
  8
_4-7_
  6
Continuous
 62
     7
100
AcDbLine
 10
1003.700174526946
 20
944.6637787969782
 30
0.0
 11
1003.482654370696
 21
944.6745820974104
 31
0.0
  0
LINE
  5
4E0
330
22
100
AcDbEntity
  8
_4-7_
  6
Continuous
 62
     7
100
AcDbLine
 10
1003.382910777121
 20
944.829187360473
 30
0.0
 11
1003.700174526946
 21
945.344538237348
 31
0.0
  0
LINE
  5
4E1
330
22
100
AcDbEntity
  8
_4-7_
  6
Continuous
 62
     7
100
AcDbLine
 10
1003.700174526946
 20
945.344538237348
 30
0.0
 11
1003.700174526946
 21
945.6429454630406
 31
0.0
  0
LINE
  5
4E2
330
22
100
AcDbEntity
  8
_4-7_
  6
Continuous
 62
     7
100
AcDbLine
 10
1003.700174526946
 20
945.6429454630406
 30
0.0
 11
1003.482654370696
 21
945.6537487634729
 31
0.0
  0
LINE
  5
4E3
330
22
100
AcDbEntity
  8
_4-7_
  6
Continuous
 62
     7
100
AcDbLine
 10
1003.382910777121
 20
945.8083540265352
 30
0.0
 11
1003.700174622023
 21
946.3237049034104
 31
0.0
  0
LINE
  5
4E4
330
22
100
AcDbEntity
  8
_4-7_
  6
Continuous
 62
     7
100
AcDbLine
 10
1003.700174622023
 20
946.3237049034104
 30
0.0
 11
1003.700174526946
 21
946.6329154295353
 31
0.0
  0
LINE
  5
4E5
330
22
100
AcDbEntity
  8
_4-7_
  6
Continuous
 62
     7
100
AcDbLine
 10
1003.720541449893
 20
947.302871790587
 30
0.0
 11
1003.718238199115
 21
947.6012789587084
 31
0.0
  0
LINE
  5
4E6
330
22
100
AcDbEntity
  8
_4-7_
  6
Continuous
 62
     7
100
AcDbLine
 10
1003.718238199115
 20
947.6012789587084
 30
0.0
 11
1003.519835151946
 21
947.6120820955976
 31
0.0
  0
LINE
  5
4E7
330
22
100
AcDbEntity
  8
_4-7_
  6
Continuous
 62
     7
100
AcDbLine
 10
1003.418527564247
 20
947.7666873586601
 30
0.0
 11
1003.700174622023
 21
948.2820382355352
 31
0.0
  0
LINE
  5
4E8
330
22
100
AcDbEntity
  8
_4-7_
  6
Continuous
 62
     7
100
AcDbLine
 10
1003.700174622023
 20
948.2820382355352
 30
0.0
 11
1003.700174622023
 21
948.5804454036568
 31
0.0
  0
LINE
  5
4E9
330
22
100
AcDbEntity
  8
_4-7_
  6
Continuous
 62
     7
100
AcDbLine
 10
1003.700174622023
 20
948.5804454036568
 30
0.0
 11
1003.482654370696
 21
948.59124876166
 31
0.0
  0
LINE
  5
4EA
330
22
100
AcDbEntity
  8
_4-7_
  6
Continuous
 62
     7
100
AcDbLine
 10
1003.382910777121
 20
948.7458540247224
 30
0.0
 11
1003.700174526946
 21
949.2612049015976
 31
0.0
  0
LINE
  5
4EB
330
22
100
AcDbEntity
  8
_4-7_
  6
Continuous
 62
     7
100
AcDbLine
 10
1003.700174526946
 20
949.2612049015976
 30
0.0
 11
1003.700174622023
 21
949.5596120697193
 31
0.0
  0
LINE
  5
4EC
330
22
100
AcDbEntity
  8
_4-7_
  6
Continuous
 62
     7
100
AcDbLine
 10
1003.700174622023
 20
949.5596120697193
 30
0.0
 11
1003.482100562891
 21
949.5705601659475
 31
0.0
  0
LINE
  5
4ED
330
22
100
AcDbEntity
  8
_4-7_
  6
Continuous
 62
     7
100
AcDbLine
 10
1003.382910777121
 20
949.725020690786
 30
0.0
 11
1003.700174622023
 21
950.2403715676601
 31
0.0
  0
LINE
  5
4EE
330
22
100
AcDbEntity
  8
_4-7_
  6
Continuous
 62
     7
100
AcDbLine
 10
1003.700174622023
 20
950.2403715676601
 30
0.0
 11
1003.700174523505
 21
950.5495820937849
 31
0.0
  0
LINE
  5
4EF
330
22
100
AcDbEntity
  8
_4-7_
  6
Continuous
 62
     7
100
AcDbLine
 10
1003.700174526946
 20
941.7370820992234
 30
0.0
 11
1004.036950308196
 21
941.7370820992234
 31
0.0
  0
LINE
  5
4F0
330
22
100
AcDbEntity
  8
_4-7_
  6
Continuous
 62
     7
100
AcDbLine
 10
1004.036950308196
 20
941.7370820992234
 30
0.0
 11
1004.036950308196
 21
939.7069310149497
 31
0.0
  0
LINE
  5
4F1
330
22
100
AcDbEntity
  8
_4-7_
  6
Continuous
 62
     7
100
AcDbLine
 10
1004.036950308196
 20
939.7069310149497
 30
0.0
 11
1003.720834214446
 21
937.511204908848
 31
0.0
  0
LINE
  5
4F2
330
22
100
AcDbEntity
  8
_4-7_
  6
Continuous
 62
     7
100
AcDbLine
 10
1003.720834214446
 20
937.511204908848
 30
0.0
 11
1003.720375140906
 21
937.8096118364366
 31
0.0
  0
LINE
  5
4F3
330
22
100
AcDbEntity
  8
_4-7_
  6
Continuous
 62
     7
100
AcDbLine
 10
1003.720375140906
 20
937.8096118364366
 30
0.0
 11
1003.527444839446
 21
937.8204154349727
 31
0.0
  0
LINE
  5
4F4
330
22
100
AcDbEntity
  8
_4-7_
  6
Continuous
 62
     7
100
AcDbLine
 10
1003.720834214446
 20
937.511204908848
 30
0.0
 11
1003.449911207842
 21
936.9958540319728
 31
0.0
  0
LINE
  5
4F5
330
22
100
AcDbEntity
  8
_4-7_
  6
Continuous
 62
     7
100
AcDbLine
 10
1003.437096986453
 20
937.9750206980352
 30
0.0
 11
1003.718723444867
 21
938.4903715749103
 31
0.0
  0
LINE
  5
4F6
330
22
100
AcDbEntity
  8
_4-7_
  6
Continuous
 62
     7
100
AcDbLine
 10
1003.718723444867
 20
938.4903715749103
 30
0.0
 11
1003.717420379702
 21
938.7887785024975
 31
0.0
  0
LINE
  5
4F7
330
22
100
AcDbEntity
  8
_4-7_
  6
Continuous
 62
     7
100
AcDbLine
 10
1003.717420379702
 20
938.7887785024975
 30
0.0
 11
1003.515966089446
 21
938.7995821010353
 31
0.0
  0
LINE
  5
4F8
330
22
100
AcDbEntity
  8
_4-7_
  6
Continuous
 62
     7
100
AcDbLine
 10
1003.42315015456
 20
938.9541873640975
 30
0.0
 11
1003.713067566637
 21
939.4695380004385
 31
0.0
  0
LINE
  5
4F9
330
22
100
AcDbEntity
  8
_4-7_
  6
Continuous
 62
     7
100
AcDbLine
 10
1003.713067566637
 20
939.4695380004385
 30
0.0
 11
1003.710528291202
 21
939.7679451685613
 31
0.0
  0
LINE
  5
4FA
330
22
100
AcDbEntity
  8
_4-7_
  6
Continuous
 62
     7
100
AcDbLine
 10
1003.710528291202
 20
939.7679451685613
 30
0.0
 11
1003.50136994416
 21
939.7787487670976
 31
0.0
  0
LINE
  5
4FB
330
22
100
AcDbEntity
  8
_4-7_
  6
Continuous
 62
     7
100
AcDbLine
 10
1003.403085809055
 20
939.9333540301601
 30
0.0
 11
1003.703212449183
 21
940.4487046665021
 31
0.0
  0
LINE
  5
4FC
330
22
100
AcDbEntity
  8
_4-7_
  6
Continuous
 62
     7
100
AcDbLine
 10
1003.703212449183
 20
940.4487046665021
 30
0.0
 11
1003.700174526946
 21
940.7471121327276
 31
0.0
  0
LINE
  5
4FD
330
22
100
AcDbEntity
  8
_4-7_
  6
Continuous
 62
     7
100
AcDbLine
 10
1003.700174526946
 20
940.7471121327276
 30
0.0
 11
1003.482654370696
 21
940.7579154331612
 31
0.0
  0
LINE
  5
4FE
330
22
100
AcDbEntity
  8
_4-7_
  6
Continuous
 62
     7
100
AcDbLine
 10
1003.382910777121
 20
940.9125206962224
 30
0.0
 11
1003.700174622023
 21
941.4278715730977
 31
0.0
  0
LINE
  5
4FF
330
22
100
AcDbEntity
  8
_4-7_
  6
Continuous
 62
     7
100
AcDbLine
 10
1003.700174622023
 20
941.4278715730977
 30
0.0
 11
1003.700174526946
 21
941.7370820992234
 31
0.0
  0
LINE
  5
500
330
22
100
AcDbEntity
  8
_4-7_
  6
Continuous
 62
     7
100
AcDbLine
 10
1003.531101089446
 20
936.8412487689104
 30
0.0
 11
1003.615075308196
 21
936.8412487689104
 31
0.0
  0
LINE
  5
501
330
22
100
AcDbEntity
  8
_4-7_
  6
Continuous
 62
     7
100
AcDbLine
 10
1003.615075308196
 20
936.8412487689104
 30
0.0
 11
1003.615075308196
 21
936.3516654358784
 31
0.0
  0
LINE
  5
502
330
22
100
AcDbEntity
  8
_4-7_
  6
Continuous
 62
     7
100
AcDbLine
 10
1003.615075308196
 20
936.3516654358784
 30
0.0
 11
1003.521325308197
 21
936.3516654358784
 31
0.0
  0
LINE
  5
503
330
22
100
AcDbEntity
  8
_4-7_
  6
Continuous
 62
     7
100
AcDbLine
 10
1003.521325308197
 20
936.3516654358784
 30
0.0
 11
1003.521325308197
 21
935.3467312259727
 31
0.0
  0
LINE
  5
504
330
22
100
AcDbEntity
  8
_4-7_
  6
Continuous
 62
     7
100
AcDbLine
 10
1003.521325308197
 20
935.3467312259727
 30
0.0
 11
1003.517283551445
 21
935.3467312259727
 31
0.0
  0
LINE
  5
505
330
22
100
AcDbEntity
  8
_4-7_
  6
Continuous
 62
     7
100
AcDbLine
 10
1003.485861558196
 20
935.1405908752225
 30
0.0
 11
1003.48586146661
 21
931.4215648797111
 31
0.0
  0
LINE
  5
506
330
22
100
AcDbEntity
  8
_4-7_
  6
Continuous
 62
     7
100
AcDbLine
 10
1003.48586146661
 20
931.4215648797111
 30
0.0
 11
1003.210588120696
 21
931.0144268646103
 31
0.0
  0
LINE
  5
507
330
22
100
AcDbEntity
  8
_4-7_
  6
Continuous
 62
     7
100
AcDbLine
 10
1003.210588120696
 20
931.0144268646103
 30
0.0
 11
1002.583825308197
 21
930.1932224572228
 31
0.0
  0
LINE
  5
508
330
22
100
AcDbEntity
  8
_4-7_
  6
Continuous
 62
     7
100
AcDbLine
 10
1002.583825308197
 20
930.1932224572228
 30
0.0
 11
1002.490463758512
 21
930.1932224572228
 31
0.0
  0
LINE
  5
509
330
22
100
AcDbEntity
  8
_4-7_
  6
Continuous
 62
     7
100
AcDbLine
 10
1002.490463758512
 20
930.1932224572228
 30
0.0
 11
1003.168647576834
 21
931.4215648797111
 31
0.0
  0
LINE
  5
50A
330
22
100
AcDbEntity
  8
_4-7_
  6
Continuous
 62
     7
100
AcDbLine
 10
1003.168647576834
 20
931.4215648797111
 30
0.0
 11
1003.168647651945
 21
933.9037487707232
 31
0.0
  0
LINE
  5
50B
330
22
100
AcDbEntity
  8
_4-7_
  6
Continuous
 62
     7
100
AcDbLine
 10
1002.804045464446
 20
933.9037487707232
 30
0.0
 11
1002.804045635341
 21
931.4215649751476
 31
0.0
  0
LINE
  5
50C
330
22
100
AcDbEntity
  8
_4-7_
  6
Continuous
 62
     7
100
AcDbLine
 10
1002.804045635341
 20
931.4215649751476
 30
0.0
 11
1002.125861657071
 21
930.1932224572228
 31
0.0
  0
LINE
  5
50D
330
22
100
AcDbEntity
  8
_4-7_
  6
Continuous
 62
     7
100
AcDbLine
 10
1002.125861657071
 20
930.1932224572228
 30
0.0
 11
1001.740075308197
 21
930.1932224572228
 31
0.0
  0
LINE
  5
50E
330
22
100
AcDbEntity
  8
_4-7_
  6
Continuous
 62
     7
100
AcDbLine
 10
1003.351137873873
 20
950.7169369897638
 30
0.0
 11
1003.351137873873
 21
950.7169369897638
 31
0.0
  0
LINE
  5
50F
330
22
100
AcDbEntity
  8
_4-7_
  6
Continuous
 62
     7
100
AcDbLine
 10
1003.351137873873
 20
950.7169369897638
 30
0.0
 11
1003.342889045526
 21
950.7005248926537
 31
0.0
  0
LINE
  5
510
330
22
100
AcDbEntity
  8
_4-7_
  6
Continuous
 62
     7
100
AcDbLine
 10
1003.342889045526
 20
950.7005248926537
 30
0.0
 11
1003.337357759669
 21
950.6827873364228
 31
0.0
  0
LINE
  5
511
330
22
100
AcDbEntity
  8
_4-7_
  6
Continuous
 62
     7
100
AcDbLine
 10
1003.337357759669
 20
950.6827873364228
 30
0.0
 11
1003.334712081624
 21
950.6642632677424
 31
0.0
  0
LINE
  5
512
330
22
100
AcDbEntity
  8
_4-7_
  6
Continuous
 62
     7
100
AcDbLine
 10
1003.334712081624
 20
950.6642632677424
 30
0.0
 11
1003.335032398978
 21
950.6455155310657
 31
0.0
  0
LINE
  5
513
330
22
100
AcDbEntity
  8
_4-7_
  6
Continuous
 62
     7
100
AcDbLine
 10
1003.335032398978
 20
950.6455155310657
 30
0.0
 11
1003.338308979052
 21
950.6271137668848
 31
0.0
  0
LINE
  5
514
330
22
100
AcDbEntity
  8
_4-7_
  6
Continuous
 62
     7
100
AcDbLine
 10
1003.338308979052
 20
950.6271137668848
 30
0.0
 11
1003.344442264618
 21
950.6096171034918
 31
0.0
  0
LINE
  5
515
330
22
100
AcDbEntity
  8
_4-7_
  6
Continuous
 62
     7
100
AcDbLine
 10
1003.344442264618
 20
950.6096171034918
 30
0.0
 11
1003.353245898897
 21
950.5935571681513
 31
0.0
  0
LINE
  5
516
330
22
100
AcDbEntity
  8
_4-7_
  6
Continuous
 62
     7
100
AcDbLine
 10
1003.353245898897
 20
950.5935571681513
 30
0.0
 11
1003.364452387917
 21
950.5794219338708
 31
0.0
  0
LINE
  5
517
330
22
100
AcDbEntity
  8
_4-7_
  6
Continuous
 62
     7
100
AcDbLine
 10
1003.364452387917
 20
950.5794219338708
 30
0.0
 11
1003.37772122818
 21
950.567640892592
 31
0.0
  0
LINE
  5
518
330
22
100
AcDbEntity
  8
_4-7_
  6
Continuous
 62
     7
100
AcDbLine
 10
1003.37772122818
 20
950.567640892592
 30
0.0
 11
1003.392649252689
 21
950.5585720052927
 31
0.0
  0
LINE
  5
519
330
22
100
AcDbEntity
  8
_4-7_
  6
Continuous
 62
     7
100
AcDbLine
 10
1003.392649252689
 20
950.5585720052927
 30
0.0
 11
1003.408782880972
 21
950.5524908255235
 31
0.0
  0
LINE
  5
51A
330
22
100
AcDbEntity
  8
_4-7_
  6
Continuous
 62
     7
100
AcDbLine
 10
1003.408782880972
 20
950.5524908255235
 30
0.0
 11
1003.425631900899
 21
950.5495821268553
 31
0.0
  0
LINE
  5
51B
330
22
100
AcDbEntity
  8
_4-7_
  6
Continuous
 62
     7
100
AcDbLine
 10
1003.425631900899
 20
950.5495821268553
 30
0.0
 11
1003.425632339446
 21
950.5495820937849
 31
0.0
  0
LINE
  5
51C
330
22
100
AcDbEntity
  8
_4-7_
  6
Continuous
 62
     7
100
AcDbLine
 10
1003.382910777121
 20
949.7250206907857
 30
0.0
 11
1003.382910777121
 21
949.7250206907857
 31
0.0
  0
LINE
  5
51D
330
22
100
AcDbEntity
  8
_4-7_
  6
Continuous
 62
     7
100
AcDbLine
 10
1003.382910777121
 20
949.7250206907857
 30
0.0
 11
1003.382491336129
 21
949.7000468445429
 31
0.0
  0
LINE
  5
51E
330
22
100
AcDbEntity
  8
_4-7_
  6
Continuous
 62
     7
100
AcDbLine
 10
1003.382491336129
 20
949.7000468445429
 30
0.0
 11
1003.386022785231
 21
949.675372331054
 31
0.0
  0
LINE
  5
51F
330
22
100
AcDbEntity
  8
_4-7_
  6
Continuous
 62
     7
100
AcDbLine
 10
1003.386022785231
 20
949.675372331054
 30
0.0
 11
1003.393397823134
 21
949.6517468729255
 31
0.0
  0
LINE
  5
520
330
22
100
AcDbEntity
  8
_4-7_
  6
Continuous
 62
     7
100
AcDbLine
 10
1003.393397823134
 20
949.6517468729255
 30
0.0
 11
1003.404392363043
 21
949.6298883177471
 31
0.0
  0
LINE
  5
521
330
22
100
AcDbEntity
  8
_4-7_
  6
Continuous
 62
     7
100
AcDbLine
 10
1003.404392363043
 20
949.6298883177471
 30
0.0
 11
1003.418672341426
 21
949.6104608266575
 31
0.0
  0
LINE
  5
522
330
22
100
AcDbEntity
  8
_4-7_
  6
Continuous
 62
     7
100
AcDbLine
 10
1003.418672341426
 20
949.6104608266575
 30
0.0
 11
1003.435803868366
 21
949.5940546941422
 31
0.0
  0
LINE
  5
523
330
22
100
AcDbEntity
  8
_4-7_
  6
Continuous
 62
     7
100
AcDbLine
 10
1003.435803868366
 20
949.5940546941422
 30
0.0
 11
1003.455266411085
 21
949.5811684122362
 31
0.0
  0
LINE
  5
524
330
22
100
AcDbEntity
  8
_4-7_
  6
Continuous
 62
     7
100
AcDbLine
 10
1003.455266411085
 20
949.5811684122362
 30
0.0
 11
1003.476468610073
 21
949.5721935240942
 31
0.0
  0
LINE
  5
525
330
22
100
AcDbEntity
  8
_4-7_
  6
Continuous
 62
     7
100
AcDbLine
 10
1003.476468610073
 20
949.5721935240942
 30
0.0
 11
1003.482654370696
 21
949.5704154277232
 31
0.0
  0
LINE
  5
526
330
22
100
AcDbEntity
  8
_4-7_
  6
Continuous
 62
     7
100
AcDbLine
 10
1003.382910777121
 20
948.7458540247223
 30
0.0
 11
1003.382910777121
 21
948.7458540247223
 31
0.0
  0
LINE
  5
527
330
22
100
AcDbEntity
  8
_4-7_
  6
Continuous
 62
     7
100
AcDbLine
 10
1003.382910777121
 20
948.7458540247223
 30
0.0
 11
1003.382491336129
 21
948.7208801784797
 31
0.0
  0
LINE
  5
528
330
22
100
AcDbEntity
  8
_4-7_
  6
Continuous
 62
     7
100
AcDbLine
 10
1003.382491336129
 20
948.7208801784797
 30
0.0
 11
1003.386022785231
 21
948.6962056649906
 31
0.0
  0
LINE
  5
529
330
22
100
AcDbEntity
  8
_4-7_
  6
Continuous
 62
     7
100
AcDbLine
 10
1003.386022785231
 20
948.6962056649906
 30
0.0
 11
1003.393397823134
 21
948.6725802068622
 31
0.0
  0
LINE
  5
52A
330
22
100
AcDbEntity
  8
_4-7_
  6
Continuous
 62
     7
100
AcDbLine
 10
1003.393397823134
 20
948.6725802068622
 30
0.0
 11
1003.404392363043
 21
948.6507216516836
 31
0.0
  0
LINE
  5
52B
330
22
100
AcDbEntity
  8
_4-7_
  6
Continuous
 62
     7
100
AcDbLine
 10
1003.404392363043
 20
948.6507216516836
 30
0.0
 11
1003.418672341426
 21
948.6312941605937
 31
0.0
  0
LINE
  5
52C
330
22
100
AcDbEntity
  8
_4-7_
  6
Continuous
 62
     7
100
AcDbLine
 10
1003.418672341426
 20
948.6312941605937
 30
0.0
 11
1003.435803868366
 21
948.6148880280788
 31
0.0
  0
LINE
  5
52D
330
22
100
AcDbEntity
  8
_4-7_
  6
Continuous
 62
     7
100
AcDbLine
 10
1003.435803868366
 20
948.6148880280788
 30
0.0
 11
1003.455266411085
 21
948.6020017461727
 31
0.0
  0
LINE
  5
52E
330
22
100
AcDbEntity
  8
_4-7_
  6
Continuous
 62
     7
100
AcDbLine
 10
1003.455266411085
 20
948.6020017461727
 30
0.0
 11
1003.476468610073
 21
948.5930268580307
 31
0.0
  0
LINE
  5
52F
330
22
100
AcDbEntity
  8
_4-7_
  6
Continuous
 62
     7
100
AcDbLine
 10
1003.476468610073
 20
948.5930268580307
 30
0.0
 11
1003.482654370696
 21
948.5912487616596
 31
0.0
  0
LINE
  5
530
330
22
100
AcDbEntity
  8
_4-7_
  6
Continuous
 62
     7
100
AcDbLine
 10
1003.418527564247
 20
947.7666873586597
 30
0.0
 11
1003.418527564247
 21
947.7666873586597
 31
0.0
  0
LINE
  5
531
330
22
100
AcDbEntity
  8
_4-7_
  6
Continuous
 62
     7
100
AcDbLine
 10
1003.418527564247
 20
947.7666873586597
 30
0.0
 11
1003.418108123254
 21
947.7417135124172
 31
0.0
  0
LINE
  5
532
330
22
100
AcDbEntity
  8
_4-7_
  6
Continuous
 62
     7
100
AcDbLine
 10
1003.418108123254
 20
947.7417135124172
 30
0.0
 11
1003.421639572357
 21
947.717038998928
 31
0.0
  0
LINE
  5
533
330
22
100
AcDbEntity
  8
_4-7_
  6
Continuous
 62
     7
100
AcDbLine
 10
1003.421639572357
 20
947.717038998928
 30
0.0
 11
1003.42901461026
 21
947.6934135407995
 31
0.0
  0
LINE
  5
534
330
22
100
AcDbEntity
  8
_4-7_
  6
Continuous
 62
     7
100
AcDbLine
 10
1003.42901461026
 20
947.6934135407995
 30
0.0
 11
1003.440009150169
 21
947.6715549856212
 31
0.0
  0
LINE
  5
535
330
22
100
AcDbEntity
  8
_4-7_
  6
Continuous
 62
     7
100
AcDbLine
 10
1003.440009150169
 20
947.6715549856212
 30
0.0
 11
1003.454289128552
 21
947.6521274945316
 31
0.0
  0
LINE
  5
536
330
22
100
AcDbEntity
  8
_4-7_
  6
Continuous
 62
     7
100
AcDbLine
 10
1003.454289128552
 20
947.6521274945316
 30
0.0
 11
1003.471420655491
 21
947.6357213620163
 31
0.0
  0
LINE
  5
537
330
22
100
AcDbEntity
  8
_4-7_
  6
Continuous
 62
     7
100
AcDbLine
 10
1003.471420655491
 20
947.6357213620163
 30
0.0
 11
1003.490883198211
 21
947.6228350801104
 31
0.0
  0
LINE
  5
538
330
22
100
AcDbEntity
  8
_4-7_
  6
Continuous
 62
     7
100
AcDbLine
 10
1003.490883198211
 20
947.6228350801104
 30
0.0
 11
1003.512085397199
 21
947.6138601919684
 31
0.0
  0
LINE
  5
539
330
22
100
AcDbEntity
  8
_4-7_
  6
Continuous
 62
     7
100
AcDbLine
 10
1003.512085397199
 20
947.6138601919684
 30
0.0
 11
1003.518271157822
 21
947.6120820955971
 31
0.0
  0
LINE
  5
53A
330
22
100
AcDbEntity
  8
_4-7_
  6
Continuous
 62
     7
100
AcDbLine
 10
1003.382910777121
 20
945.808354026535
 30
0.0
 11
1003.382910777121
 21
945.808354026535
 31
0.0
  0
LINE
  5
53B
330
22
100
AcDbEntity
  8
_4-7_
  6
Continuous
 62
     7
100
AcDbLine
 10
1003.382910777121
 20
945.808354026535
 30
0.0
 11
1003.382491336129
 21
945.7833801802923
 31
0.0
  0
LINE
  5
53C
330
22
100
AcDbEntity
  8
_4-7_
  6
Continuous
 62
     7
100
AcDbLine
 10
1003.382491336129
 20
945.7833801802923
 30
0.0
 11
1003.386022785231
 21
945.7587056668034
 31
0.0
  0
LINE
  5
53D
330
22
100
AcDbEntity
  8
_4-7_
  6
Continuous
 62
     7
100
AcDbLine
 10
1003.386022785231
 20
945.7587056668034
 30
0.0
 11
1003.393397823134
 21
945.7350802086748
 31
0.0
  0
LINE
  5
53E
330
22
100
AcDbEntity
  8
_4-7_
  6
Continuous
 62
     7
100
AcDbLine
 10
1003.393397823134
 20
945.7350802086748
 30
0.0
 11
1003.404392363043
 21
945.7132216534965
 31
0.0
  0
LINE
  5
53F
330
22
100
AcDbEntity
  8
_4-7_
  6
Continuous
 62
     7
100
AcDbLine
 10
1003.404392363043
 20
945.7132216534965
 30
0.0
 11
1003.418672341426
 21
945.6937941624067
 31
0.0
  0
LINE
  5
540
330
22
100
AcDbEntity
  8
_4-7_
  6
Continuous
 62
     7
100
AcDbLine
 10
1003.418672341426
 20
945.6937941624067
 30
0.0
 11
1003.435803868366
 21
945.6773880298914
 31
0.0
  0
LINE
  5
541
330
22
100
AcDbEntity
  8
_4-7_
  6
Continuous
 62
     7
100
AcDbLine
 10
1003.435803868366
 20
945.6773880298914
 30
0.0
 11
1003.455266411085
 21
945.6645017479857
 31
0.0
  0
LINE
  5
542
330
22
100
AcDbEntity
  8
_4-7_
  6
Continuous
 62
     7
100
AcDbLine
 10
1003.455266411085
 20
945.6645017479857
 30
0.0
 11
1003.476468610073
 21
945.6555268598433
 31
0.0
  0
LINE
  5
543
330
22
100
AcDbEntity
  8
_4-7_
  6
Continuous
 62
     7
100
AcDbLine
 10
1003.476468610073
 20
945.6555268598433
 30
0.0
 11
1003.482654370696
 21
945.6537487634724
 31
0.0
  0
LINE
  5
544
330
22
100
AcDbEntity
  8
_4-7_
  6
Continuous
 62
     7
100
AcDbLine
 10
1003.382910777121
 20
944.8291873604727
 30
0.0
 11
1003.382910777121
 21
944.8291873604727
 31
0.0
  0
LINE
  5
545
330
22
100
AcDbEntity
  8
_4-7_
  6
Continuous
 62
     7
100
AcDbLine
 10
1003.382910777121
 20
944.8291873604727
 30
0.0
 11
1003.382491336129
 21
944.8042135142301
 31
0.0
  0
LINE
  5
546
330
22
100
AcDbEntity
  8
_4-7_
  6
Continuous
 62
     7
100
AcDbLine
 10
1003.382491336129
 20
944.8042135142301
 30
0.0
 11
1003.386022785231
 21
944.7795390007412
 31
0.0
  0
LINE
  5
547
330
22
100
AcDbEntity
  8
_4-7_
  6
Continuous
 62
     7
100
AcDbLine
 10
1003.386022785231
 20
944.7795390007412
 30
0.0
 11
1003.393397823134
 21
944.7559135426125
 31
0.0
  0
LINE
  5
548
330
22
100
AcDbEntity
  8
_4-7_
  6
Continuous
 62
     7
100
AcDbLine
 10
1003.393397823134
 20
944.7559135426125
 30
0.0
 11
1003.404392363043
 21
944.7340549874342
 31
0.0
  0
LINE
  5
549
330
22
100
AcDbEntity
  8
_4-7_
  6
Continuous
 62
     7
100
AcDbLine
 10
1003.404392363043
 20
944.7340549874342
 30
0.0
 11
1003.418672341426
 21
944.7146274963442
 31
0.0
  0
LINE
  5
54A
330
22
100
AcDbEntity
  8
_4-7_
  6
Continuous
 62
     7
100
AcDbLine
 10
1003.418672341426
 20
944.7146274963442
 30
0.0
 11
1003.435803868366
 21
944.6982213638293
 31
0.0
  0
LINE
  5
54B
330
22
100
AcDbEntity
  8
_4-7_
  6
Continuous
 62
     7
100
AcDbLine
 10
1003.435803868366
 20
944.6982213638293
 30
0.0
 11
1003.455266411085
 21
944.6853350819232
 31
0.0
  0
LINE
  5
54C
330
22
100
AcDbEntity
  8
_4-7_
  6
Continuous
 62
     7
100
AcDbLine
 10
1003.455266411085
 20
944.6853350819232
 30
0.0
 11
1003.476468610073
 21
944.6763601937814
 31
0.0
  0
LINE
  5
54D
330
22
100
AcDbEntity
  8
_4-7_
  6
Continuous
 62
     7
100
AcDbLine
 10
1003.476468610073
 20
944.6763601937814
 30
0.0
 11
1003.482654370696
 21
944.6745820974099
 31
0.0
  0
LINE
  5
54E
330
22
100
AcDbEntity
  8
_4-7_
  6
Continuous
 62
     7
100
AcDbLine
 10
1003.382910777121
 20
943.8500206944103
 30
0.0
 11
1003.382910777121
 21
943.8500206944103
 31
0.0
  0
LINE
  5
54F
330
22
100
AcDbEntity
  8
_4-7_
  6
Continuous
 62
     7
100
AcDbLine
 10
1003.382910777121
 20
943.8500206944103
 30
0.0
 11
1003.382491336129
 21
943.8250468481674
 31
0.0
  0
LINE
  5
550
330
22
100
AcDbEntity
  8
_4-7_
  6
Continuous
 62
     7
100
AcDbLine
 10
1003.382491336129
 20
943.8250468481674
 30
0.0
 11
1003.386022785231
 21
943.8003723346788
 31
0.0
  0
LINE
  5
551
330
22
100
AcDbEntity
  8
_4-7_
  6
Continuous
 62
     7
100
AcDbLine
 10
1003.386022785231
 20
943.8003723346788
 30
0.0
 11
1003.393397823134
 21
943.7767468765501
 31
0.0
  0
LINE
  5
552
330
22
100
AcDbEntity
  8
_4-7_
  6
Continuous
 62
     7
100
AcDbLine
 10
1003.393397823134
 20
943.7767468765501
 30
0.0
 11
1003.404392363043
 21
943.754888321372
 31
0.0
  0
LINE
  5
553
330
22
100
AcDbEntity
  8
_4-7_
  6
Continuous
 62
     7
100
AcDbLine
 10
1003.404392363043
 20
943.754888321372
 30
0.0
 11
1003.418672341426
 21
943.7354608302818
 31
0.0
  0
LINE
  5
554
330
22
100
AcDbEntity
  8
_4-7_
  6
Continuous
 62
     7
100
AcDbLine
 10
1003.418672341426
 20
943.7354608302818
 30
0.0
 11
1003.435803868366
 21
943.7190546977667
 31
0.0
  0
LINE
  5
555
330
22
100
AcDbEntity
  8
_4-7_
  6
Continuous
 62
     7
100
AcDbLine
 10
1003.435803868366
 20
943.7190546977667
 30
0.0
 11
1003.455266411085
 21
943.7061684158607
 31
0.0
  0
LINE
  5
556
330
22
100
AcDbEntity
  8
_4-7_
  6
Continuous
 62
     7
100
AcDbLine
 10
1003.455266411085
 20
943.7061684158607
 30
0.0
 11
1003.476468610073
 21
943.6971935277188
 31
0.0
  0
LINE
  5
557
330
22
100
AcDbEntity
  8
_4-7_
  6
Continuous
 62
     7
100
AcDbLine
 10
1003.476468610073
 20
943.6971935277188
 30
0.0
 11
1003.482654370696
 21
943.6954154313475
 31
0.0
  0
LINE
  5
558
330
22
100
AcDbEntity
  8
_4-7_
  6
Continuous
 62
     7
100
AcDbLine
 10
1003.418710509354
 20
942.8708540283478
 30
0.0
 11
1003.418710509354
 21
942.8708540283478
 31
0.0
  0
LINE
  5
559
330
22
100
AcDbEntity
  8
_4-7_
  6
Continuous
 62
     7
100
AcDbLine
 10
1003.418710509354
 20
942.8708540283478
 30
0.0
 11
1003.418291068362
 21
942.8458801821053
 31
0.0
  0
LINE
  5
55A
330
22
100
AcDbEntity
  8
_4-7_
  6
Continuous
 62
     7
100
AcDbLine
 10
1003.418291068362
 20
942.8458801821053
 30
0.0
 11
1003.421822517464
 21
942.8212056686163
 31
0.0
  0
LINE
  5
55B
330
22
100
AcDbEntity
  8
_4-7_
  6
Continuous
 62
     7
100
AcDbLine
 10
1003.421822517464
 20
942.8212056686163
 30
0.0
 11
1003.429197555367
 21
942.7975802104878
 31
0.0
  0
LINE
  5
55C
330
22
100
AcDbEntity
  8
_4-7_
  6
Continuous
 62
     7
100
AcDbLine
 10
1003.429197555367
 20
942.7975802104878
 30
0.0
 11
1003.440192095276
 21
942.7757216553095
 31
0.0
  0
LINE
  5
55D
330
22
100
AcDbEntity
  8
_4-7_
  6
Continuous
 62
     7
100
AcDbLine
 10
1003.440192095276
 20
942.7757216553095
 30
0.0
 11
1003.454472073659
 21
942.7562941642195
 31
0.0
  0
LINE
  5
55E
330
22
100
AcDbEntity
  8
_4-7_
  6
Continuous
 62
     7
100
AcDbLine
 10
1003.454472073659
 20
942.7562941642195
 30
0.0
 11
1003.471603600599
 21
942.7398880317046
 31
0.0
  0
LINE
  5
55F
330
22
100
AcDbEntity
  8
_4-7_
  6
Continuous
 62
     7
100
AcDbLine
 10
1003.471603600599
 20
942.7398880317046
 30
0.0
 11
1003.491066143318
 21
942.7270017497985
 31
0.0
  0
LINE
  5
560
330
22
100
AcDbEntity
  8
_4-7_
  6
Continuous
 62
     7
100
AcDbLine
 10
1003.491066143318
 20
942.7270017497985
 30
0.0
 11
1003.512268342306
 21
942.7180268616563
 31
0.0
  0
LINE
  5
561
330
22
100
AcDbEntity
  8
_4-7_
  6
Continuous
 62
     7
100
AcDbLine
 10
1003.512268342306
 20
942.7180268616563
 30
0.0
 11
1003.518454102929
 21
942.7162487652852
 31
0.0
  0
LINE
  5
562
330
22
100
AcDbEntity
  8
_4-7_
  6
Continuous
 62
     7
100
AcDbLine
 10
1003.382910777121
 20
940.9125206962233
 30
0.0
 11
1003.382910777121
 21
940.9125206962233
 31
0.0
  0
LINE
  5
563
330
22
100
AcDbEntity
  8
_4-7_
  6
Continuous
 62
     7
100
AcDbLine
 10
1003.382910777121
 20
940.9125206962233
 30
0.0
 11
1003.382491336129
 21
940.8875468499804
 31
0.0
  0
LINE
  5
564
330
22
100
AcDbEntity
  8
_4-7_
  6
Continuous
 62
     7
100
AcDbLine
 10
1003.382491336129
 20
940.8875468499804
 30
0.0
 11
1003.386022785231
 21
940.8628723364916
 31
0.0
  0
LINE
  5
565
330
22
100
AcDbEntity
  8
_4-7_
  6
Continuous
 62
     7
100
AcDbLine
 10
1003.386022785231
 20
940.8628723364916
 30
0.0
 11
1003.393397823134
 21
940.8392468783629
 31
0.0
  0
LINE
  5
566
330
22
100
AcDbEntity
  8
_4-7_
  6
Continuous
 62
     7
100
AcDbLine
 10
1003.393397823134
 20
940.8392468783629
 30
0.0
 11
1003.404392363043
 21
940.8173883231846
 31
0.0
  0
LINE
  5
567
330
22
100
AcDbEntity
  8
_4-7_
  6
Continuous
 62
     7
100
AcDbLine
 10
1003.404392363043
 20
940.8173883231846
 30
0.0
 11
1003.418672341426
 21
940.7979608320948
 31
0.0
  0
LINE
  5
568
330
22
100
AcDbEntity
  8
_4-7_
  6
Continuous
 62
     7
100
AcDbLine
 10
1003.418672341426
 20
940.7979608320948
 30
0.0
 11
1003.435803868366
 21
940.7815546995799
 31
0.0
  0
LINE
  5
569
330
22
100
AcDbEntity
  8
_4-7_
  6
Continuous
 62
     7
100
AcDbLine
 10
1003.435803868366
 20
940.7815546995799
 30
0.0
 11
1003.455266411085
 21
940.7686684176736
 31
0.0
  0
LINE
  5
56A
330
22
100
AcDbEntity
  8
_4-7_
  6
Continuous
 62
     7
100
AcDbLine
 10
1003.455266411085
 20
940.7686684176736
 30
0.0
 11
1003.476468610073
 21
940.7596935295314
 31
0.0
  0
LINE
  5
56B
330
22
100
AcDbEntity
  8
_4-7_
  6
Continuous
 62
     7
100
AcDbLine
 10
1003.476468610073
 20
940.7596935295314
 30
0.0
 11
1003.482654370696
 21
940.7579154331605
 31
0.0
  0
LINE
  5
56C
330
22
100
AcDbEntity
  8
_4-7_
  6
Continuous
 62
     7
100
AcDbLine
 10
1003.403085809054
 20
939.9333540301595
 30
0.0
 11
1003.403085809054
 21
939.9333540301595
 31
0.0
  0
LINE
  5
56D
330
22
100
AcDbEntity
  8
_4-7_
  6
Continuous
 62
     7
100
AcDbLine
 10
1003.403085809054
 20
939.9333540301595
 30
0.0
 11
1003.402666368062
 21
939.9083801839166
 31
0.0
  0
LINE
  5
56E
330
22
100
AcDbEntity
  8
_4-7_
  6
Continuous
 62
     7
100
AcDbLine
 10
1003.402666368062
 20
939.9083801839166
 30
0.0
 11
1003.406197817165
 21
939.8837056704278
 31
0.0
  0
LINE
  5
56F
330
22
100
AcDbEntity
  8
_4-7_
  6
Continuous
 62
     7
100
AcDbLine
 10
1003.406197817165
 20
939.8837056704278
 30
0.0
 11
1003.413572855067
 21
939.8600802122993
 31
0.0
  0
LINE
  5
570
330
22
100
AcDbEntity
  8
_4-7_
  6
Continuous
 62
     7
100
AcDbLine
 10
1003.413572855067
 20
939.8600802122993
 30
0.0
 11
1003.424567394976
 21
939.8382216571212
 31
0.0
  0
LINE
  5
571
330
22
100
AcDbEntity
  8
_4-7_
  6
Continuous
 62
     7
100
AcDbLine
 10
1003.424567394976
 20
939.8382216571212
 30
0.0
 11
1003.438847373359
 21
939.8187941660314
 31
0.0
  0
LINE
  5
572
330
22
100
AcDbEntity
  8
_4-7_
  6
Continuous
 62
     7
100
AcDbLine
 10
1003.438847373359
 20
939.8187941660314
 30
0.0
 11
1003.455978900299
 21
939.8023880335165
 31
0.0
  0
LINE
  5
573
330
22
100
AcDbEntity
  8
_4-7_
  6
Continuous
 62
     7
100
AcDbLine
 10
1003.455978900299
 20
939.8023880335165
 30
0.0
 11
1003.475441443018
 21
939.7895017516098
 31
0.0
  0
LINE
  5
574
330
22
100
AcDbEntity
  8
_4-7_
  6
Continuous
 62
     7
100
AcDbLine
 10
1003.475441443018
 20
939.7895017516098
 30
0.0
 11
1003.496643642006
 21
939.780526863468
 31
0.0
  0
LINE
  5
575
330
22
100
AcDbEntity
  8
_4-7_
  6
Continuous
 62
     7
100
AcDbLine
 10
1003.496643642006
 20
939.780526863468
 30
0.0
 11
1003.50282940263
 21
939.7787487670973
 31
0.0
  0
LINE
  5
576
330
22
100
AcDbEntity
  8
_4-7_
  6
Continuous
 62
     7
100
AcDbLine
 10
1003.42315015456
 20
938.9541873640972
 30
0.0
 11
1003.42315015456
 21
938.9541873640972
 31
0.0
  0
LINE
  5
577
330
22
100
AcDbEntity
  8
_4-7_
  6
Continuous
 62
     7
100
AcDbLine
 10
1003.42315015456
 20
938.9541873640972
 30
0.0
 11
1003.422730713568
 21
938.9292135178543
 31
0.0
  0
LINE
  5
578
330
22
100
AcDbEntity
  8
_4-7_
  6
Continuous
 62
     7
100
AcDbLine
 10
1003.422730713568
 20
938.9292135178543
 30
0.0
 11
1003.426262162671
 21
938.9045390043657
 31
0.0
  0
LINE
  5
579
330
22
100
AcDbEntity
  8
_4-7_
  6
Continuous
 62
     7
100
AcDbLine
 10
1003.426262162671
 20
938.9045390043657
 30
0.0
 11
1003.433637200573
 21
938.880913546237
 31
0.0
  0
LINE
  5
57A
330
22
100
AcDbEntity
  8
_4-7_
  6
Continuous
 62
     7
100
AcDbLine
 10
1003.433637200573
 20
938.880913546237
 30
0.0
 11
1003.444631740482
 21
938.8590549910587
 31
0.0
  0
LINE
  5
57B
330
22
100
AcDbEntity
  8
_4-7_
  6
Continuous
 62
     7
100
AcDbLine
 10
1003.444631740482
 20
938.8590549910587
 30
0.0
 11
1003.458911718865
 21
938.839627499969
 31
0.0
  0
LINE
  5
57C
330
22
100
AcDbEntity
  8
_4-7_
  6
Continuous
 62
     7
100
AcDbLine
 10
1003.458911718865
 20
938.839627499969
 30
0.0
 11
1003.476043245805
 21
938.8232213674539
 31
0.0
  0
LINE
  5
57D
330
22
100
AcDbEntity
  8
_4-7_
  6
Continuous
 62
     7
100
AcDbLine
 10
1003.476043245805
 20
938.8232213674539
 30
0.0
 11
1003.495505788524
 21
938.8103350855475
 31
0.0
  0
LINE
  5
57E
330
22
100
AcDbEntity
  8
_4-7_
  6
Continuous
 62
     7
100
AcDbLine
 10
1003.495505788524
 20
938.8103350855475
 30
0.0
 11
1003.516707987512
 21
938.8013601974057
 31
0.0
  0
LINE
  5
57F
330
22
100
AcDbEntity
  8
_4-7_
  6
Continuous
 62
     7
100
AcDbLine
 10
1003.516707987512
 20
938.8013601974057
 30
0.0
 11
1003.522893748135
 21
938.7995821010347
 31
0.0
  0
LINE
  5
580
330
22
100
AcDbEntity
  8
_4-7_
  6
Continuous
 62
     7
100
AcDbLine
 10
1003.437096986453
 20
937.9750206980359
 30
0.0
 11
1003.437096986453
 21
937.9750206980359
 31
0.0
  0
LINE
  5
581
330
22
100
AcDbEntity
  8
_4-7_
  6
Continuous
 62
     7
100
AcDbLine
 10
1003.437096986453
 20
937.9750206980359
 30
0.0
 11
1003.436677545461
 21
937.9500468517932
 31
0.0
  0
LINE
  5
582
330
22
100
AcDbEntity
  8
_4-7_
  6
Continuous
 62
     7
100
AcDbLine
 10
1003.436677545461
 20
937.9500468517932
 30
0.0
 11
1003.440208994564
 21
937.9253723383044
 31
0.0
  0
LINE
  5
583
330
22
100
AcDbEntity
  8
_4-7_
  6
Continuous
 62
     7
100
AcDbLine
 10
1003.440208994564
 20
937.9253723383044
 30
0.0
 11
1003.447584032467
 21
937.9017468801757
 31
0.0
  0
LINE
  5
584
330
22
100
AcDbEntity
  8
_4-7_
  6
Continuous
 62
     7
100
AcDbLine
 10
1003.447584032467
 20
937.9017468801757
 30
0.0
 11
1003.458578572375
 21
937.8798883249976
 31
0.0
  0
LINE
  5
585
330
22
100
AcDbEntity
  8
_4-7_
  6
Continuous
 62
     7
100
AcDbLine
 10
1003.458578572375
 20
937.8798883249976
 30
0.0
 11
1003.472858550759
 21
937.8604608339079
 31
0.0
  0
LINE
  5
586
330
22
100
AcDbEntity
  8
_4-7_
  6
Continuous
 62
     7
100
AcDbLine
 10
1003.472858550759
 20
937.8604608339079
 30
0.0
 11
1003.489990077698
 21
937.8440547013926
 31
0.0
  0
LINE
  5
587
330
22
100
AcDbEntity
  8
_4-7_
  6
Continuous
 62
     7
100
AcDbLine
 10
1003.489990077698
 20
937.8440547013926
 30
0.0
 11
1003.509452620418
 21
937.8311684194864
 31
0.0
  0
LINE
  5
588
330
22
100
AcDbEntity
  8
_4-7_
  6
Continuous
 62
     7
100
AcDbLine
 10
1003.509452620418
 20
937.8311684194864
 30
0.0
 11
1003.530654819406
 21
937.8221935313442
 31
0.0
  0
LINE
  5
589
330
22
100
AcDbEntity
  8
_4-7_
  6
Continuous
 62
     7
100
AcDbLine
 10
1003.530654819406
 20
937.8221935313442
 30
0.0
 11
1003.536840580029
 21
937.8204154349734
 31
0.0
  0
LINE
  5
58A
330
22
100
AcDbEntity
  8
_4-7_
  6
Continuous
 62
     7
100
AcDbLine
 10
1003.458036098288
 20
937.0113092325787
 30
0.0
 11
1003.458036098288
 21
937.0113092325787
 31
0.0
  0
LINE
  5
58B
330
22
100
AcDbEntity
  8
_4-7_
  6
Continuous
 62
     7
100
AcDbLine
 10
1003.458036098288
 20
937.0113092325787
 30
0.0
 11
1003.449497253444
 21
936.9948792313429
 31
0.0
  0
LINE
  5
58C
330
22
100
AcDbEntity
  8
_4-7_
  6
Continuous
 62
     7
100
AcDbLine
 10
1003.449497253444
 20
936.9948792313429
 30
0.0
 11
1003.443683184977
 21
936.977068675522
 31
0.0
  0
LINE
  5
58D
330
22
100
AcDbEntity
  8
_4-7_
  6
Continuous
 62
     7
100
AcDbLine
 10
1003.443683184977
 20
936.977068675522
 30
0.0
 11
1003.440770550413
 21
936.9584187298418
 31
0.0
  0
LINE
  5
58E
330
22
100
AcDbEntity
  8
_4-7_
  6
Continuous
 62
     7
100
AcDbLine
 10
1003.440770550413
 20
936.9584187298418
 30
0.0
 11
1003.440847848682
 21
936.9394960634647
 31
0.0
  0
LINE
  5
58F
330
22
100
AcDbEntity
  8
_4-7_
  6
Continuous
 62
     7
100
AcDbLine
 10
1003.440847848682
 20
936.9394960634647
 30
0.0
 11
1003.443912731113
 21
936.9208756320329
 31
0.0
  0
LINE
  5
590
330
22
100
AcDbEntity
  8
_4-7_
  6
Continuous
 62
     7
100
AcDbLine
 10
1003.443912731113
 20
936.9208756320329
 30
0.0
 11
1003.449872072805
 21
936.9031232079331
 31
0.0
  0
LINE
  5
591
330
22
100
AcDbEntity
  8
_4-7_
  6
Continuous
 62
     7
100
AcDbLine
 10
1003.449872072805
 20
936.9031232079331
 30
0.0
 11
1003.458544802177
 21
936.8867781895888
 31
0.0
  0
LINE
  5
592
330
22
100
AcDbEntity
  8
_4-7_
  6
Continuous
 62
     7
100
AcDbLine
 10
1003.458544802177
 20
936.8867781895888
 30
0.0
 11
1003.469667402734
 21
936.8723372121111
 31
0.0
  0
LINE
  5
593
330
22
100
AcDbEntity
  8
_4-7_
  6
Continuous
 62
     7
100
AcDbLine
 10
1003.469667402734
 20
936.8723372121111
 30
0.0
 11
1003.482901919888
 21
936.8602390572931
 31
0.0
  0
LINE
  5
594
330
22
100
AcDbEntity
  8
_4-7_
  6
Continuous
 62
     7
100
AcDbLine
 10
1003.482901919888
 20
936.8602390572931
 30
0.0
 11
1003.497846229532
 21
936.8508513214473
 31
0.0
  0
LINE
  5
595
330
22
100
AcDbEntity
  8
_4-7_
  6
Continuous
 62
     7
100
AcDbLine
 10
1003.497846229532
 20
936.8508513214473
 30
0.0
 11
1003.51404625638
 21
936.8444592461766
 31
0.0
  0
LINE
  5
596
330
22
100
AcDbEntity
  8
_4-7_
  6
Continuous
 62
     7
100
AcDbLine
 10
1003.51404625638
 20
936.8444592461766
 30
0.0
 11
1003.531009770812
 21
936.8412570514541
 31
0.0
  0
LINE
  5
597
330
22
100
AcDbEntity
  8
_4-7_
  6
Continuous
 62
     7
100
AcDbLine
 10
1003.531009770812
 20
936.8412570514541
 30
0.0
 11
1003.531101089447
 21
936.8412487689104
 31
0.0
  0
LINE
  5
598
330
22
100
AcDbEntity
  8
_4-7_
  6
Continuous
 62
     7
100
AcDbLine
 10
1003.720544058196
 20
942.4070382391603
 30
0.0
 11
1003.720544058196
 21
942.4070382391603
 31
0.0
  0
LINE
  5
599
330
22
100
AcDbEntity
  8
_4-7_
  6
Continuous
 62
     7
100
AcDbLine
 10
1003.720544058196
 20
942.4070382391603
 30
0.0
 11
1003.66784041395
 21
942.3993757662556
 31
0.0
  0
LINE
  5
59A
330
22
100
AcDbEntity
  8
_4-7_
  6
Continuous
 62
     7
100
AcDbLine
 10
1003.66784041395
 20
942.3993757662556
 30
0.0
 11
1003.617147713039
 21
942.3817679745635
 31
0.0
  0
LINE
  5
59B
330
22
100
AcDbEntity
  8
_4-7_
  6
Continuous
 62
     7
100
AcDbLine
 10
1003.617147713039
 20
942.3817679745635
 30
0.0
 11
1003.570006227527
 21
942.3547498679253
 31
0.0
  0
LINE
  5
59C
330
22
100
AcDbEntity
  8
_4-7_
  6
Continuous
 62
     7
100
AcDbLine
 10
1003.570006227527
 20
942.3547498679253
 30
0.0
 11
1003.527848327598
 21
942.3191423778385
 31
0.0
  0
LINE
  5
59D
330
22
100
AcDbEntity
  8
_4-7_
  6
Continuous
 62
     7
100
AcDbLine
 10
1003.527848327598
 20
942.3191423778385
 30
0.0
 11
1003.491954959709
 21
942.276027419872
 31
0.0
  0
LINE
  5
59E
330
22
100
AcDbEntity
  8
_4-7_
  6
Continuous
 62
     7
100
AcDbLine
 10
1003.491954959709
 20
942.276027419872
 30
0.0
 11
1003.463416725679
 21
942.2267150202056
 31
0.0
  0
LINE
  5
59F
330
22
100
AcDbEntity
  8
_4-7_
  6
Continuous
 62
     7
100
AcDbLine
 10
1003.463416725679
 20
942.2267150202056
 30
0.0
 11
1003.443100745308
 21
942.1727035111505
 31
0.0
  0
LINE
  5
5A0
330
22
100
AcDbEntity
  8
_4-7_
  6
Continuous
 62
     7
100
AcDbLine
 10
1003.443100745308
 20
942.1727035111505
 30
0.0
 11
1003.43162430938
 21
942.1156340050782
 31
0.0
  0
LINE
  5
5A1
330
22
100
AcDbEntity
  8
_4-7_
  6
Continuous
 62
     7
100
AcDbLine
 10
1003.43162430938
 20
942.1156340050782
 30
0.0
 11
1003.429336123592
 21
942.0572405300516
 31
0.0
  0
LINE
  5
5A2
330
22
100
AcDbEntity
  8
_4-7_
  6
Continuous
 62
     7
100
AcDbLine
 10
1003.429336123592
 20
942.0572405300516
 30
0.0
 11
1003.436305713313
 21
941.9992973422612
 31
0.0
  0
LINE
  5
5A3
330
22
100
AcDbEntity
  8
_4-7_
  6
Continuous
 62
     7
100
AcDbLine
 10
1003.436305713313
 20
941.9992973422612
 30
0.0
 11
1003.452321311086
 21
941.9435650161473
 31
0.0
  0
LINE
  5
5A4
330
22
100
AcDbEntity
  8
_4-7_
  6
Continuous
 62
     7
100
AcDbLine
 10
1003.452321311086
 20
941.9435650161473
 30
0.0
 11
1003.476896291076
 21
941.8917369502368
 31
0.0
  0
LINE
  5
5A5
330
22
100
AcDbEntity
  8
_4-7_
  6
Continuous
 62
     7
100
AcDbLine
 10
1003.476896291076
 20
941.8917369502368
 30
0.0
 11
1003.50928395495
 21
941.8453879140868
 31
0.0
  0
LINE
  5
5A6
330
22
100
AcDbEntity
  8
_4-7_
  6
Continuous
 62
     7
100
AcDbLine
 10
1003.50928395495
 20
941.8453879140868
 30
0.0
 11
1003.548500219934
 21
941.8059261997058
 31
0.0
  0
LINE
  5
5A7
330
22
100
AcDbEntity
  8
_4-7_
  6
Continuous
 62
     7
100
AcDbLine
 10
1003.548500219934
 20
941.8059261997058
 30
0.0
 11
1003.593353519658
 21
941.774550831318
 31
0.0
  0
LINE
  5
5A8
330
22
100
AcDbEntity
  8
_4-7_
  6
Continuous
 62
     7
100
AcDbLine
 10
1003.593353519658
 20
941.774550831318
 30
0.0
 11
1003.642481009307
 21
941.7522151336141
 31
0.0
  0
LINE
  5
5A9
330
22
100
AcDbEntity
  8
_4-7_
  6
Continuous
 62
     7
100
AcDbLine
 10
1003.642481009307
 20
941.7522151336141
 30
0.0
 11
1003.694389974969
 21
941.739597765467
 31
0.0
  0
LINE
  5
5AA
330
22
100
AcDbEntity
  8
_4-7_
  6
Continuous
 62
     7
100
AcDbLine
 10
1003.694389974969
 20
941.739597765467
 30
0.0
 11
1003.720544058196
 21
941.7370820992227
 31
0.0
  0
LINE
  5
5AB
330
22
100
AcDbEntity
  8
_4-7_
  6
Continuous
 62
     7
100
AcDbLine
 10
1003.720544058196
 20
947.3028715694736
 30
0.0
 11
1003.720544058196
 21
947.3028715694736
 31
0.0
  0
LINE
  5
5AC
330
22
100
AcDbEntity
  8
_4-7_
  6
Continuous
 62
     7
100
AcDbLine
 10
1003.720544058196
 20
947.3028715694736
 30
0.0
 11
1003.66784041395
 21
947.2952090965685
 31
0.0
  0
LINE
  5
5AD
330
22
100
AcDbEntity
  8
_4-7_
  6
Continuous
 62
     7
100
AcDbLine
 10
1003.66784041395
 20
947.2952090965685
 30
0.0
 11
1003.617147713039
 21
947.2776013048767
 31
0.0
  0
LINE
  5
5AE
330
22
100
AcDbEntity
  8
_4-7_
  6
Continuous
 62
     7
100
AcDbLine
 10
1003.617147713039
 20
947.2776013048767
 30
0.0
 11
1003.570006227527
 21
947.2505831982383
 31
0.0
  0
LINE
  5
5AF
330
22
100
AcDbEntity
  8
_4-7_
  6
Continuous
 62
     7
100
AcDbLine
 10
1003.570006227527
 20
947.2505831982383
 30
0.0
 11
1003.527848327598
 21
947.2149757081515
 31
0.0
  0
LINE
  5
5B0
330
22
100
AcDbEntity
  8
_4-7_
  6
Continuous
 62
     7
100
AcDbLine
 10
1003.527848327598
 20
947.2149757081515
 30
0.0
 11
1003.491954959709
 21
947.1718607501848
 31
0.0
  0
LINE
  5
5B1
330
22
100
AcDbEntity
  8
_4-7_
  6
Continuous
 62
     7
100
AcDbLine
 10
1003.491954959709
 20
947.1718607501848
 30
0.0
 11
1003.463416725679
 21
947.1225483505188
 31
0.0
  0
LINE
  5
5B2
330
22
100
AcDbEntity
  8
_4-7_
  6
Continuous
 62
     7
100
AcDbLine
 10
1003.463416725679
 20
947.1225483505188
 30
0.0
 11
1003.443100745308
 21
947.0685368414635
 31
0.0
  0
LINE
  5
5B3
330
22
100
AcDbEntity
  8
_4-7_
  6
Continuous
 62
     7
100
AcDbLine
 10
1003.443100745308
 20
947.0685368414635
 30
0.0
 11
1003.43162430938
 21
947.0114673353911
 31
0.0
  0
LINE
  5
5B4
330
22
100
AcDbEntity
  8
_4-7_
  6
Continuous
 62
     7
100
AcDbLine
 10
1003.43162430938
 20
947.0114673353911
 30
0.0
 11
1003.429336123592
 21
946.9530738603648
 31
0.0
  0
LINE
  5
5B5
330
22
100
AcDbEntity
  8
_4-7_
  6
Continuous
 62
     7
100
AcDbLine
 10
1003.429336123592
 20
946.9530738603648
 30
0.0
 11
1003.436305713313
 21
946.8951306725742
 31
0.0
  0
LINE
  5
5B6
330
22
100
AcDbEntity
  8
_4-7_
  6
Continuous
 62
     7
100
AcDbLine
 10
1003.436305713313
 20
946.8951306725742
 30
0.0
 11
1003.452321311086
 21
946.8393983464606
 31
0.0
  0
LINE
  5
5B7
330
22
100
AcDbEntity
  8
_4-7_
  6
Continuous
 62
     7
100
AcDbLine
 10
1003.452321311086
 20
946.8393983464606
 30
0.0
 11
1003.476896291076
 21
946.7875702805502
 31
0.0
  0
LINE
  5
5B8
330
22
100
AcDbEntity
  8
_4-7_
  6
Continuous
 62
     7
100
AcDbLine
 10
1003.476896291076
 20
946.7875702805502
 30
0.0
 11
1003.50928395495
 21
946.7412212443996
 31
0.0
  0
LINE
  5
5B9
330
22
100
AcDbEntity
  8
_4-7_
  6
Continuous
 62
     7
100
AcDbLine
 10
1003.50928395495
 20
946.7412212443996
 30
0.0
 11
1003.548500219934
 21
946.7017595300191
 31
0.0
  0
LINE
  5
5BA
330
22
100
AcDbEntity
  8
_4-7_
  6
Continuous
 62
     7
100
AcDbLine
 10
1003.548500219934
 20
946.7017595300191
 30
0.0
 11
1003.593353519658
 21
946.6703841616308
 31
0.0
  0
LINE
  5
5BB
330
22
100
AcDbEntity
  8
_4-7_
  6
Continuous
 62
     7
100
AcDbLine
 10
1003.593353519658
 20
946.6703841616308
 30
0.0
 11
1003.642481009307
 21
946.6480484639273
 31
0.0
  0
LINE
  5
5BC
330
22
100
AcDbEntity
  8
_4-7_
  6
Continuous
 62
     7
100
AcDbLine
 10
1003.642481009307
 20
946.6480484639273
 30
0.0
 11
1003.694389974969
 21
946.63543109578
 31
0.0
  0
LINE
  5
5BD
330
22
100
AcDbEntity
  8
_4-7_
  6
Continuous
 62
     7
100
AcDbLine
 10
1003.694389974969
 20
946.63543109578
 30
0.0
 11
1003.720544058196
 21
946.632915429536
 31
0.0
  0
LINE
  5
5BE
330
22
100
AcDbEntity
  8
_4-7_
  6
Continuous
 62
     7
100
AcDbLine
 10
1003.517283551446
 20
935.3467312259724
 30
0.0
 11
1003.517283551446
 21
935.3467312259724
 31
0.0
  0
LINE
  5
5BF
330
22
100
AcDbEntity
  8
_4-7_
  6
Continuous
 62
     7
100
AcDbLine
 10
1003.517283551446
 20
935.3467312259724
 30
0.0
 11
1003.494667792757
 21
935.2632410217431
 31
0.0
  0
LINE
  5
5C0
330
22
100
AcDbEntity
  8
_4-7_
  6
Continuous
 62
     7
100
AcDbLine
 10
1003.494667792757
 20
935.2632410217431
 30
0.0
 11
1003.485582557794
 21
935.1767016141083
 31
0.0
  0
LINE
  5
5C1
330
22
100
AcDbEntity
  8
_4-7_
  6
Continuous
 62
     7
100
AcDbLine
 10
1003.485582557794
 20
935.1767016141083
 30
0.0
 11
1003.485861468266
 21
935.1405908752223
 31
0.0
  0
LINE
  5
5C2
330
22
100
AcDbEntity
  8
_4-7_
  6
Continuous
 62
     7
100
AcDbLine
 10
1003.168647651946
 20
933.9037487707228
 30
0.0
 11
1003.168647651946
 21
933.9037487707228
 31
0.0
  0
LINE
  5
5C3
330
22
100
AcDbEntity
  8
_4-7_
  6
Continuous
 62
     7
100
AcDbLine
 10
1003.168647651946
 20
933.9037487707228
 30
0.0
 11
1003.164872165982
 21
933.9384553802089
 31
0.0
  0
LINE
  5
5C4
330
22
100
AcDbEntity
  8
_4-7_
  6
Continuous
 62
     7
100
AcDbLine
 10
1003.164872165982
 20
933.9384553802089
 30
0.0
 11
1003.155672269763
 21
933.9719139348241
 31
0.0
  0
LINE
  5
5C5
330
22
100
AcDbEntity
  8
_4-7_
  6
Continuous
 62
     7
100
AcDbLine
 10
1003.155672269763
 20
933.9719139348241
 30
0.0
 11
1003.141327497481
 21
934.0031078133176
 31
0.0
  0
LINE
  5
5C6
330
22
100
AcDbEntity
  8
_4-7_
  6
Continuous
 62
     7
100
AcDbLine
 10
1003.141327497481
 20
934.0031078133176
 30
0.0
 11
1003.122273707784
 21
934.0310892054759
 31
0.0
  0
LINE
  5
5C7
330
22
100
AcDbEntity
  8
_4-7_
  6
Continuous
 62
     7
100
AcDbLine
 10
1003.122273707784
 20
934.0310892054759
 30
0.0
 11
1003.099089840429
 21
934.0550079108577
 31
0.0
  0
LINE
  5
5C8
330
22
100
AcDbEntity
  8
_4-7_
  6
Continuous
 62
     7
100
AcDbLine
 10
1003.099089840429
 20
934.0550079108577
 30
0.0
 11
1003.072480325494
 21
934.0741371717033
 31
0.0
  0
LINE
  5
5C9
330
22
100
AcDbEntity
  8
_4-7_
  6
Continuous
 62
     7
100
AcDbLine
 10
1003.072480325494
 20
934.0741371717033
 30
0.0
 11
1003.043253679625
 21
934.0878957551021
 31
0.0
  0
LINE
  5
5CA
330
22
100
AcDbEntity
  8
_4-7_
  6
Continuous
 62
     7
100
AcDbLine
 10
1003.043253679625
 20
934.0878957551021
 30
0.0
 11
1003.012297939668
 21
934.0958656134592
 31
0.0
  0
LINE
  5
5CB
330
22
100
AcDbEntity
  8
_4-7_
  6
Continuous
 62
     7
100
AcDbLine
 10
1003.012297939668
 20
934.0958656134592
 30
0.0
 11
1002.980553680117
 21
934.0978045866622
 31
0.0
  0
LINE
  5
5CC
330
22
100
AcDbEntity
  8
_4-7_
  6
Continuous
 62
     7
100
AcDbLine
 10
1002.980553680117
 20
934.0978045866622
 30
0.0
 11
1002.948985434235
 21
934.0936537599905
 31
0.0
  0
LINE
  5
5CD
330
22
100
AcDbEntity
  8
_4-7_
  6
Continuous
 62
     7
100
AcDbLine
 10
1002.948985434235
 20
934.0936537599905
 30
0.0
 11
1002.918552387199
 21
934.0835392542123
 31
0.0
  0
LINE
  5
5CE
330
22
100
AcDbEntity
  8
_4-7_
  6
Continuous
 62
     7
100
AcDbLine
 10
1002.918552387199
 20
934.0835392542123
 30
0.0
 11
1002.890179231743
 21
934.0677683934682
 31
0.0
  0
LINE
  5
5CF
330
22
100
AcDbEntity
  8
_4-7_
  6
Continuous
 62
     7
100
AcDbLine
 10
1002.890179231743
 20
934.0677683934682
 30
0.0
 11
1002.864728071839
 21
934.0468203673806
 31
0.0
  0
LINE
  5
5D0
330
22
100
AcDbEntity
  8
_4-7_
  6
Continuous
 62
     7
100
AcDbLine
 10
1002.864728071839
 20
934.0468203673806
 30
0.0
 11
1002.8429722281
 21
934.0213316711228
 31
0.0
  0
LINE
  5
5D1
330
22
100
AcDbEntity
  8
_4-7_
  6
Continuous
 62
     7
100
AcDbLine
 10
1002.8429722281
 20
934.0213316711228
 30
0.0
 11
1002.825572740831
 21
933.992076765832
 31
0.0
  0
LINE
  5
5D2
330
22
100
AcDbEntity
  8
_4-7_
  6
Continuous
 62
     7
100
AcDbLine
 10
1002.825572740831
 20
933.992076765832
 30
0.0
 11
1002.813058284647
 21
933.9599445470017
 31
0.0
  0
LINE
  5
5D3
330
22
100
AcDbEntity
  8
_4-7_
  6
Continuous
 62
     7
100
AcDbLine
 10
1002.813058284647
 20
933.9599445470017
 30
0.0
 11
1002.805809104967
 21
933.9259113358423
 31
0.0
  0
LINE
  5
5D4
330
22
100
AcDbEntity
  8
_4-7_
  6
Continuous
 62
     7
100
AcDbLine
 10
1002.805809104967
 20
933.9259113358423
 30
0.0
 11
1002.804045464446
 21
933.8910112142523
 31
0.0
  0
LINE
  5
5D5
330
22
100
AcDbEntity
  8
_4-7_
  6
Continuous
 62
     7
100
AcDbLine
 10
1002.804045464446
 20
933.8910112142523
 30
0.0
 11
1002.804045464446
 21
933.8910112142523
 31
0.0
  0
LINE
  5
5D6
330
22
100
AcDbEntity
  8
_4-7_
  6
Continuous
 62
     7
100
AcDbLine
 10
999.8650753081966
 20
957.0085442060284
 30
0.0
 11
999.8650753081966
 21
959.5682224390975
 31
0.0
  0
LINE
  5
5D7
330
22
100
AcDbEntity
  8
_4-7_
  6
Continuous
 62
     7
100
AcDbLine
 10
999.8650753081966
 20
959.5682224390975
 30
0.0
 11
1001.740075308197
 21
959.5682224390975
 31
0.0
  0
LINE
  5
5D8
330
22
100
AcDbEntity
  8
_4-7_
  6
Continuous
 62
     7
100
AcDbLine
 10
999.8650753081966
 20
957.0085442060284
 30
0.0
 11
999.3963253081965
 21
956.4931936309006
 31
0.0
  0
LINE
  5
5D9
330
22
100
AcDbEntity
  8
_4-7_
  6
Continuous
 62
     7
100
AcDbLine
 10
999.3963253081965
 20
956.4931936309006
 30
0.0
 11
999.3963253081965
 21
955.1815650514541
 31
0.0
  0
LINE
  5
5DA
330
22
100
AcDbEntity
  8
_4-7_
  6
Continuous
 62
     7
100
AcDbLine
 10
999.3963253081965
 20
955.1815650514541
 30
0.0
 11
999.7389623394466
 21
952.6080692306734
 31
0.0
  0
LINE
  5
5DB
330
22
100
AcDbEntity
  8
_4-7_
  6
Continuous
 62
     7
100
AcDbLine
 10
999.7389623394466
 20
952.6080692306734
 30
0.0
 11
999.8901646831967
 21
952.3533101628473
 31
0.0
  0
LINE
  5
5DC
330
22
100
AcDbEntity
  8
_4-7_
  6
Continuous
 62
     7
100
AcDbLine
 10
999.8901646831967
 20
952.3533101628473
 30
0.0
 11
999.8650753081966
 21
952.3533101628473
 31
0.0
  0
LINE
  5
5DD
330
22
100
AcDbEntity
  8
_4-7_
  6
Continuous
 62
     7
100
AcDbLine
 10
999.8650753081966
 20
952.3533101628473
 30
0.0
 11
999.8650753081966
 21
951.2195382337235
 31
0.0
  0
LINE
  5
5DE
330
22
100
AcDbEntity
  8
_4-7_
  6
Continuous
 62
     7
100
AcDbLine
 10
999.8650753081966
 20
951.2195382337235
 30
0.0
 11
1000.135708158552
 21
950.7041873568484
 31
0.0
  0
LINE
  5
5DF
330
22
100
AcDbEntity
  8
_4-7_
  6
Continuous
 62
     7
100
AcDbLine
 10
1000.054518276947
 20
950.5495820937849
 30
0.0
 11
999.4432003081959
 21
950.5495820937849
 31
0.0
  0
LINE
  5
5E0
330
22
100
AcDbEntity
  8
_4-7_
  6
Continuous
 62
     7
100
AcDbLine
 10
999.4432003081959
 20
950.5495820937849
 30
0.0
 11
999.4432003081959
 21
947.9037129726103
 31
0.0
  0
LINE
  5
5E1
330
22
100
AcDbEntity
  8
_4-7_
  6
Continuous
 62
     7
100
AcDbLine
 10
999.4432003081959
 20
947.9037129726103
 30
0.0
 11
999.7566187456964
 21
947.3028715694727
 31
0.0
  0
LINE
  5
5E2
330
22
100
AcDbEntity
  8
_4-7_
  6
Continuous
 62
     7
100
AcDbLine
 10
999.7566187456964
 20
947.3028715694727
 30
0.0
 11
999.7596065581971
 21
947.3028715694727
 31
0.0
  0
LINE
  5
5E3
330
22
100
AcDbEntity
  8
_4-7_
  6
Continuous
 62
     7
100
AcDbLine
 10
999.7596091664995
 20
947.302871790587
 30
0.0
 11
999.7596065581971
 21
947.3028715694727
 31
0.0
  0
LINE
  5
5E4
330
22
100
AcDbEntity
  8
_4-7_
  6
Continuous
 62
     7
100
AcDbLine
 10
999.7596091664995
 20
947.302871790587
 30
0.0
 11
999.7596065581971
 21
947.3028715694727
 31
0.0
  0
LINE
  5
5E5
330
22
100
AcDbEntity
  8
_4-7_
  6
Continuous
 62
     7
100
AcDbLine
 10
999.7799760894457
 20
946.6329154295353
 30
0.0
 11
999.4432003081959
 21
946.6329154295353
 31
0.0
  0
LINE
  5
5E6
330
22
100
AcDbEntity
  8
_4-7_
  6
Continuous
 62
     7
100
AcDbLine
 10
999.4432003081959
 20
946.6329154295353
 30
0.0
 11
999.4432003081959
 21
943.0096447190523
 31
0.0
  0
LINE
  5
5E7
330
22
100
AcDbEntity
  8
_4-7_
  6
Continuous
 62
     7
100
AcDbLine
 10
999.4432003081959
 20
943.0096447190523
 30
0.0
 11
999.7596048001101
 21
942.4070501129484
 31
0.0
  0
LINE
  5
5E8
330
22
100
AcDbEntity
  8
_4-7_
  6
Continuous
 62
     7
100
AcDbLine
 10
999.7596065581971
 20
942.4070382391599
 30
0.0
 11
999.7618513271692
 21
942.7054453624352
 31
0.0
  0
LINE
  5
5E9
330
22
100
AcDbEntity
  8
_4-7_
  6
Continuous
 62
     7
100
AcDbLine
 10
999.7618513271692
 20
942.7054453624352
 30
0.0
 11
999.9622763319344
 21
942.7162487652857
 31
0.0
  0
LINE
  5
5EA
330
22
100
AcDbEntity
  8
_4-7_
  6
Continuous
 62
     7
100
AcDbLine
 10
1000.061440107038
 20
942.870854028348
 30
0.0
 11
999.7799760894457
 21
943.3862049052223
 31
0.0
  0
LINE
  5
5EB
330
22
100
AcDbEntity
  8
_4-7_
  6
Continuous
 62
     7
100
AcDbLine
 10
999.7799760894457
 20
943.3862049052223
 30
0.0
 11
999.7799759943694
 21
943.6846120733447
 31
0.0
  0
LINE
  5
5EC
330
22
100
AcDbEntity
  8
_4-7_
  6
Continuous
 62
     7
100
AcDbLine
 10
999.7799759943694
 20
943.6846120733447
 30
0.0
 11
999.997496245697
 21
943.6954154313481
 31
0.0
  0
LINE
  5
5ED
330
22
100
AcDbEntity
  8
_4-7_
  6
Continuous
 62
     7
100
AcDbLine
 10
1000.097239839271
 20
943.8500206944105
 30
0.0
 11
999.7799760894457
 21
944.3653715712857
 31
0.0
  0
LINE
  5
5EE
330
22
100
AcDbEntity
  8
_4-7_
  6
Continuous
 62
     7
100
AcDbLine
 10
999.7799760894457
 20
944.3653715712857
 30
0.0
 11
999.7799760894457
 21
944.6637787969782
 31
0.0
  0
LINE
  5
5EF
330
22
100
AcDbEntity
  8
_4-7_
  6
Continuous
 62
     7
100
AcDbLine
 10
999.7799760894457
 20
944.6637787969782
 30
0.0
 11
999.997496245697
 21
944.6745820974104
 31
0.0
  0
LINE
  5
5F0
330
22
100
AcDbEntity
  8
_4-7_
  6
Continuous
 62
     7
100
AcDbLine
 10
1000.097239839271
 20
944.829187360473
 30
0.0
 11
999.7799760894457
 21
945.344538237348
 31
0.0
  0
LINE
  5
5F1
330
22
100
AcDbEntity
  8
_4-7_
  6
Continuous
 62
     7
100
AcDbLine
 10
999.7799760894457
 20
945.344538237348
 30
0.0
 11
999.7799760894457
 21
945.6429454630406
 31
0.0
  0
LINE
  5
5F2
330
22
100
AcDbEntity
  8
_4-7_
  6
Continuous
 62
     7
100
AcDbLine
 10
999.7799760894457
 20
945.6429454630406
 30
0.0
 11
999.997496245697
 21
945.6537487634729
 31
0.0
  0
LINE
  5
5F3
330
22
100
AcDbEntity
  8
_4-7_
  6
Continuous
 62
     7
100
AcDbLine
 10
1000.097239839271
 20
945.8083540265352
 30
0.0
 11
999.7799759943694
 21
946.3237049034104
 31
0.0
  0
LINE
  5
5F4
330
22
100
AcDbEntity
  8
_4-7_
  6
Continuous
 62
     7
100
AcDbLine
 10
999.7799759943694
 20
946.3237049034104
 30
0.0
 11
999.7799760894457
 21
946.6329154295353
 31
0.0
  0
LINE
  5
5F5
330
22
100
AcDbEntity
  8
_4-7_
  6
Continuous
 62
     7
100
AcDbLine
 10
999.7596091664995
 20
947.302871790587
 30
0.0
 11
999.7619124172782
 21
947.6012789587084
 31
0.0
  0
LINE
  5
5F6
330
22
100
AcDbEntity
  8
_4-7_
  6
Continuous
 62
     7
100
AcDbLine
 10
999.7619124172782
 20
947.6012789587084
 30
0.0
 11
999.9603154644461
 21
947.6120820955976
 31
0.0
  0
LINE
  5
5F7
330
22
100
AcDbEntity
  8
_4-7_
  6
Continuous
 62
     7
100
AcDbLine
 10
1000.061623052147
 20
947.7666873586601
 30
0.0
 11
999.7799759943694
 21
948.2820382355352
 31
0.0
  0
LINE
  5
5F8
330
22
100
AcDbEntity
  8
_4-7_
  6
Continuous
 62
     7
100
AcDbLine
 10
999.7799759943694
 20
948.2820382355352
 30
0.0
 11
999.7799759943694
 21
948.5804454036568
 31
0.0
  0
LINE
  5
5F9
330
22
100
AcDbEntity
  8
_4-7_
  6
Continuous
 62
     7
100
AcDbLine
 10
999.7799759943694
 20
948.5804454036568
 30
0.0
 11
999.997496245697
 21
948.59124876166
 31
0.0
  0
LINE
  5
5FA
330
22
100
AcDbEntity
  8
_4-7_
  6
Continuous
 62
     7
100
AcDbLine
 10
1000.097239839271
 20
948.7458540247224
 30
0.0
 11
999.7799760894457
 21
949.2612049015976
 31
0.0
  0
LINE
  5
5FB
330
22
100
AcDbEntity
  8
_4-7_
  6
Continuous
 62
     7
100
AcDbLine
 10
999.7799760894457
 20
949.2612049015976
 30
0.0
 11
999.7799759943694
 21
949.5596120697193
 31
0.0
  0
LINE
  5
5FC
330
22
100
AcDbEntity
  8
_4-7_
  6
Continuous
 62
     7
100
AcDbLine
 10
999.7799759943694
 20
949.5596120697193
 30
0.0
 11
999.9980500535022
 21
949.5705601659475
 31
0.0
  0
LINE
  5
5FD
330
22
100
AcDbEntity
  8
_4-7_
  6
Continuous
 62
     7
100
AcDbLine
 10
1000.097239839271
 20
949.725020690786
 30
0.0
 11
999.7799759943694
 21
950.2403715676601
 31
0.0
  0
LINE
  5
5FE
330
22
100
AcDbEntity
  8
_4-7_
  6
Continuous
 62
     7
100
AcDbLine
 10
999.7799759943694
 20
950.2403715676601
 30
0.0
 11
999.7799760928883
 21
950.5495820937849
 31
0.0
  0
LINE
  5
5FF
330
22
100
AcDbEntity
  8
_4-7_
  6
Continuous
 62
     7
100
AcDbLine
 10
999.7799760894457
 20
941.7370820992234
 30
0.0
 11
999.4432003081959
 21
941.7370820992234
 31
0.0
  0
LINE
  5
600
330
22
100
AcDbEntity
  8
_4-7_
  6
Continuous
 62
     7
100
AcDbLine
 10
999.4432003081959
 20
941.7370820992234
 30
0.0
 11
999.4432003081959
 21
939.7069310149497
 31
0.0
  0
LINE
  5
601
330
22
100
AcDbEntity
  8
_4-7_
  6
Continuous
 62
     7
100
AcDbLine
 10
999.4432003081959
 20
939.7069310149497
 30
0.0
 11
999.7593164019468
 21
937.511204908848
 31
0.0
  0
LINE
  5
602
330
22
100
AcDbEntity
  8
_4-7_
  6
Continuous
 62
     7
100
AcDbLine
 10
999.7593164019468
 20
937.511204908848
 30
0.0
 11
999.7597754754856
 21
937.8096118364366
 31
0.0
  0
LINE
  5
603
330
22
100
AcDbEntity
  8
_4-7_
  6
Continuous
 62
     7
100
AcDbLine
 10
999.7597754754856
 20
937.8096118364366
 30
0.0
 11
999.9527057769471
 21
937.8204154349727
 31
0.0
  0
LINE
  5
604
330
22
100
AcDbEntity
  8
_4-7_
  6
Continuous
 62
     7
100
AcDbLine
 10
999.7593164019468
 20
937.511204908848
 30
0.0
 11
1000.030239408551
 21
936.9958540319728
 31
0.0
  0
LINE
  5
605
330
22
100
AcDbEntity
  8
_4-7_
  6
Continuous
 62
     7
100
AcDbLine
 10
1000.04305362994
 20
937.9750206980352
 30
0.0
 11
999.7614271715262
 21
938.4903715749103
 31
0.0
  0
LINE
  5
606
330
22
100
AcDbEntity
  8
_4-7_
  6
Continuous
 62
     7
100
AcDbLine
 10
999.7614271715262
 20
938.4903715749103
 30
0.0
 11
999.7627302366906
 21
938.7887785024975
 31
0.0
  0
LINE
  5
607
330
22
100
AcDbEntity
  8
_4-7_
  6
Continuous
 62
     7
100
AcDbLine
 10
999.7627302366906
 20
938.7887785024975
 30
0.0
 11
999.9641845269463
 21
938.7995821010353
 31
0.0
  0
LINE
  5
608
330
22
100
AcDbEntity
  8
_4-7_
  6
Continuous
 62
     7
100
AcDbLine
 10
1000.057000461833
 20
938.9541873640975
 30
0.0
 11
999.7670830497549
 21
939.4695380004385
 31
0.0
  0
LINE
  5
609
330
22
100
AcDbEntity
  8
_4-7_
  6
Continuous
 62
     7
100
AcDbLine
 10
999.7670830497549
 20
939.4695380004385
 30
0.0
 11
999.7696223251905
 21
939.7679451685613
 31
0.0
  0
LINE
  5
60A
330
22
100
AcDbEntity
  8
_4-7_
  6
Continuous
 62
     7
100
AcDbLine
 10
999.7696223251905
 20
939.7679451685613
 30
0.0
 11
999.9787806722332
 21
939.7787487670976
 31
0.0
  0
LINE
  5
60B
330
22
100
AcDbEntity
  8
_4-7_
  6
Continuous
 62
     7
100
AcDbLine
 10
1000.077064807338
 20
939.9333540301601
 30
0.0
 11
999.7769381672098
 21
940.4487046665021
 31
0.0
  0
LINE
  5
60C
330
22
100
AcDbEntity
  8
_4-7_
  6
Continuous
 62
     7
100
AcDbLine
 10
999.7769381672098
 20
940.4487046665021
 30
0.0
 11
999.7799760894457
 21
940.7471121327276
 31
0.0
  0
LINE
  5
60D
330
22
100
AcDbEntity
  8
_4-7_
  6
Continuous
 62
     7
100
AcDbLine
 10
999.7799760894457
 20
940.7471121327276
 30
0.0
 11
999.997496245697
 21
940.7579154331612
 31
0.0
  0
LINE
  5
60E
330
22
100
AcDbEntity
  8
_4-7_
  6
Continuous
 62
     7
100
AcDbLine
 10
1000.097239839271
 20
940.9125206962224
 30
0.0
 11
999.7799759943694
 21
941.4278715730977
 31
0.0
  0
LINE
  5
60F
330
22
100
AcDbEntity
  8
_4-7_
  6
Continuous
 62
     7
100
AcDbLine
 10
999.7799759943694
 20
941.4278715730977
 30
0.0
 11
999.7799760894457
 21
941.7370820992234
 31
0.0
  0
LINE
  5
610
330
22
100
AcDbEntity
  8
_4-7_
  6
Continuous
 62
     7
100
AcDbLine
 10
999.9490495269464
 20
936.8412487689104
 30
0.0
 11
999.8650753081966
 21
936.8412487689104
 31
0.0
  0
LINE
  5
611
330
22
100
AcDbEntity
  8
_4-7_
  6
Continuous
 62
     7
100
AcDbLine
 10
999.8650753081966
 20
936.8412487689104
 30
0.0
 11
999.8650753081966
 21
936.3516654358784
 31
0.0
  0
LINE
  5
612
330
22
100
AcDbEntity
  8
_4-7_
  6
Continuous
 62
     7
100
AcDbLine
 10
999.8650753081966
 20
936.3516654358784
 30
0.0
 11
999.9588253081965
 21
936.3516654358784
 31
0.0
  0
LINE
  5
613
330
22
100
AcDbEntity
  8
_4-7_
  6
Continuous
 62
     7
100
AcDbLine
 10
999.9588253081965
 20
936.3516654358784
 30
0.0
 11
999.9588253081965
 21
935.3467312259727
 31
0.0
  0
LINE
  5
614
330
22
100
AcDbEntity
  8
_4-7_
  6
Continuous
 62
     7
100
AcDbLine
 10
999.9588253081965
 20
935.3467312259727
 30
0.0
 11
999.9628670649469
 21
935.3467312259727
 31
0.0
  0
LINE
  5
615
330
22
100
AcDbEntity
  8
_4-7_
  6
Continuous
 62
     7
100
AcDbLine
 10
999.9942890581968
 20
935.1405908752225
 30
0.0
 11
999.9942891497827
 21
931.4215648797111
 31
0.0
  0
LINE
  5
616
330
22
100
AcDbEntity
  8
_4-7_
  6
Continuous
 62
     7
100
AcDbLine
 10
999.9942891497827
 20
931.4215648797111
 30
0.0
 11
1000.269562495696
 21
931.0144268646103
 31
0.0
  0
LINE
  5
617
330
22
100
AcDbEntity
  8
_4-7_
  6
Continuous
 62
     7
100
AcDbLine
 10
1000.269562495696
 20
931.0144268646103
 30
0.0
 11
1000.896325308196
 21
930.1932224572228
 31
0.0
  0
LINE
  5
618
330
22
100
AcDbEntity
  8
_4-7_
  6
Continuous
 62
     7
100
AcDbLine
 10
1000.896325308196
 20
930.1932224572228
 30
0.0
 11
1000.98968685788
 21
930.1932224572228
 31
0.0
  0
LINE
  5
619
330
22
100
AcDbEntity
  8
_4-7_
  6
Continuous
 62
     7
100
AcDbLine
 10
1000.98968685788
 20
930.1932224572228
 30
0.0
 11
1000.311503039558
 21
931.4215648797111
 31
0.0
  0
LINE
  5
61A
330
22
100
AcDbEntity
  8
_4-7_
  6
Continuous
 62
     7
100
AcDbLine
 10
1000.311503039558
 20
931.4215648797111
 30
0.0
 11
1000.311502964446
 21
933.9037487707232
 31
0.0
  0
LINE
  5
61B
330
22
100
AcDbEntity
  8
_4-7_
  6
Continuous
 62
     7
100
AcDbLine
 10
1000.676105151946
 20
933.9037487707232
 30
0.0
 11
1000.676104981051
 21
931.4215649751476
 31
0.0
  0
LINE
  5
61C
330
22
100
AcDbEntity
  8
_4-7_
  6
Continuous
 62
     7
100
AcDbLine
 10
1000.676104981051
 20
931.4215649751476
 30
0.0
 11
1001.354288959322
 21
930.1932224572228
 31
0.0
  0
LINE
  5
61D
330
22
100
AcDbEntity
  8
_4-7_
  6
Continuous
 62
     7
100
AcDbLine
 10
1001.354288959322
 20
930.1932224572228
 30
0.0
 11
1001.740075308197
 21
930.1932224572228
 31
0.0
  0
LINE
  5
61E
330
22
100
AcDbEntity
  8
_4-7_
  6
Continuous
 62
     7
100
AcDbLine
 10
1000.054518276945
 20
950.5495820937849
 30
0.0
 11
1000.054518276945
 21
950.5495820937849
 31
0.0
  0
LINE
  5
61F
330
22
100
AcDbEntity
  8
_4-7_
  6
Continuous
 62
     7
100
AcDbLine
 10
1000.054518276945
 20
950.5495820937849
 30
0.0
 11
1000.071367308758
 21
950.552490709232
 31
0.0
  0
LINE
  5
620
330
22
100
AcDbEntity
  8
_4-7_
  6
Continuous
 62
     7
100
AcDbLine
 10
1000.071367308758
 20
950.552490709232
 30
0.0
 11
1000.087500961892
 21
950.5585718093131
 31
0.0
  0
LINE
  5
621
330
22
100
AcDbEntity
  8
_4-7_
  6
Continuous
 62
     7
100
AcDbLine
 10
1000.087500961892
 20
950.5585718093131
 30
0.0
 11
1000.102429023459
 21
950.5676406228799
 31
0.0
  0
LINE
  5
622
330
22
100
AcDbEntity
  8
_4-7_
  6
Continuous
 62
     7
100
AcDbLine
 10
1000.102429023459
 20
950.5676406228799
 30
0.0
 11
1000.115697911863
 21
950.5794215986208
 31
0.0
  0
LINE
  5
623
330
22
100
AcDbEntity
  8
_4-7_
  6
Continuous
 62
     7
100
AcDbLine
 10
1000.115697911863
 20
950.5794215986208
 30
0.0
 11
1000.126904458644
 21
950.5935567775491
 31
0.0
  0
LINE
  5
624
330
22
100
AcDbEntity
  8
_4-7_
  6
Continuous
 62
     7
100
AcDbLine
 10
1000.126904458644
 20
950.5935567775491
 30
0.0
 11
1000.13570815855
 21
950.6096166694067
 31
0.0
  0
LINE
  5
625
330
22
100
AcDbEntity
  8
_4-7_
  6
Continuous
 62
     7
100
AcDbLine
 10
1000.13570815855
 20
950.6096166694067
 30
0.0
 11
1000.141841515613
 21
950.6271133025057
 31
0.0
  0
LINE
  5
626
330
22
100
AcDbEntity
  8
_4-7_
  6
Continuous
 62
     7
100
AcDbLine
 10
1000.141841515613
 20
950.6271133025057
 30
0.0
 11
1000.145118170883
 21
950.6455150505027
 31
0.0
  0
LINE
  5
627
330
22
100
AcDbEntity
  8
_4-7_
  6
Continuous
 62
     7
100
AcDbLine
 10
1000.145118170883
 20
950.6455150505027
 30
0.0
 11
1000.145438564848
 21
950.6642627855971
 31
0.0
  0
LINE
  5
628
330
22
100
AcDbEntity
  8
_4-7_
  6
Continuous
 62
     7
100
AcDbLine
 10
1000.145438564848
 20
950.6642627855971
 30
0.0
 11
1000.142792962498
 21
950.6827868673449
 31
0.0
  0
LINE
  5
629
330
22
100
AcDbEntity
  8
_4-7_
  6
Continuous
 62
     7
100
AcDbLine
 10
1000.142792962498
 20
950.6827868673449
 30
0.0
 11
1000.137261749123
 21
950.7005244508958
 31
0.0
  0
LINE
  5
62A
330
22
100
AcDbEntity
  8
_4-7_
  6
Continuous
 62
     7
100
AcDbLine
 10
1000.137261749123
 20
950.7005244508958
 30
0.0
 11
1000.129012987842
 21
950.7169365887488
 31
0.0
  0
LINE
  5
62B
330
22
100
AcDbEntity
  8
_4-7_
  6
Continuous
 62
     7
100
AcDbLine
 10
1000.129012987842
 20
950.7169365887488
 30
0.0
 11
1000.129012742519
 21
950.7169369897638
 31
0.0
  0
LINE
  5
62C
330
22
100
AcDbEntity
  8
_4-7_
  6
Continuous
 62
     7
100
AcDbLine
 10
999.9974962456956
 20
949.5704154277232
 30
0.0
 11
999.9974962456956
 21
949.5704154277232
 31
0.0
  0
LINE
  5
62D
330
22
100
AcDbEntity
  8
_4-7_
  6
Continuous
 62
     7
100
AcDbLine
 10
999.9974962456956
 20
949.5704154277232
 30
0.0
 11
1000.019073263405
 21
949.5782363966352
 31
0.0
  0
LINE
  5
62E
330
22
100
AcDbEntity
  8
_4-7_
  6
Continuous
 62
     7
100
AcDbLine
 10
1000.019073263405
 20
949.5782363966352
 30
0.0
 11
1000.039087187376
 21
949.5900578471216
 31
0.0
  0
LINE
  5
62F
330
22
100
AcDbEntity
  8
_4-7_
  6
Continuous
 62
     7
100
AcDbLine
 10
1000.039087187376
 20
949.5900578471216
 30
0.0
 11
1000.056929904656
 21
949.6055205903912
 31
0.0
  0
LINE
  5
630
330
22
100
AcDbEntity
  8
_4-7_
  6
Continuous
 62
     7
100
AcDbLine
 10
1000.056929904656
 20
949.6055205903912
 30
0.0
 11
1000.072059273308
 21
949.6241547988145
 31
0.0
  0
LINE
  5
631
330
22
100
AcDbEntity
  8
_4-7_
  6
Continuous
 62
     7
100
AcDbLine
 10
1000.072059273308
 20
949.6241547988145
 30
0.0
 11
1000.084015595124
 21
949.6453942813975
 31
0.0
  0
LINE
  5
632
330
22
100
AcDbEntity
  8
_4-7_
  6
Continuous
 62
     7
100
AcDbLine
 10
1000.084015595124
 20
949.6453942813975
 30
0.0
 11
1000.092435583314
 21
949.6685936872104
 31
0.0
  0
LINE
  5
633
330
22
100
AcDbEntity
  8
_4-7_
  6
Continuous
 62
     7
100
AcDbLine
 10
1000.092435583314
 20
949.6685936872104
 30
0.0
 11
1000.097063400798
 21
949.6930481140463
 31
0.0
  0
LINE
  5
634
330
22
100
AcDbEntity
  8
_4-7_
  6
Continuous
 62
     7
100
AcDbLine
 10
1000.097063400798
 20
949.6930481140463
 30
0.0
 11
1000.097758433684
 21
949.7180145265208
 31
0.0
  0
LINE
  5
635
330
22
100
AcDbEntity
  8
_4-7_
  6
Continuous
 62
     7
100
AcDbLine
 10
1000.097758433684
 20
949.7180145265208
 30
0.0
 11
1000.097239839271
 21
949.7250206907857
 31
0.0
  0
LINE
  5
636
330
22
100
AcDbEntity
  8
_4-7_
  6
Continuous
 62
     7
100
AcDbLine
 10
999.9974962456956
 20
948.5912487616596
 30
0.0
 11
999.9974962456956
 21
948.5912487616596
 31
0.0
  0
LINE
  5
637
330
22
100
AcDbEntity
  8
_4-7_
  6
Continuous
 62
     7
100
AcDbLine
 10
999.9974962456956
 20
948.5912487616596
 30
0.0
 11
1000.019073263405
 21
948.5990697305714
 31
0.0
  0
LINE
  5
638
330
22
100
AcDbEntity
  8
_4-7_
  6
Continuous
 62
     7
100
AcDbLine
 10
1000.019073263405
 20
948.5990697305714
 30
0.0
 11
1000.039087187376
 21
948.6108911810578
 31
0.0
  0
LINE
  5
639
330
22
100
AcDbEntity
  8
_4-7_
  6
Continuous
 62
     7
100
AcDbLine
 10
1000.039087187376
 20
948.6108911810578
 30
0.0
 11
1000.056929904656
 21
948.6263539243276
 31
0.0
  0
LINE
  5
63A
330
22
100
AcDbEntity
  8
_4-7_
  6
Continuous
 62
     7
100
AcDbLine
 10
1000.056929904656
 20
948.6263539243276
 30
0.0
 11
1000.072059273308
 21
948.6449881327507
 31
0.0
  0
LINE
  5
63B
330
22
100
AcDbEntity
  8
_4-7_
  6
Continuous
 62
     7
100
AcDbLine
 10
1000.072059273308
 20
948.6449881327507
 30
0.0
 11
1000.084015595124
 21
948.6662276153341
 31
0.0
  0
LINE
  5
63C
330
22
100
AcDbEntity
  8
_4-7_
  6
Continuous
 62
     7
100
AcDbLine
 10
1000.084015595124
 20
948.6662276153341
 30
0.0
 11
1000.092435583314
 21
948.6894270211468
 31
0.0
  0
LINE
  5
63D
330
22
100
AcDbEntity
  8
_4-7_
  6
Continuous
 62
     7
100
AcDbLine
 10
1000.092435583314
 20
948.6894270211468
 30
0.0
 11
1000.097063400798
 21
948.7138814479829
 31
0.0
  0
LINE
  5
63E
330
22
100
AcDbEntity
  8
_4-7_
  6
Continuous
 62
     7
100
AcDbLine
 10
1000.097063400798
 20
948.7138814479829
 30
0.0
 11
1000.097758433684
 21
948.7388478604573
 31
0.0
  0
LINE
  5
63F
330
22
100
AcDbEntity
  8
_4-7_
  6
Continuous
 62
     7
100
AcDbLine
 10
1000.097758433684
 20
948.7388478604573
 30
0.0
 11
1000.097239839271
 21
948.7458540247223
 31
0.0
  0
LINE
  5
640
330
22
100
AcDbEntity
  8
_4-7_
  6
Continuous
 62
     7
100
AcDbLine
 10
999.9618794585712
 20
947.6120820955971
 30
0.0
 11
999.9618794585712
 21
947.6120820955971
 31
0.0
  0
LINE
  5
641
330
22
100
AcDbEntity
  8
_4-7_
  6
Continuous
 62
     7
100
AcDbLine
 10
999.9618794585712
 20
947.6120820955971
 30
0.0
 11
999.9834564762805
 21
947.6199030645091
 31
0.0
  0
LINE
  5
642
330
22
100
AcDbEntity
  8
_4-7_
  6
Continuous
 62
     7
100
AcDbLine
 10
999.9834564762805
 20
947.6199030645091
 30
0.0
 11
1000.003470400251
 21
947.6317245149955
 31
0.0
  0
LINE
  5
643
330
22
100
AcDbEntity
  8
_4-7_
  6
Continuous
 62
     7
100
AcDbLine
 10
1000.003470400251
 20
947.6317245149955
 30
0.0
 11
1000.021313117531
 21
947.6471872582653
 31
0.0
  0
LINE
  5
644
330
22
100
AcDbEntity
  8
_4-7_
  6
Continuous
 62
     7
100
AcDbLine
 10
1000.021313117531
 20
947.6471872582653
 30
0.0
 11
1000.036442486184
 21
947.6658214666883
 31
0.0
  0
LINE
  5
645
330
22
100
AcDbEntity
  8
_4-7_
  6
Continuous
 62
     7
100
AcDbLine
 10
1000.036442486184
 20
947.6658214666883
 30
0.0
 11
1000.048398807999
 21
947.6870609492717
 31
0.0
  0
LINE
  5
646
330
22
100
AcDbEntity
  8
_4-7_
  6
Continuous
 62
     7
100
AcDbLine
 10
1000.048398807999
 20
947.6870609492717
 30
0.0
 11
1000.05681879619
 21
947.7102603550845
 31
0.0
  0
LINE
  5
647
330
22
100
AcDbEntity
  8
_4-7_
  6
Continuous
 62
     7
100
AcDbLine
 10
1000.05681879619
 20
947.7102603550845
 30
0.0
 11
1000.061446613674
 21
947.7347147819202
 31
0.0
  0
LINE
  5
648
330
22
100
AcDbEntity
  8
_4-7_
  6
Continuous
 62
     7
100
AcDbLine
 10
1000.061446613674
 20
947.7347147819202
 30
0.0
 11
1000.062141646559
 21
947.7596811943948
 31
0.0
  0
LINE
  5
649
330
22
100
AcDbEntity
  8
_4-7_
  6
Continuous
 62
     7
100
AcDbLine
 10
1000.062141646559
 20
947.7596811943948
 30
0.0
 11
1000.061623052146
 21
947.7666873586597
 31
0.0
  0
LINE
  5
64A
330
22
100
AcDbEntity
  8
_4-7_
  6
Continuous
 62
     7
100
AcDbLine
 10
999.9974962456956
 20
945.6537487634724
 30
0.0
 11
999.9974962456956
 21
945.6537487634724
 31
0.0
  0
LINE
  5
64B
330
22
100
AcDbEntity
  8
_4-7_
  6
Continuous
 62
     7
100
AcDbLine
 10
999.9974962456956
 20
945.6537487634724
 30
0.0
 11
1000.019073263405
 21
945.6615697323844
 31
0.0
  0
LINE
  5
64C
330
22
100
AcDbEntity
  8
_4-7_
  6
Continuous
 62
     7
100
AcDbLine
 10
1000.019073263405
 20
945.6615697323844
 30
0.0
 11
1000.039087187376
 21
945.6733911828708
 31
0.0
  0
LINE
  5
64D
330
22
100
AcDbEntity
  8
_4-7_
  6
Continuous
 62
     7
100
AcDbLine
 10
1000.039087187376
 20
945.6733911828708
 30
0.0
 11
1000.056929904656
 21
945.6888539261404
 31
0.0
  0
LINE
  5
64E
330
22
100
AcDbEntity
  8
_4-7_
  6
Continuous
 62
     7
100
AcDbLine
 10
1000.056929904656
 20
945.6888539261404
 30
0.0
 11
1000.072059273308
 21
945.7074881345633
 31
0.0
  0
LINE
  5
64F
330
22
100
AcDbEntity
  8
_4-7_
  6
Continuous
 62
     7
100
AcDbLine
 10
1000.072059273308
 20
945.7074881345633
 30
0.0
 11
1000.084015595124
 21
945.728727617147
 31
0.0
  0
LINE
  5
650
330
22
100
AcDbEntity
  8
_4-7_
  6
Continuous
 62
     7
100
AcDbLine
 10
1000.084015595124
 20
945.728727617147
 30
0.0
 11
1000.092435583314
 21
945.7519270229596
 31
0.0
  0
LINE
  5
651
330
22
100
AcDbEntity
  8
_4-7_
  6
Continuous
 62
     7
100
AcDbLine
 10
1000.092435583314
 20
945.7519270229596
 30
0.0
 11
1000.097063400798
 21
945.7763814497955
 31
0.0
  0
LINE
  5
652
330
22
100
AcDbEntity
  8
_4-7_
  6
Continuous
 62
     7
100
AcDbLine
 10
1000.097063400798
 20
945.7763814497955
 30
0.0
 11
1000.097758433684
 21
945.8013478622701
 31
0.0
  0
LINE
  5
653
330
22
100
AcDbEntity
  8
_4-7_
  6
Continuous
 62
     7
100
AcDbLine
 10
1000.097758433684
 20
945.8013478622701
 30
0.0
 11
1000.097239839271
 21
945.808354026535
 31
0.0
  0
LINE
  5
654
330
22
100
AcDbEntity
  8
_4-7_
  6
Continuous
 62
     7
100
AcDbLine
 10
999.9974962456956
 20
944.6745820974099
 30
0.0
 11
999.9974962456956
 21
944.6745820974099
 31
0.0
  0
LINE
  5
655
330
22
100
AcDbEntity
  8
_4-7_
  6
Continuous
 62
     7
100
AcDbLine
 10
999.9974962456956
 20
944.6745820974099
 30
0.0
 11
1000.019073263405
 21
944.6824030663218
 31
0.0
  0
LINE
  5
656
330
22
100
AcDbEntity
  8
_4-7_
  6
Continuous
 62
     7
100
AcDbLine
 10
1000.019073263405
 20
944.6824030663218
 30
0.0
 11
1000.039087187376
 21
944.6942245168083
 31
0.0
  0
LINE
  5
657
330
22
100
AcDbEntity
  8
_4-7_
  6
Continuous
 62
     7
100
AcDbLine
 10
1000.039087187376
 20
944.6942245168083
 30
0.0
 11
1000.056929904656
 21
944.7096872600781
 31
0.0
  0
LINE
  5
658
330
22
100
AcDbEntity
  8
_4-7_
  6
Continuous
 62
     7
100
AcDbLine
 10
1000.056929904656
 20
944.7096872600781
 30
0.0
 11
1000.072059273308
 21
944.7283214685011
 31
0.0
  0
LINE
  5
659
330
22
100
AcDbEntity
  8
_4-7_
  6
Continuous
 62
     7
100
AcDbLine
 10
1000.072059273308
 20
944.7283214685011
 30
0.0
 11
1000.084015595124
 21
944.7495609510847
 31
0.0
  0
LINE
  5
65A
330
22
100
AcDbEntity
  8
_4-7_
  6
Continuous
 62
     7
100
AcDbLine
 10
1000.084015595124
 20
944.7495609510847
 30
0.0
 11
1000.092435583314
 21
944.7727603568973
 31
0.0
  0
LINE
  5
65B
330
22
100
AcDbEntity
  8
_4-7_
  6
Continuous
 62
     7
100
AcDbLine
 10
1000.092435583314
 20
944.7727603568973
 30
0.0
 11
1000.097063400798
 21
944.7972147837329
 31
0.0
  0
LINE
  5
65C
330
22
100
AcDbEntity
  8
_4-7_
  6
Continuous
 62
     7
100
AcDbLine
 10
1000.097063400798
 20
944.7972147837329
 30
0.0
 11
1000.097758433684
 21
944.8221811962076
 31
0.0
  0
LINE
  5
65D
330
22
100
AcDbEntity
  8
_4-7_
  6
Continuous
 62
     7
100
AcDbLine
 10
1000.097758433684
 20
944.8221811962076
 30
0.0
 11
1000.097239839271
 21
944.8291873604727
 31
0.0
  0
LINE
  5
65E
330
22
100
AcDbEntity
  8
_4-7_
  6
Continuous
 62
     7
100
AcDbLine
 10
999.9974962456956
 20
943.6954154313475
 30
0.0
 11
999.9974962456956
 21
943.6954154313475
 31
0.0
  0
LINE
  5
65F
330
22
100
AcDbEntity
  8
_4-7_
  6
Continuous
 62
     7
100
AcDbLine
 10
999.9974962456956
 20
943.6954154313475
 30
0.0
 11
1000.019073263405
 21
943.7032364002595
 31
0.0
  0
LINE
  5
660
330
22
100
AcDbEntity
  8
_4-7_
  6
Continuous
 62
     7
100
AcDbLine
 10
1000.019073263405
 20
943.7032364002595
 30
0.0
 11
1000.039087187376
 21
943.7150578507459
 31
0.0
  0
LINE
  5
661
330
22
100
AcDbEntity
  8
_4-7_
  6
Continuous
 62
     7
100
AcDbLine
 10
1000.039087187376
 20
943.7150578507459
 30
0.0
 11
1000.056929904656
 21
943.7305205940155
 31
0.0
  0
LINE
  5
662
330
22
100
AcDbEntity
  8
_4-7_
  6
Continuous
 62
     7
100
AcDbLine
 10
1000.056929904656
 20
943.7305205940155
 30
0.0
 11
1000.072059273308
 21
943.7491548024388
 31
0.0
  0
LINE
  5
663
330
22
100
AcDbEntity
  8
_4-7_
  6
Continuous
 62
     7
100
AcDbLine
 10
1000.072059273308
 20
943.7491548024388
 30
0.0
 11
1000.084015595124
 21
943.7703942850221
 31
0.0
  0
LINE
  5
664
330
22
100
AcDbEntity
  8
_4-7_
  6
Continuous
 62
     7
100
AcDbLine
 10
1000.084015595124
 20
943.7703942850221
 30
0.0
 11
1000.092435583314
 21
943.7935936908349
 31
0.0
  0
LINE
  5
665
330
22
100
AcDbEntity
  8
_4-7_
  6
Continuous
 62
     7
100
AcDbLine
 10
1000.092435583314
 20
943.7935936908349
 30
0.0
 11
1000.097063400798
 21
943.8180481176708
 31
0.0
  0
LINE
  5
666
330
22
100
AcDbEntity
  8
_4-7_
  6
Continuous
 62
     7
100
AcDbLine
 10
1000.097063400798
 20
943.8180481176708
 30
0.0
 11
1000.097758433684
 21
943.8430145301452
 31
0.0
  0
LINE
  5
667
330
22
100
AcDbEntity
  8
_4-7_
  6
Continuous
 62
     7
100
AcDbLine
 10
1000.097758433684
 20
943.8430145301452
 30
0.0
 11
1000.097239839271
 21
943.8500206944103
 31
0.0
  0
LINE
  5
668
330
22
100
AcDbEntity
  8
_4-7_
  6
Continuous
 62
     7
100
AcDbLine
 10
999.9616965134627
 20
942.7162487652852
 30
0.0
 11
999.9616965134627
 21
942.7162487652852
 31
0.0
  0
LINE
  5
669
330
22
100
AcDbEntity
  8
_4-7_
  6
Continuous
 62
     7
100
AcDbLine
 10
999.9616965134627
 20
942.7162487652852
 30
0.0
 11
999.9832735311725
 21
942.724069734197
 31
0.0
  0
LINE
  5
66A
330
22
100
AcDbEntity
  8
_4-7_
  6
Continuous
 62
     7
100
AcDbLine
 10
999.9832735311725
 20
942.724069734197
 30
0.0
 11
1000.003287455143
 21
942.7358911846836
 31
0.0
  0
LINE
  5
66B
330
22
100
AcDbEntity
  8
_4-7_
  6
Continuous
 62
     7
100
AcDbLine
 10
1000.003287455143
 20
942.7358911846836
 30
0.0
 11
1000.021130172423
 21
942.7513539279532
 31
0.0
  0
LINE
  5
66C
330
22
100
AcDbEntity
  8
_4-7_
  6
Continuous
 62
     7
100
AcDbLine
 10
1000.021130172423
 20
942.7513539279532
 30
0.0
 11
1000.036259541076
 21
942.7699881363762
 31
0.0
  0
LINE
  5
66D
330
22
100
AcDbEntity
  8
_4-7_
  6
Continuous
 62
     7
100
AcDbLine
 10
1000.036259541076
 20
942.7699881363762
 30
0.0
 11
1000.048215862891
 21
942.7912276189598
 31
0.0
  0
LINE
  5
66E
330
22
100
AcDbEntity
  8
_4-7_
  6
Continuous
 62
     7
100
AcDbLine
 10
1000.048215862891
 20
942.7912276189598
 30
0.0
 11
1000.056635851082
 21
942.8144270247726
 31
0.0
  0
LINE
  5
66F
330
22
100
AcDbEntity
  8
_4-7_
  6
Continuous
 62
     7
100
AcDbLine
 10
1000.056635851082
 20
942.8144270247726
 30
0.0
 11
1000.061263668565
 21
942.8388814516084
 31
0.0
  0
LINE
  5
670
330
22
100
AcDbEntity
  8
_4-7_
  6
Continuous
 62
     7
100
AcDbLine
 10
1000.061263668565
 20
942.8388814516084
 30
0.0
 11
1000.061958701451
 21
942.8638478640829
 31
0.0
  0
LINE
  5
671
330
22
100
AcDbEntity
  8
_4-7_
  6
Continuous
 62
     7
100
AcDbLine
 10
1000.061958701451
 20
942.8638478640829
 30
0.0
 11
1000.061440107038
 21
942.8708540283478
 31
0.0
  0
LINE
  5
672
330
22
100
AcDbEntity
  8
_4-7_
  6
Continuous
 62
     7
100
AcDbLine
 10
999.9974962456956
 20
940.7579154331605
 30
0.0
 11
999.9974962456956
 21
940.7579154331605
 31
0.0
  0
LINE
  5
673
330
22
100
AcDbEntity
  8
_4-7_
  6
Continuous
 62
     7
100
AcDbLine
 10
999.9974962456956
 20
940.7579154331605
 30
0.0
 11
1000.019073263405
 21
940.7657364020725
 31
0.0
  0
LINE
  5
674
330
22
100
AcDbEntity
  8
_4-7_
  6
Continuous
 62
     7
100
AcDbLine
 10
1000.019073263405
 20
940.7657364020725
 30
0.0
 11
1000.039087187376
 21
940.7775578525587
 31
0.0
  0
LINE
  5
675
330
22
100
AcDbEntity
  8
_4-7_
  6
Continuous
 62
     7
100
AcDbLine
 10
1000.039087187376
 20
940.7775578525587
 30
0.0
 11
1000.056929904656
 21
940.7930205958285
 31
0.0
  0
LINE
  5
676
330
22
100
AcDbEntity
  8
_4-7_
  6
Continuous
 62
     7
100
AcDbLine
 10
1000.056929904656
 20
940.7930205958285
 30
0.0
 11
1000.072059273308
 21
940.8116548042517
 31
0.0
  0
LINE
  5
677
330
22
100
AcDbEntity
  8
_4-7_
  6
Continuous
 62
     7
100
AcDbLine
 10
1000.072059273308
 20
940.8116548042517
 30
0.0
 11
1000.084015595124
 21
940.8328942868351
 31
0.0
  0
LINE
  5
678
330
22
100
AcDbEntity
  8
_4-7_
  6
Continuous
 62
     7
100
AcDbLine
 10
1000.084015595124
 20
940.8328942868351
 30
0.0
 11
1000.092435583314
 21
940.8560936926479
 31
0.0
  0
LINE
  5
679
330
22
100
AcDbEntity
  8
_4-7_
  6
Continuous
 62
     7
100
AcDbLine
 10
1000.092435583314
 20
940.8560936926479
 30
0.0
 11
1000.097063400798
 21
940.8805481194839
 31
0.0
  0
LINE
  5
67A
330
22
100
AcDbEntity
  8
_4-7_
  6
Continuous
 62
     7
100
AcDbLine
 10
1000.097063400798
 20
940.8805481194839
 30
0.0
 11
1000.097758433684
 21
940.9055145319582
 31
0.0
  0
LINE
  5
67B
330
22
100
AcDbEntity
  8
_4-7_
  6
Continuous
 62
     7
100
AcDbLine
 10
1000.097758433684
 20
940.9055145319582
 30
0.0
 11
1000.097239839271
 21
940.9125206962233
 31
0.0
  0
LINE
  5
67C
330
22
100
AcDbEntity
  8
_4-7_
  6
Continuous
 62
     7
100
AcDbLine
 10
999.9773212137624
 20
939.7787487670973
 30
0.0
 11
999.9773212137624
 21
939.7787487670973
 31
0.0
  0
LINE
  5
67D
330
22
100
AcDbEntity
  8
_4-7_
  6
Continuous
 62
     7
100
AcDbLine
 10
999.9773212137624
 20
939.7787487670973
 30
0.0
 11
999.998898231472
 21
939.786569736009
 31
0.0
  0
LINE
  5
67E
330
22
100
AcDbEntity
  8
_4-7_
  6
Continuous
 62
     7
100
AcDbLine
 10
999.998898231472
 20
939.786569736009
 30
0.0
 11
1000.018912155442
 21
939.7983911864953
 31
0.0
  0
LINE
  5
67F
330
22
100
AcDbEntity
  8
_4-7_
  6
Continuous
 62
     7
100
AcDbLine
 10
1000.018912155442
 20
939.7983911864953
 30
0.0
 11
1000.036754872722
 21
939.8138539297651
 31
0.0
  0
LINE
  5
680
330
22
100
AcDbEntity
  8
_4-7_
  6
Continuous
 62
     7
100
AcDbLine
 10
1000.036754872722
 20
939.8138539297651
 30
0.0
 11
1000.051884241375
 21
939.8324881381883
 31
0.0
  0
LINE
  5
681
330
22
100
AcDbEntity
  8
_4-7_
  6
Continuous
 62
     7
100
AcDbLine
 10
1000.051884241375
 20
939.8324881381883
 30
0.0
 11
1000.063840563191
 21
939.8537276207715
 31
0.0
  0
LINE
  5
682
330
22
100
AcDbEntity
  8
_4-7_
  6
Continuous
 62
     7
100
AcDbLine
 10
1000.063840563191
 20
939.8537276207715
 30
0.0
 11
1000.072260551381
 21
939.8769270265843
 31
0.0
  0
LINE
  5
683
330
22
100
AcDbEntity
  8
_4-7_
  6
Continuous
 62
     7
100
AcDbLine
 10
1000.072260551381
 20
939.8769270265843
 30
0.0
 11
1000.076888368865
 21
939.9013814534203
 31
0.0
  0
LINE
  5
684
330
22
100
AcDbEntity
  8
_4-7_
  6
Continuous
 62
     7
100
AcDbLine
 10
1000.076888368865
 20
939.9013814534203
 30
0.0
 11
1000.077583401751
 21
939.9263478658944
 31
0.0
  0
LINE
  5
685
330
22
100
AcDbEntity
  8
_4-7_
  6
Continuous
 62
     7
100
AcDbLine
 10
1000.077583401751
 20
939.9263478658944
 30
0.0
 11
1000.077064807338
 21
939.9333540301595
 31
0.0
  0
LINE
  5
686
330
22
100
AcDbEntity
  8
_4-7_
  6
Continuous
 62
     7
100
AcDbLine
 10
999.9572568682578
 20
938.7995821010347
 30
0.0
 11
999.9572568682578
 21
938.7995821010347
 31
0.0
  0
LINE
  5
687
330
22
100
AcDbEntity
  8
_4-7_
  6
Continuous
 62
     7
100
AcDbLine
 10
999.9572568682578
 20
938.7995821010347
 30
0.0
 11
999.9788338859671
 21
938.8074030699463
 31
0.0
  0
LINE
  5
688
330
22
100
AcDbEntity
  8
_4-7_
  6
Continuous
 62
     7
100
AcDbLine
 10
999.9788338859671
 20
938.8074030699463
 30
0.0
 11
999.9988478099377
 21
938.8192245204331
 31
0.0
  0
LINE
  5
689
330
22
100
AcDbEntity
  8
_4-7_
  6
Continuous
 62
     7
100
AcDbLine
 10
999.9988478099377
 20
938.8192245204331
 30
0.0
 11
1000.016690527217
 21
938.8346872637027
 31
0.0
  0
LINE
  5
68A
330
22
100
AcDbEntity
  8
_4-7_
  6
Continuous
 62
     7
100
AcDbLine
 10
1000.016690527217
 20
938.8346872637027
 30
0.0
 11
1000.031819895871
 21
938.8533214721261
 31
0.0
  0
LINE
  5
68B
330
22
100
AcDbEntity
  8
_4-7_
  6
Continuous
 62
     7
100
AcDbLine
 10
1000.031819895871
 20
938.8533214721261
 30
0.0
 11
1000.043776217686
 21
938.8745609547092
 31
0.0
  0
LINE
  5
68C
330
22
100
AcDbEntity
  8
_4-7_
  6
Continuous
 62
     7
100
AcDbLine
 10
1000.043776217686
 20
938.8745609547092
 30
0.0
 11
1000.052196205876
 21
938.8977603605217
 31
0.0
  0
LINE
  5
68D
330
22
100
AcDbEntity
  8
_4-7_
  6
Continuous
 62
     7
100
AcDbLine
 10
1000.052196205876
 20
938.8977603605217
 30
0.0
 11
1000.05682402336
 21
938.9222147873582
 31
0.0
  0
LINE
  5
68E
330
22
100
AcDbEntity
  8
_4-7_
  6
Continuous
 62
     7
100
AcDbLine
 10
1000.05682402336
 20
938.9222147873582
 30
0.0
 11
1000.057519056246
 21
938.9471811998321
 31
0.0
  0
LINE
  5
68F
330
22
100
AcDbEntity
  8
_4-7_
  6
Continuous
 62
     7
100
AcDbLine
 10
1000.057519056246
 20
938.9471811998321
 30
0.0
 11
1000.057000461833
 21
938.9541873640972
 31
0.0
  0
LINE
  5
690
330
22
100
AcDbEntity
  8
_4-7_
  6
Continuous
 62
     7
100
AcDbLine
 10
999.9433100363644
 20
937.8204154349734
 30
0.0
 11
999.9433100363644
 21
937.8204154349734
 31
0.0
  0
LINE
  5
691
330
22
100
AcDbEntity
  8
_4-7_
  6
Continuous
 62
     7
100
AcDbLine
 10
999.9433100363644
 20
937.8204154349734
 30
0.0
 11
999.9648870540736
 21
937.8282364038854
 31
0.0
  0
LINE
  5
692
330
22
100
AcDbEntity
  8
_4-7_
  6
Continuous
 62
     7
100
AcDbLine
 10
999.9648870540736
 20
937.8282364038854
 30
0.0
 11
999.9849009780444
 21
937.8400578543718
 31
0.0
  0
LINE
  5
693
330
22
100
AcDbEntity
  8
_4-7_
  6
Continuous
 62
     7
100
AcDbLine
 10
999.9849009780444
 20
937.8400578543718
 30
0.0
 11
1000.002743695324
 21
937.8555205976415
 31
0.0
  0
LINE
  5
694
330
22
100
AcDbEntity
  8
_4-7_
  6
Continuous
 62
     7
100
AcDbLine
 10
1000.002743695324
 20
937.8555205976415
 30
0.0
 11
1000.017873063977
 21
937.8741548060645
 31
0.0
  0
LINE
  5
695
330
22
100
AcDbEntity
  8
_4-7_
  6
Continuous
 62
     7
100
AcDbLine
 10
1000.017873063977
 20
937.8741548060645
 30
0.0
 11
1000.029829385792
 21
937.895394288648
 31
0.0
  0
LINE
  5
696
330
22
100
AcDbEntity
  8
_4-7_
  6
Continuous
 62
     7
100
AcDbLine
 10
1000.029829385792
 20
937.895394288648
 30
0.0
 11
1000.038249373983
 21
937.9185936944608
 31
0.0
  0
LINE
  5
697
330
22
100
AcDbEntity
  8
_4-7_
  6
Continuous
 62
     7
100
AcDbLine
 10
1000.038249373983
 20
937.9185936944608
 30
0.0
 11
1000.042877191467
 21
937.9430481212967
 31
0.0
  0
LINE
  5
698
330
22
100
AcDbEntity
  8
_4-7_
  6
Continuous
 62
     7
100
AcDbLine
 10
1000.042877191467
 20
937.9430481212967
 30
0.0
 11
1000.043572224353
 21
937.9680145337712
 31
0.0
  0
LINE
  5
699
330
22
100
AcDbEntity
  8
_4-7_
  6
Continuous
 62
     7
100
AcDbLine
 10
1000.043572224353
 20
937.9680145337712
 30
0.0
 11
1000.04305362994
 21
937.9750206980359
 31
0.0
  0
LINE
  5
69A
330
22
100
AcDbEntity
  8
_4-7_
  6
Continuous
 62
     7
100
AcDbLine
 10
999.9490495269458
 20
936.8412487689104
 30
0.0
 11
999.9490495269458
 21
936.8412487689104
 31
0.0
  0
LINE
  5
69B
330
22
100
AcDbEntity
  8
_4-7_
  6
Continuous
 62
     7
100
AcDbLine
 10
999.9490495269458
 20
936.8412487689104
 30
0.0
 11
999.9660157369079
 21
936.8444336556908
 31
0.0
  0
LINE
  5
69C
330
22
100
AcDbEntity
  8
_4-7_
  6
Continuous
 62
     7
100
AcDbLine
 10
999.9660157369079
 20
936.8444336556908
 30
0.0
 11
999.9822211520527
 21
936.8508092005729
 31
0.0
  0
LINE
  5
69D
330
22
100
AcDbEntity
  8
_4-7_
  6
Continuous
 62
     7
100
AcDbLine
 10
999.9822211520527
 20
936.8508092005729
 30
0.0
 11
999.997173379042
 21
936.860181685852
 31
0.0
  0
LINE
  5
69E
330
22
100
AcDbEntity
  8
_4-7_
  6
Continuous
 62
     7
100
AcDbLine
 10
999.997173379042
 20
936.860181685852
 30
0.0
 11
1000.010418102024
 21
936.8722663333052
 31
0.0
  0
LINE
  5
69F
330
22
100
AcDbEntity
  8
_4-7_
  6
Continuous
 62
     7
100
AcDbLine
 10
1000.010418102024
 20
936.8722663333052
 30
0.0
 11
1000.021552886794
 21
936.8866959570349
 31
0.0
  0
LINE
  5
6A0
330
22
100
AcDbEntity
  8
_4-7_
  6
Continuous
 62
     7
100
AcDbLine
 10
1000.021552886794
 20
936.8866959570349
 30
0.0
 11
1000.030239408551
 21
936.9030321202258
 31
0.0
  0
LINE
  5
6A1
330
22
100
AcDbEntity
  8
_4-7_
  6
Continuous
 62
     7
100
AcDbLine
 10
1000.030239408551
 20
936.9030321202258
 30
0.0
 11
1000.036213731727
 21
936.9207784568256
 31
0.0
  0
LINE
  5
6A2
330
22
100
AcDbEntity
  8
_4-7_
  6
Continuous
 62
     7
100
AcDbLine
 10
1000.036213731727
 20
936.9207784568256
 30
0.0
 11
1000.039294329535
 21
936.9393957533777
 31
0.0
  0
LINE
  5
6A3
330
22
100
AcDbEntity
  8
_4-7_
  6
Continuous
 62
     7
100
AcDbLine
 10
1000.039294329535
 20
936.9393957533777
 30
0.0
 11
1000.03938759957
 21
936.9583183327462
 31
0.0
  0
LINE
  5
6A4
330
22
100
AcDbEntity
  8
_4-7_
  6
Continuous
 62
     7
100
AcDbLine
 10
1000.03938759957
 20
936.9583183327462
 30
0.0
 11
1000.036490707869
 21
936.9769712419321
 31
0.0
  0
LINE
  5
6A5
330
22
100
AcDbEntity
  8
_4-7_
  6
Continuous
 62
     7
100
AcDbLine
 10
1000.036490707869
 20
936.9769712419321
 30
0.0
 11
1000.030691675021
 21
936.9947877217295
 31
0.0
  0
LINE
  5
6A6
330
22
100
AcDbEntity
  8
_4-7_
  6
Continuous
 62
     7
100
AcDbLine
 10
1000.030691675021
 20
936.9947877217295
 30
0.0
 11
1000.022166701703
 21
937.0112264274153
 31
0.0
  0
LINE
  5
6A7
330
22
100
AcDbEntity
  8
_4-7_
  6
Continuous
 62
     7
100
AcDbLine
 10
1000.022166701703
 20
937.0112264274153
 30
0.0
 11
1000.022114518104
 21
937.0113092325787
 31
0.0
  0
LINE
  5
6A8
330
22
100
AcDbEntity
  8
_4-7_
  6
Continuous
 62
     7
100
AcDbLine
 10
999.7596065581968
 20
941.7370820992227
 30
0.0
 11
999.7596065581968
 21
941.7370820992227
 31
0.0
  0
LINE
  5
6A9
330
22
100
AcDbEntity
  8
_4-7_
  6
Continuous
 62
     7
100
AcDbLine
 10
999.7596065581968
 20
941.7370820992227
 30
0.0
 11
999.8123102024429
 21
941.7447445721277
 31
0.0
  0
LINE
  5
6AA
330
22
100
AcDbEntity
  8
_4-7_
  6
Continuous
 62
     7
100
AcDbLine
 10
999.8123102024429
 20
941.7447445721277
 30
0.0
 11
999.8630029033543
 21
941.7623523638194
 31
0.0
  0
LINE
  5
6AB
330
22
100
AcDbEntity
  8
_4-7_
  6
Continuous
 62
     7
100
AcDbLine
 10
999.8630029033543
 20
941.7623523638194
 30
0.0
 11
999.9101443888656
 21
941.789370470458
 31
0.0
  0
LINE
  5
6AC
330
22
100
AcDbEntity
  8
_4-7_
  6
Continuous
 62
     7
100
AcDbLine
 10
999.9101443888656
 20
941.789370470458
 30
0.0
 11
999.9523022887945
 21
941.8249779605448
 31
0.0
  0
LINE
  5
6AD
330
22
100
AcDbEntity
  8
_4-7_
  6
Continuous
 62
     7
100
AcDbLine
 10
999.9523022887945
 20
941.8249779605448
 30
0.0
 11
999.988195656684
 21
941.8680929185113
 31
0.0
  0
LINE
  5
6AE
330
22
100
AcDbEntity
  8
_4-7_
  6
Continuous
 62
     7
100
AcDbLine
 10
999.988195656684
 20
941.8680929185113
 30
0.0
 11
1000.016733890714
 21
941.9174053181777
 31
0.0
  0
LINE
  5
6AF
330
22
100
AcDbEntity
  8
_4-7_
  6
Continuous
 62
     7
100
AcDbLine
 10
1000.016733890714
 20
941.9174053181777
 30
0.0
 11
1000.037049871084
 21
941.9714168272328
 31
0.0
  0
LINE
  5
6B0
330
22
100
AcDbEntity
  8
_4-7_
  6
Continuous
 62
     7
100
AcDbLine
 10
1000.037049871084
 20
941.9714168272328
 30
0.0
 11
1000.048526307013
 21
942.0284863333051
 31
0.0
  0
LINE
  5
6B1
330
22
100
AcDbEntity
  8
_4-7_
  6
Continuous
 62
     7
100
AcDbLine
 10
1000.048526307013
 20
942.0284863333051
 30
0.0
 11
1000.0508144928
 21
942.0868798083315
 31
0.0
  0
LINE
  5
6B2
330
22
100
AcDbEntity
  8
_4-7_
  6
Continuous
 62
     7
100
AcDbLine
 10
1000.0508144928
 20
942.0868798083315
 30
0.0
 11
1000.043844903079
 21
942.1448229961223
 31
0.0
  0
LINE
  5
6B3
330
22
100
AcDbEntity
  8
_4-7_
  6
Continuous
 62
     7
100
AcDbLine
 10
1000.043844903079
 20
942.1448229961223
 30
0.0
 11
1000.027829305307
 21
942.200555322236
 31
0.0
  0
LINE
  5
6B4
330
22
100
AcDbEntity
  8
_4-7_
  6
Continuous
 62
     7
100
AcDbLine
 10
1000.027829305307
 20
942.200555322236
 30
0.0
 11
1000.003254325317
 21
942.2523833881463
 31
0.0
  0
LINE
  5
6B5
330
22
100
AcDbEntity
  8
_4-7_
  6
Continuous
 62
     7
100
AcDbLine
 10
1000.003254325317
 20
942.2523833881463
 30
0.0
 11
999.9708666614424
 21
942.2987324242965
 31
0.0
  0
LINE
  5
6B6
330
22
100
AcDbEntity
  8
_4-7_
  6
Continuous
 62
     7
100
AcDbLine
 10
999.9708666614424
 20
942.2987324242965
 30
0.0
 11
999.9316503964593
 21
942.3381941386772
 31
0.0
  0
LINE
  5
6B7
330
22
100
AcDbEntity
  8
_4-7_
  6
Continuous
 62
     7
100
AcDbLine
 10
999.9316503964593
 20
942.3381941386772
 30
0.0
 11
999.8867970967351
 21
942.3695695070653
 31
0.0
  0
LINE
  5
6B8
330
22
100
AcDbEntity
  8
_4-7_
  6
Continuous
 62
     7
100
AcDbLine
 10
999.8867970967351
 20
942.3695695070653
 30
0.0
 11
999.8376696070856
 21
942.3919052047692
 31
0.0
  0
LINE
  5
6B9
330
22
100
AcDbEntity
  8
_4-7_
  6
Continuous
 62
     7
100
AcDbLine
 10
999.8376696070856
 20
942.3919052047692
 30
0.0
 11
999.7857606414235
 21
942.4045225729166
 31
0.0
  0
LINE
  5
6BA
330
22
100
AcDbEntity
  8
_4-7_
  6
Continuous
 62
     7
100
AcDbLine
 10
999.7857606414235
 20
942.4045225729166
 30
0.0
 11
999.7596065581968
 21
942.4070382391603
 31
0.0
  0
LINE
  5
6BB
330
22
100
AcDbEntity
  8
_4-7_
  6
Continuous
 62
     7
100
AcDbLine
 10
999.7596065581968
 20
946.632915429536
 30
0.0
 11
999.7596065581968
 21
946.632915429536
 31
0.0
  0
LINE
  5
6BC
330
22
100
AcDbEntity
  8
_4-7_
  6
Continuous
 62
     7
100
AcDbLine
 10
999.7596065581968
 20
946.632915429536
 30
0.0
 11
999.8123102024429
 21
946.6405779024409
 31
0.0
  0
LINE
  5
6BD
330
22
100
AcDbEntity
  8
_4-7_
  6
Continuous
 62
     7
100
AcDbLine
 10
999.8123102024429
 20
946.6405779024409
 30
0.0
 11
999.8630029033543
 21
946.6581856941328
 31
0.0
  0
LINE
  5
6BE
330
22
100
AcDbEntity
  8
_4-7_
  6
Continuous
 62
     7
100
AcDbLine
 10
999.8630029033543
 20
946.6581856941328
 30
0.0
 11
999.9101443888656
 21
946.6852038007711
 31
0.0
  0
LINE
  5
6BF
330
22
100
AcDbEntity
  8
_4-7_
  6
Continuous
 62
     7
100
AcDbLine
 10
999.9101443888656
 20
946.6852038007711
 30
0.0
 11
999.9523022887945
 21
946.7208112908577
 31
0.0
  0
LINE
  5
6C0
330
22
100
AcDbEntity
  8
_4-7_
  6
Continuous
 62
     7
100
AcDbLine
 10
999.9523022887945
 20
946.7208112908577
 30
0.0
 11
999.988195656684
 21
946.7639262488242
 31
0.0
  0
LINE
  5
6C1
330
22
100
AcDbEntity
  8
_4-7_
  6
Continuous
 62
     7
100
AcDbLine
 10
999.988195656684
 20
946.7639262488242
 30
0.0
 11
1000.016733890714
 21
946.8132386484906
 31
0.0
  0
LINE
  5
6C2
330
22
100
AcDbEntity
  8
_4-7_
  6
Continuous
 62
     7
100
AcDbLine
 10
1000.016733890714
 20
946.8132386484906
 30
0.0
 11
1000.037049871084
 21
946.8672501575456
 31
0.0
  0
LINE
  5
6C3
330
22
100
AcDbEntity
  8
_4-7_
  6
Continuous
 62
     7
100
AcDbLine
 10
1000.037049871084
 20
946.8672501575456
 30
0.0
 11
1000.048526307013
 21
946.9243196636183
 31
0.0
  0
LINE
  5
6C4
330
22
100
AcDbEntity
  8
_4-7_
  6
Continuous
 62
     7
100
AcDbLine
 10
1000.048526307013
 20
946.9243196636183
 30
0.0
 11
1000.0508144928
 21
946.9827131386447
 31
0.0
  0
LINE
  5
6C5
330
22
100
AcDbEntity
  8
_4-7_
  6
Continuous
 62
     7
100
AcDbLine
 10
1000.0508144928
 20
946.9827131386447
 30
0.0
 11
1000.043844903079
 21
947.0406563264353
 31
0.0
  0
LINE
  5
6C6
330
22
100
AcDbEntity
  8
_4-7_
  6
Continuous
 62
     7
100
AcDbLine
 10
1000.043844903079
 20
947.0406563264353
 30
0.0
 11
1000.027829305307
 21
947.096388652549
 31
0.0
  0
LINE
  5
6C7
330
22
100
AcDbEntity
  8
_4-7_
  6
Continuous
 62
     7
100
AcDbLine
 10
1000.027829305307
 20
947.096388652549
 30
0.0
 11
1000.003254325317
 21
947.1482167184593
 31
0.0
  0
LINE
  5
6C8
330
22
100
AcDbEntity
  8
_4-7_
  6
Continuous
 62
     7
100
AcDbLine
 10
1000.003254325317
 20
947.1482167184593
 30
0.0
 11
999.9708666614424
 21
947.1945657546097
 31
0.0
  0
LINE
  5
6C9
330
22
100
AcDbEntity
  8
_4-7_
  6
Continuous
 62
     7
100
AcDbLine
 10
999.9708666614424
 20
947.1945657546097
 30
0.0
 11
999.9316503964593
 21
947.2340274689903
 31
0.0
  0
LINE
  5
6CA
330
22
100
AcDbEntity
  8
_4-7_
  6
Continuous
 62
     7
100
AcDbLine
 10
999.9316503964593
 20
947.2340274689903
 30
0.0
 11
999.8867970967351
 21
947.2654028373783
 31
0.0
  0
LINE
  5
6CB
330
22
100
AcDbEntity
  8
_4-7_
  6
Continuous
 62
     7
100
AcDbLine
 10
999.8867970967351
 20
947.2654028373783
 30
0.0
 11
999.8376696070856
 21
947.2877385350821
 31
0.0
  0
LINE
  5
6CC
330
22
100
AcDbEntity
  8
_4-7_
  6
Continuous
 62
     7
100
AcDbLine
 10
999.8376696070856
 20
947.2877385350821
 30
0.0
 11
999.7857606414235
 21
947.3003559032292
 31
0.0
  0
LINE
  5
6CD
330
22
100
AcDbEntity
  8
_4-7_
  6
Continuous
 62
     7
100
AcDbLine
 10
999.7857606414235
 20
947.3003559032292
 30
0.0
 11
999.7596065581968
 21
947.3028715694736
 31
0.0
  0
LINE
  5
6CE
330
22
100
AcDbEntity
  8
_4-7_
  6
Continuous
 62
     7
100
AcDbLine
 10
999.9942891481275
 20
935.1405908752223
 30
0.0
 11
999.9942891481275
 21
935.1405908752223
 31
0.0
  0
LINE
  5
6CF
330
22
100
AcDbEntity
  8
_4-7_
  6
Continuous
 62
     7
100
AcDbLine
 10
999.9942891481275
 20
935.1405908752223
 30
0.0
 11
999.990911695361
 21
935.2276256389197
 31
0.0
  0
LINE
  5
6D0
330
22
100
AcDbEntity
  8
_4-7_
  6
Continuous
 62
     7
100
AcDbLine
 10
999.990911695361
 20
935.2276256389197
 30
0.0
 11
999.973838765349
 21
935.3126933545965
 31
0.0
  0
LINE
  5
6D1
330
22
100
AcDbEntity
  8
_4-7_
  6
Continuous
 62
     7
100
AcDbLine
 10
999.973838765349
 20
935.3126933545965
 30
0.0
 11
999.9628670649471
 21
935.3467312259724
 31
0.0
  0
LINE
  5
6D2
330
22
100
AcDbEntity
  8
_4-7_
  6
Continuous
 62
     7
100
AcDbLine
 10
1000.676105151946
 20
933.8910112142523
 30
0.0
 11
1000.676105151946
 21
933.8910112142523
 31
0.0
  0
LINE
  5
6D3
330
22
100
AcDbEntity
  8
_4-7_
  6
Continuous
 62
     7
100
AcDbLine
 10
1000.676105151946
 20
933.8910112142523
 30
0.0
 11
1000.674341511425
 21
933.9259113358423
 31
0.0
  0
LINE
  5
6D4
330
22
100
AcDbEntity
  8
_4-7_
  6
Continuous
 62
     7
100
AcDbLine
 10
1000.674341511425
 20
933.9259113358423
 30
0.0
 11
1000.667092331744
 21
933.9599445470019
 31
0.0
  0
LINE
  5
6D5
330
22
100
AcDbEntity
  8
_4-7_
  6
Continuous
 62
     7
100
AcDbLine
 10
1000.667092331744
 20
933.9599445470019
 30
0.0
 11
1000.654577875561
 21
933.992076765832
 31
0.0
  0
LINE
  5
6D6
330
22
100
AcDbEntity
  8
_4-7_
  6
Continuous
 62
     7
100
AcDbLine
 10
1000.654577875561
 20
933.992076765832
 30
0.0
 11
1000.637178388291
 21
934.0213316711228
 31
0.0
  0
LINE
  5
6D7
330
22
100
AcDbEntity
  8
_4-7_
  6
Continuous
 62
     7
100
AcDbLine
 10
1000.637178388291
 20
934.0213316711228
 30
0.0
 11
1000.615422544553
 21
934.0468203673806
 31
0.0
  0
LINE
  5
6D8
330
22
100
AcDbEntity
  8
_4-7_
  6
Continuous
 62
     7
100
AcDbLine
 10
1000.615422544553
 20
934.0468203673806
 30
0.0
 11
1000.589971384648
 21
934.0677683934682
 31
0.0
  0
LINE
  5
6D9
330
22
100
AcDbEntity
  8
_4-7_
  6
Continuous
 62
     7
100
AcDbLine
 10
1000.589971384648
 20
934.0677683934682
 30
0.0
 11
1000.561598229193
 21
934.0835392542123
 31
0.0
  0
LINE
  5
6DA
330
22
100
AcDbEntity
  8
_4-7_
  6
Continuous
 62
     7
100
AcDbLine
 10
1000.561598229193
 20
934.0835392542123
 30
0.0
 11
1000.531165182157
 21
934.0936537599905
 31
0.0
  0
LINE
  5
6DB
330
22
100
AcDbEntity
  8
_4-7_
  6
Continuous
 62
     7
100
AcDbLine
 10
1000.531165182157
 20
934.0936537599905
 30
0.0
 11
1000.499596936275
 21
934.0978045866622
 31
0.0
  0
LINE
  5
6DC
330
22
100
AcDbEntity
  8
_4-7_
  6
Continuous
 62
     7
100
AcDbLine
 10
1000.499596936275
 20
934.0978045866622
 30
0.0
 11
1000.467852676724
 21
934.0958656134592
 31
0.0
  0
LINE
  5
6DD
330
22
100
AcDbEntity
  8
_4-7_
  6
Continuous
 62
     7
100
AcDbLine
 10
1000.467852676724
 20
934.0958656134592
 30
0.0
 11
1000.436896936767
 21
934.0878957551021
 31
0.0
  0
LINE
  5
6DE
330
22
100
AcDbEntity
  8
_4-7_
  6
Continuous
 62
     7
100
AcDbLine
 10
1000.436896936767
 20
934.0878957551021
 30
0.0
 11
1000.407670290898
 21
934.0741371717033
 31
0.0
  0
LINE
  5
6DF
330
22
100
AcDbEntity
  8
_4-7_
  6
Continuous
 62
     7
100
AcDbLine
 10
1000.407670290898
 20
934.0741371717033
 30
0.0
 11
1000.381060775963
 21
934.0550079108577
 31
0.0
  0
LINE
  5
6E0
330
22
100
AcDbEntity
  8
_4-7_
  6
Continuous
 62
     7
100
AcDbLine
 10
1000.381060775963
 20
934.0550079108577
 30
0.0
 11
1000.357876908608
 21
934.0310892054761
 31
0.0
  0
LINE
  5
6E1
330
22
100
AcDbEntity
  8
_4-7_
  6
Continuous
 62
     7
100
AcDbLine
 10
1000.357876908608
 20
934.0310892054761
 30
0.0
 11
1000.33882311891
 21
934.0031078133176
 31
0.0
  0
LINE
  5
6E2
330
22
100
AcDbEntity
  8
_4-7_
  6
Continuous
 62
     7
100
AcDbLine
 10
1000.33882311891
 20
934.0031078133176
 30
0.0
 11
1000.324478346628
 21
933.9719139348241
 31
0.0
  0
LINE
  5
6E3
330
22
100
AcDbEntity
  8
_4-7_
  6
Continuous
 62
     7
100
AcDbLine
 10
1000.324478346628
 20
933.9719139348241
 30
0.0
 11
1000.31527845041
 21
933.9384553802089
 31
0.0
  0
LINE
  5
6E4
330
22
100
AcDbEntity
  8
_4-7_
  6
Continuous
 62
     7
100
AcDbLine
 10
1000.31527845041
 20
933.9384553802089
 30
0.0
 11
1000.311502964446
 21
933.9037487707228
 31
0.0
  0
LINE
  5
6E5
330
22
100
AcDbEntity
  8
_4-7_
  6
Continuous
 62
     7
100
AcDbLine
 10
1000.311502964446
 20
933.9037487707228
 30
0.0
 11
1000.311502964446
 21
933.9037487707228
 31
0.0
  0
ENDSEC
  0
SECTION
  2
OBJECTS
  0
DICTIONARY
  5
C
330
0
100
AcDbDictionary
281
     1
  3
ACAD_COLOR
350
1B
  3
ACAD_GROUP
350
D
  3
ACAD_LAYOUT
350
19
  3
ACAD_MATERIAL
350
1A
  3
ACAD_MLINESTYLE
350
16
  3
ACAD_PLOTSETTINGS
350
18
  3
ACAD_PLOTSTYLENAME
350
E
  3
ACAD_TABLESTYLE
350
1C
  3
ACDBHEADERROUNDTRIPXREC
350
6ED
  3
AcDbVariableDictionary
350
6E8
  0
DICTIONARY
  5
1B
102
{ACAD_REACTORS
330
C
102
}
330
C
100
AcDbDictionary
281
     1
  0
DICTIONARY
  5
D
102
{ACAD_REACTORS
330
C
102
}
330
C
100
AcDbDictionary
281
     1
  0
DICTIONARY
  5
19
102
{ACAD_REACTORS
330
C
102
}
330
C
100
AcDbDictionary
281
     1
  3
Model
350
25
  3
レイアウト1
350
21
  0
DICTIONARY
  5
1A
102
{ACAD_REACTORS
330
C
102
}
330
C
100
AcDbDictionary
281
     1
  0
DICTIONARY
  5
16
102
{ACAD_REACTORS
330
C
102
}
330
C
100
AcDbDictionary
281
     1
  3
Standard
350
17
  0
DICTIONARY
  5
18
102
{ACAD_REACTORS
330
C
102
}
330
C
100
AcDbDictionary
281
     1
  0
ACDBDICTIONARYWDFLT
  5
E
102
{ACAD_REACTORS
330
C
102
}
330
C
100
AcDbDictionary
281
     1
  3
Normal
350
F
100
AcDbDictionaryWithDefault
340
F
  0
DICTIONARY
  5
1C
102
{ACAD_REACTORS
330
C
102
}
330
C
100
AcDbDictionary
281
     1
  3
Standard
350
1D
  0
DICTIONARY
  5
6ED
102
{ACAD_REACTORS
330
C
102
}
330
C
100
AcDbDictionary
281
     1
  0
DICTIONARY
  5
6E8
102
{ACAD_REACTORS
330
C
102
}
330
C
100
AcDbDictionary
281
     1
  3
CTABLESTYLE
350
6E9
  3
DIMASSOC
350
6EA
  3
PROJECTNAME
350
6EB
  0
LAYOUT
  5
25
102
{ACAD_XDICTIONARY
360
6F0
102
}
102
{ACAD_REACTORS
330
19
102
}
330
19
100
AcDbPlotSettings
  1

  2
PC1665
  4

  6

 40
0.0
 41
0.0
 42
0.0
 43
0.0
 44
0.0
 45
0.0
 46
0.0
 47
0.0
 48
0.0
 49
0.0
140
0.0
141
0.0
142
1.0
143
1.0
 70
  1712
 72
     0
 73
     0
 74
     0
  7

 75
     0
147
1.0
148
0.0
149
0.0
100
AcDbLayout
  1
Model
 70
     1
 71
     0
 10
0.0
 20
0.0
 11
12.0
 21
9.0
 12
0.0
 22
0.0
 32
0.0
 14
0.0
 24
0.0
 34
0.0
 15
0.0
 25
0.0
 35
0.0
146
0.0
 13
0.0
 23
0.0
 33
0.0
 16
1.0
 26
0.0
 36
0.0
 17
0.0
 27
1.0
 37
0.0
 76
     0
330
22
  0
LAYOUT
  5
21
102
{ACAD_XDICTIONARY
360
6EE
102
}
102
{ACAD_REACTORS
330
19
102
}
330
19
100
AcDbPlotSettings
  1

  2
PC1665
  4

  6

 40
0.0
 41
0.0
 42
0.0
 43
0.0
 44
0.0
 45
0.0
 46
0.0
 47
0.0
 48
0.0
 49
0.0
140
0.0
141
0.0
142
1.0
143
1.0
 70
   688
 72
     0
 73
     0
 74
     5
  7

 75
    16
147
1.0
148
0.0
149
0.0
100
AcDbLayout
  1
レイアウト1
 70
     1
 71
     1
 10
0.0
 20
0.0
 11
12.0
 21
9.0
 12
0.0
 22
0.0
 32
0.0
 14
1.000000000000000E+20
 24
1.000000000000000E+20
 34
1.000000000000000E+20
 15
-1.000000000000000E+20
 25
-1.000000000000000E+20
 35
-1.000000000000000E+20
146
0.0
 13
0.0
 23
0.0
 33
0.0
 16
1.0
 26
0.0
 36
0.0
 17
0.0
 27
1.0
 37
0.0
 76
     0
330
1E
  0
MLINESTYLE
  5
17
102
{ACAD_REACTORS
330
16
102
}
330
16
100
AcDbMlineStyle
  2
STANDARD
 70
     0
  3

 62
   256
 51
90.0
 52
90.0
 71
     2
 49
0.5
 62
   256
  6
BYLAYER
 49
-0.5
 62
   256
  6
BYLAYER
  0
ACDBPLACEHOLDER
  5
F
102
{ACAD_REACTORS
330
E
102
}
330
E
  0
TABLESTYLE
  5
1D
102
{ACAD_REACTORS
330
1C
102
}
330
1C
100
AcDbTableStyle
  3
Standard
 70
     0
 71
     0
 40
0.06
 41
0.06
280
     0
281
     0
  7
STANDARD
140
0.18
170
     2
 62
     0
 63
     7
283
     0
274
    -2
284
     1
 64
     0
275
    -2
285
     1
 65
     0
276
    -2
286
     1
 66
     0
277
    -2
287
     1
 67
     0
278
    -2
288
     1
 68
     0
279
    -2
289
     1
 69
     0
  7
STANDARD
140
0.25
170
     5
 62
     0
 63
     7
283
     0
274
    -2
284
     1
 64
     0
275
    -2
285
     1
 65
     0
276
    -2
286
     1
 66
     0
277
    -2
287
     1
 67
     0
278
    -2
288
     1
 68
     0
279
    -2
289
     1
 69
     0
  7
STANDARD
140
0.18
170
     5
 62
     0
 63
     7
283
     0
274
    -2
284
     1
 64
     0
275
    -2
285
     1
 65
     0
276
    -2
286
     1
 66
     0
277
    -2
287
     1
 67
     0
278
    -2
288
     1
 68
     0
279
    -2
289
     1
 69
     0
  0
DICTIONARYVAR
  5
6E9
102
{ACAD_REACTORS
330
6E8
102
}
330
6E8
100
DictionaryVariables
280
     0
  1
STANDARD
  0
DICTIONARYVAR
  5
6EA
102
{ACAD_REACTORS
330
6E8
102
}
330
6E8
100
DictionaryVariables
280
     0
  1
1
  0
DICTIONARYVAR
  5
6EB
102
{ACAD_REACTORS
330
6E8
102
}
330
6E8
100
DictionaryVariables
280
     0
  1

  0
DICTIONARY
  5
6F0
330
25
100
AcDbDictionary
280
     1
281
     1
  3
ACAD_XREC_ROUNDTRIP
360
6F1
  0
DICTIONARY
  5
6EE
330
21
100
AcDbDictionary
280
     1
281
     1
  3
ACAD_XREC_ROUNDTRIP
360
6EF
  0
XRECORD
  5
6F1
102
{ACAD_REACTORS
330
6F0
102
}
330
6F0
100
AcDbXrecord
280
     1
102
SHADEPLOT
 70
     0
102
SHADEPLOTRESLEVEL
 70
     2
102
SHADEPLOTCUSTOMDPI
 70
   300
  0
XRECORD
  5
6EF
102
{ACAD_REACTORS
330
6EE
102
}
330
6EE
100
AcDbXrecord
280
     1
102
SHADEPLOT
 70
     0
102
SHADEPLOTRESLEVEL
 70
     2
102
SHADEPLOTCUSTOMDPI
 70
   300
  0
ENDSEC
  0
EOF
