  0
SECTION
  2
HEADER
  9
$ACADVER
  1
AC1015
  9
$ACADMAINTVER
 70
    20
  9
$DWGCODEPAGE
  3
ANSI_932
  9
$INSBASE
 10
0.0
 20
0.0
 30
0.0
  9
$EXTMIN
 10
544.8349054260579
 20
34.62341658377909
 30
-0.0015258207003583
  9
$EXTMAX
 10
1545.071415376234
 20
1464.651950455331
 30
0.0000000349246037
  9
$LIMMIN
 10
0.0
 20
0.0
  9
$LIMMAX
 10
2100.0
 20
1485.0
  9
$ORTHOMODE
 70
     0
  9
$REGENMODE
 70
     1
  9
$FILLMODE
 70
     1
  9
$QTEXTMODE
 70
     0
  9
$MIRRTEXT
 70
     0
  9
$LTSCALE
 40
5.0
  9
$ATTMODE
 70
     1
  9
$TEXTSIZE
 40
0.2
  9
$TRACEWID
 40
0.05
  9
$TEXTSTYLE
  7
STANDARD
  9
$CLAYER
  8
0
  9
$CELTYPE
  6
CONTINUOUS
  9
$CECOLOR
 62
   256
  9
$CELTSCALE
 40
1.0
  9
$DISPSILH
 70
     0
  9
$DIMSCALE
 40
1.0
  9
$DIMASZ
 40
0.18
  9
$DIMEXO
 40
0.0625
  9
$DIMDLI
 40
0.38
  9
$DIMRND
 40
0.0
  9
$DIMDLE
 40
0.0
  9
$DIMEXE
 40
0.18
  9
$DIMTP
 40
0.0
  9
$DIMTM
 40
0.0
  9
$DIMTXT
 40
0.18
  9
$DIMCEN
 40
0.09
  9
$DIMTSZ
 40
0.0
  9
$DIMTOL
 70
     0
  9
$DIMLIM
 70
     0
  9
$DIMTIH
 70
     1
  9
$DIMTOH
 70
     1
  9
$DIMSE1
 70
     0
  9
$DIMSE2
 70
     0
  9
$DIMTAD
 70
     0
  9
$DIMZIN
 70
     0
  9
$DIMBLK
  1

  9
$DIMASO
 70
     1
  9
$DIMSHO
 70
     1
  9
$DIMPOST
  1

  9
$DIMAPOST
  1

  9
$DIMALT
 70
     0
  9
$DIMALTD
 70
     2
  9
$DIMALTF
 40
25.4
  9
$DIMLFAC
 40
1.0
  9
$DIMTOFL
 70
     0
  9
$DIMTVP
 40
0.0
  9
$DIMTIX
 70
     0
  9
$DIMSOXD
 70
     0
  9
$DIMSAH
 70
     0
  9
$DIMBLK1
  1

  9
$DIMBLK2
  1

  9
$DIMSTYLE
  2
Standard
  9
$DIMCLRD
 70
     0
  9
$DIMCLRE
 70
     0
  9
$DIMCLRT
 70
     0
  9
$DIMTFAC
 40
1.0
  9
$DIMGAP
 40
0.09
  9
$DIMJUST
 70
     0
  9
$DIMSD1
 70
     0
  9
$DIMSD2
 70
     0
  9
$DIMTOLJ
 70
     1
  9
$DIMTZIN
 70
     0
  9
$DIMALTZ
 70
     0
  9
$DIMALTTZ
 70
     0
  9
$DIMUPT
 70
     0
  9
$DIMDEC
 70
     4
  9
$DIMTDEC
 70
     4
  9
$DIMALTU
 70
     2
  9
$DIMALTTD
 70
     2
  9
$DIMTXSTY
  7
STANDARD
  9
$DIMAUNIT
 70
     0
  9
$DIMADEC
 70
     0
  9
$DIMALTRND
 40
0.0
  9
$DIMAZIN
 70
     0
  9
$DIMDSEP
 70
    46
  9
$DIMATFIT
 70
     3
  9
$DIMFRAC
 70
     0
  9
$DIMLDRBLK
  1

  9
$DIMLUNIT
 70
     2
  9
$DIMLWD
 70
    -2
  9
$DIMLWE
 70
    -2
  9
$DIMTMOVE
 70
     0
  9
$LUNITS
 70
     2
  9
$LUPREC
 70
     4
  9
$SKETCHINC
 40
0.1
  9
$FILLETRAD
 40
0.0
  9
$AUNITS
 70
     0
  9
$AUPREC
 70
     0
  9
$MENU
  1
.
  9
$ELEVATION
 40
0.0
  9
$PELEVATION
 40
0.0
  9
$THICKNESS
 40
0.0
  9
$LIMCHECK
 70
     0
  9
$CHAMFERA
 40
0.0
  9
$CHAMFERB
 40
0.0
  9
$CHAMFERC
 40
0.0
  9
$CHAMFERD
 40
0.0
  9
$SKPOLY
 70
     0
  9
$TDCREATE
 40
2454846.619265798
  9
$TDUCREATE
 40
2454846.244265799
  9
$TDUPDATE
 40
2454846.620170370
  9
$TDUUPDATE
 40
2454846.245170370
  9
$TDINDWG
 40
0.0009069213
  9
$TDUSRTIMER
 40
0.0009069213
  9
$USRTIMER
 70
     1
  9
$ANGBASE
 50
0.0
  9
$ANGDIR
 70
     0
  9
$PDMODE
 70
     0
  9
$PDSIZE
 40
0.0
  9
$PLINEWID
 40
0.0
  9
$SPLFRAME
 70
     0
  9
$SPLINETYPE
 70
     6
  9
$SPLINESEGS
 70
     8
  9
$HANDSEED
  5
748
  9
$SURFTAB1
 70
     6
  9
$SURFTAB2
 70
     6
  9
$SURFTYPE
 70
     6
  9
$SURFU
 70
     6
  9
$SURFV
 70
     6
  9
$UCSBASE
  2

  9
$UCSNAME
  2

  9
$UCSORG
 10
0.0
 20
0.0
 30
0.0
  9
$UCSXDIR
 10
1.0
 20
0.0
 30
0.0
  9
$UCSYDIR
 10
0.0
 20
1.0
 30
0.0
  9
$UCSORTHOREF
  2

  9
$UCSORTHOVIEW
 70
     0
  9
$UCSORGTOP
 10
0.0
 20
0.0
 30
0.0
  9
$UCSORGBOTTOM
 10
0.0
 20
0.0
 30
0.0
  9
$UCSORGLEFT
 10
0.0
 20
0.0
 30
0.0
  9
$UCSORGRIGHT
 10
0.0
 20
0.0
 30
0.0
  9
$UCSORGFRONT
 10
0.0
 20
0.0
 30
0.0
  9
$UCSORGBACK
 10
0.0
 20
0.0
 30
0.0
  9
$PUCSBASE
  2

  9
$PUCSNAME
  2

  9
$PUCSORG
 10
0.0
 20
0.0
 30
0.0
  9
$PUCSXDIR
 10
1.0
 20
0.0
 30
0.0
  9
$PUCSYDIR
 10
0.0
 20
1.0
 30
0.0
  9
$PUCSORTHOREF
  2

  9
$PUCSORTHOVIEW
 70
     0
  9
$PUCSORGTOP
 10
0.0
 20
0.0
 30
0.0
  9
$PUCSORGBOTTOM
 10
0.0
 20
0.0
 30
0.0
  9
$PUCSORGLEFT
 10
0.0
 20
0.0
 30
0.0
  9
$PUCSORGRIGHT
 10
0.0
 20
0.0
 30
0.0
  9
$PUCSORGFRONT
 10
0.0
 20
0.0
 30
0.0
  9
$PUCSORGBACK
 10
0.0
 20
0.0
 30
0.0
  9
$USERI1
 70
     0
  9
$USERI2
 70
     0
  9
$USERI3
 70
     0
  9
$USERI4
 70
     0
  9
$USERI5
 70
     0
  9
$USERR1
 40
0.0
  9
$USERR2
 40
0.0
  9
$USERR3
 40
0.0
  9
$USERR4
 40
0.0
  9
$USERR5
 40
0.0
  9
$WORLDVIEW
 70
     1
  9
$SHADEDGE
 70
     3
  9
$SHADEDIF
 70
    70
  9
$TILEMODE
 70
     1
  9
$MAXACTVP
 70
    64
  9
$PINSBASE
 10
0.0
 20
0.0
 30
0.0
  9
$PLIMCHECK
 70
     0
  9
$PEXTMIN
 10
1.000000000000000E+20
 20
1.000000000000000E+20
 30
1.000000000000000E+20
  9
$PEXTMAX
 10
-1.000000000000000E+20
 20
-1.000000000000000E+20
 30
-1.000000000000000E+20
  9
$PLIMMIN
 10
0.0
 20
0.0
  9
$PLIMMAX
 10
12.0
 20
9.0
  9
$UNITMODE
 70
     0
  9
$VISRETAIN
 70
     1
  9
$PLINEGEN
 70
     0
  9
$PSLTSCALE
 70
     1
  9
$TREEDEPTH
 70
  3020
  9
$CMLSTYLE
  2
Standard
  9
$CMLJUST
 70
     0
  9
$CMLSCALE
 40
1.0
  9
$PROXYGRAPHICS
 70
     1
  9
$MEASUREMENT
 70
     0
  9
$CELWEIGHT
370
    -1
  9
$ENDCAPS
280
     0
  9
$JOINSTYLE
280
     0
  9
$LWDISPLAY
290
     0
  9
$INSUNITS
 70
     0
  9
$HYPERLINKBASE
  1

  9
$STYLESHEET
  1

  9
$XEDIT
290
     1
  9
$CEPSNTYPE
380
     0
  9
$PSTYLEMODE
290
     1
  9
$FINGERPRINTGUID
  2
{A0E11087-1889-4BA2-8D48-1E3970E66C4F}
  9
$VERSIONGUID
  2
{158B8ACF-661B-4879-B292-2B81F16520BB}
  9
$EXTNAMES
290
     1
  9
$PSVPSCALE
 40
0.0
  9
$OLESTARTUP
290
     0
  0
ENDSEC
  0
SECTION
  2
CLASSES
  0
CLASS
  1
ACDBDICTIONARYWDFLT
  2
AcDbDictionaryWithDefault
  3
ObjectDBX Classes
 90
        0
280
     0
281
     0
  0
CLASS
  1
TABLESTYLE
  2
AcDbTableStyle
  3
ObjectDBX Classes
 90
     2047
280
     0
281
     0
  0
CLASS
  1
DICTIONARYVAR
  2
AcDbDictionaryVar
  3
ObjectDBX Classes
 90
        0
280
     0
281
     0
  0
CLASS
  1
ACDBPLACEHOLDER
  2
AcDbPlaceHolder
  3
ObjectDBX Classes
 90
        0
280
     0
281
     0
  0
CLASS
  1
LAYOUT
  2
AcDbLayout
  3
ObjectDBX Classes
 90
        0
280
     0
281
     0
  0
ENDSEC
  0
SECTION
  2
TABLES
  0
TABLE
  2
VPORT
  5
8
330
0
100
AcDbSymbolTable
 70
     2
  0
VPORT
  5
742
330
8
100
AcDbSymbolTableRecord
100
AcDbViewportTableRecord
  2
*Active
 70
     0
 10
0.0
 20
0.0
 11
1.0
 21
1.0
 12
1044.953160401146
 22
749.637683519555
 13
0.0
 23
0.0
 14
1.0
 24
1.0
 15
0.0
 25
0.0
 16
0.0
 26
0.0
 36
1.0
 17
0.0
 27
0.0
 37
0.0
 40
1443.009125706997
 41
2.069696969696969
 42
50.0
 43
0.0
 44
0.0
 50
0.0
 51
0.0
 71
     0
 72
   100
 73
     1
 74
     1
 75
     0
 76
     0
 77
     0
 78
     0
281
     0
 65
     1
110
0.0
120
0.0
130
0.0
111
1.0
121
0.0
131
0.0
112
0.0
122
1.0
132
0.0
 79
     0
146
0.0
  0
ENDTAB
  0
TABLE
  2
LTYPE
  5
5
330
0
100
AcDbSymbolTable
 70
    35
  0
LTYPE
  5
13
330
5
100
AcDbSymbolTableRecord
100
AcDbLinetypeTableRecord
  2
ByBlock
 70
     0
  3

 72
    65
 73
     0
 40
0.0
  0
LTYPE
  5
14
330
5
100
AcDbSymbolTableRecord
100
AcDbLinetypeTableRecord
  2
ByLayer
 70
     0
  3

 72
    65
 73
     0
 40
0.0
  0
LTYPE
  5
15
330
5
100
AcDbSymbolTableRecord
100
AcDbLinetypeTableRecord
  2
CONTINUOUS
 70
     0
  3
実線
 72
    65
 73
     0
 40
0.0
  0
LTYPE
  5
26
330
5
100
AcDbSymbolTableRecord
100
AcDbLinetypeTableRecord
  2
DASHED1
 70
     0
  3
--  --  --  --  --  --  --  --  
 72
    65
 73
     2
 40
2.5
 49
1.25
 74
     0
 49
-1.25
 74
     0
  0
LTYPE
  5
27
330
5
100
AcDbSymbolTableRecord
100
AcDbLinetypeTableRecord
  2
DASHED2
 70
     0
  3
----    ----    ----    ----    
 72
    65
 73
     2
 40
5.0
 49
2.5
 74
     0
 49
-2.5
 74
     0
  0
LTYPE
  5
28
330
5
100
AcDbSymbolTableRecord
100
AcDbLinetypeTableRecord
  2
DASHED3
 70
     0
  3
------  ------  ------  ------  
 72
    65
 73
     2
 40
5.0
 49
3.75
 74
     0
 49
-1.25
 74
     0
  0
LTYPE
  5
29
330
5
100
AcDbSymbolTableRecord
100
AcDbLinetypeTableRecord
  2
CENTER1
 70
     0
  3
----- - ----- - ----- - ----- - 
 72
    65
 73
     4
 40
10.0
 49
6.25
 74
     0
 49
-1.25
 74
     0
 49
1.25
 74
     0
 49
-1.25
 74
     0
  0
LTYPE
  5
2A
330
5
100
AcDbSymbolTableRecord
100
AcDbLinetypeTableRecord
  2
CENTER2
 70
     0
  3
----------  --  ----------  --  
 72
    65
 73
     4
 40
20.0
 49
12.5
 74
     0
 49
-2.5
 74
     0
 49
2.5
 74
     0
 49
-2.5
 74
     0
  0
LTYPE
  5
2B
330
5
100
AcDbSymbolTableRecord
100
AcDbLinetypeTableRecord
  2
PHANTOM1
 70
     0
  3
--- - - --- - - --- - - --- - - 
 72
    65
 73
     6
 40
10.0
 49
3.25
 74
     0
 49
-1.25
 74
     0
 49
1.25
 74
     0
 49
-1.25
 74
     0
 49
1.25
 74
     0
 49
-1.25
 74
     0
  0
LTYPE
  5
2C
330
5
100
AcDbSymbolTableRecord
100
AcDbLinetypeTableRecord
  2
PHANTOM2
 70
     0
  3
--------  -  -  --------  -  -  
 72
    65
 73
     6
 40
20.0
 49
10.0
 74
     0
 49
-2.5
 74
     0
 49
1.25
 74
     0
 49
-2.5
 74
     0
 49
1.25
 74
     0
 49
-2.5
 74
     0
  0
LTYPE
  5
2D
330
5
100
AcDbSymbolTableRecord
100
AcDbLinetypeTableRecord
  2
DOT
 70
     0
  3
-   -   -   -   -   -   -   -   
 72
    65
 73
     2
 40
2.5
 49
0.625
 74
     0
 49
-1.875
 74
     0
  0
LTYPE
  5
2E
330
5
100
AcDbSymbolTableRecord
100
AcDbLinetypeTableRecord
  2
DUMMY
 70
     0
  3
ダミー
 72
    65
 73
     0
 40
0.0
  0
LTYPE
  5
2F
330
5
100
AcDbSymbolTableRecord
100
AcDbLinetypeTableRecord
  2
RAND1
 70
     0
  3
ランダム線1
 72
    65
 73
     4
 40
10.0
 49
1.0
 74
     0
 49
-2.0
 74
     0
 49
3.0
 74
     0
 49
-4.0
 74
     0
  0
LTYPE
  5
30
330
5
100
AcDbSymbolTableRecord
100
AcDbLinetypeTableRecord
  2
RAND2
 70
     0
  3
ランダム線2
 72
    65
 73
     4
 40
14.0
 49
2.0
 74
     0
 49
-3.0
 74
     0
 49
4.0
 74
     0
 49
-5.0
 74
     0
  0
LTYPE
  5
31
330
5
100
AcDbSymbolTableRecord
100
AcDbLinetypeTableRecord
  2
RAND3
 70
     0
  3
ランダム線3
 72
    65
 73
     4
 40
18.0
 49
3.0
 74
     0
 49
-4.0
 74
     0
 49
5.0
 74
     0
 49
-6.0
 74
     0
  0
LTYPE
  5
32
330
5
100
AcDbSymbolTableRecord
100
AcDbLinetypeTableRecord
  2
RAND4
 70
     0
  3
ランダム線4
 72
    65
 73
     4
 40
22.0
 49
4.0
 74
     0
 49
-5.0
 74
     0
 49
6.0
 74
     0
 49
-7.0
 74
     0
  0
LTYPE
  5
33
330
5
100
AcDbSymbolTableRecord
100
AcDbLinetypeTableRecord
  2
RAND5
 70
     0
  3
ランダム線5
 72
    65
 73
     4
 40
26.0
 49
5.0
 74
     0
 49
-6.0
 74
     0
 49
7.0
 74
     0
 49
-8.0
 74
     0
  0
LTYPE
  5
34
330
5
100
AcDbSymbolTableRecord
100
AcDbLinetypeTableRecord
  2
LONG1
 70
     0
  3
----------  --  ----------  --  
 72
    65
 73
     4
 40
40.0
 49
32.5
 74
     0
 49
-2.5
 74
     0
 49
2.5
 74
     0
 49
-2.5
 74
     0
  0
LTYPE
  5
35
330
5
100
AcDbSymbolTableRecord
100
AcDbLinetypeTableRecord
  2
LONG2
 70
     0
  3
--------  -  -  --------  -  -  
 72
    65
 73
     6
 40
40.0
 49
30.0
 74
     0
 49
-2.5
 74
     0
 49
1.25
 74
     0
 49
-2.5
 74
     0
 49
1.25
 74
     0
 49
-2.5
 74
     0
  0
LTYPE
  5
36
330
5
100
AcDbSymbolTableRecord
100
AcDbLinetypeTableRecord
  2
LONG3
 70
     0
  3
+++++++++++++++..+++++++++++++++
 72
    65
 73
     2
 40
40.0
 49
37.5
 74
     0
 49
-2.5
 74
     0
  0
LTYPE
  5
37
330
5
100
AcDbSymbolTableRecord
100
AcDbLinetypeTableRecord
  2
LONG4
 70
     0
  3
+++++++++++++++..+++++++++++++++
 72
    65
 73
     2
 40
80.0
 49
75.0
 74
     0
 49
-5.0
 74
     0
  0
LTYPE
  5
38
330
5
100
AcDbSymbolTableRecord
100
AcDbLinetypeTableRecord
  2
LONG5
 70
     0
  3
----------  --  ----------  --  
 72
    65
 73
     4
 40
60.0
 49
37.5
 74
     0
 49
-7.5
 74
     0
 49
7.5
 74
     0
 49
-7.5
 74
     0
  0
LTYPE
  5
39
330
5
100
AcDbSymbolTableRecord
100
AcDbLinetypeTableRecord
  2
DASHED
 70
     0
  3
-------   -------------   ------
 72
    65
 73
     2
 40
7.5
 49
6.0
 74
     0
 49
-1.5
 74
     0
  0
LTYPE
  5
3A
330
5
100
AcDbSymbolTableRecord
100
AcDbLinetypeTableRecord
  2
DASHED_SPACED
 70
     0
  3
----        --------        ----
 72
    65
 73
     2
 40
12.0
 49
6.0
 74
     0
 49
-6.0
 74
     0
  0
LTYPE
  5
3B
330
5
100
AcDbSymbolTableRecord
100
AcDbLinetypeTableRecord
  2
LONG_DASHED_DOTTED
 70
     0
  3
------------- --- --------------
 72
    65
 73
     4
 40
15.25
 49
12.0
 74
     0
 49
-1.5
 74
     0
 49
0.25
 74
     0
 49
-1.5
 74
     0
  0
LTYPE
  5
3C
330
5
100
AcDbSymbolTableRecord
100
AcDbLinetypeTableRecord
  2
LONG_DASHED_DOUBLE-DOTTED
 70
     0
  3
----------- --- --- ------------
 72
    65
 73
     6
 40
17.0
 49
12.0
 74
     0
 49
-1.5
 74
     0
 49
0.25
 74
     0
 49
-1.5
 74
     0
 49
0.25
 74
     0
 49
-1.5
 74
     0
  0
LTYPE
  5
3D
330
5
100
AcDbSymbolTableRecord
100
AcDbLinetypeTableRecord
  2
LONG_DASHED_TRIPLICATE-DOTTED
 70
     0
  3
--------- --- --- --- ----------
 72
    65
 73
     8
 40
18.75
 49
12.0
 74
     0
 49
-1.5
 74
     0
 49
0.25
 74
     0
 49
-1.5
 74
     0
 49
0.25
 74
     0
 49
-1.5
 74
     0
 49
0.25
 74
     0
 49
-1.5
 74
     0
  0
LTYPE
  5
3E
330
5
100
AcDbSymbolTableRecord
100
AcDbLinetypeTableRecord
  2
DOTTED
 70
     0
  3
   -       -       -       -    
 72
    65
 73
     2
 40
1.75
 49
0.25
 74
     0
 49
-1.5
 74
     0
  0
LTYPE
  5
3F
330
5
100
AcDbSymbolTableRecord
100
AcDbLinetypeTableRecord
  2
CHAIN
 70
     0
  3
-------------- -- --------------
 72
    65
 73
     4
 40
18.5
 49
12.0
 74
     0
 49
-1.5
 74
     0
 49
3.5
 74
     0
 49
-1.5
 74
     0
  0
LTYPE
  5
40
330
5
100
AcDbSymbolTableRecord
100
AcDbLinetypeTableRecord
  2
CHAIN_DOUBLE_DASH
 70
     0
  3
------------ -- -- -------------
 72
    65
 73
     6
 40
23.5
 49
12.0
 74
     0
 49
-1.5
 74
     0
 49
3.5
 74
     0
 49
-1.5
 74
     0
 49
3.5
 74
     0
 49
-1.5
 74
     0
  0
LTYPE
  5
41
330
5
100
AcDbSymbolTableRecord
100
AcDbLinetypeTableRecord
  2
DASHED_DOTTED
 70
     0
  3
-----------     -     ----------
 72
    65
 73
     4
 40
9.25
 49
6.0
 74
     0
 49
-1.5
 74
     0
 49
0.25
 74
     0
 49
-1.5
 74
     0
  0
LTYPE
  5
42
330
5
100
AcDbSymbolTableRecord
100
AcDbLinetypeTableRecord
  2
DOUBLE-DASHED_DOTTED
 70
     0
  3
------   -----------   -   -----
 72
    65
 73
     6
 40
16.75
 49
6.0
 74
     0
 49
-1.5
 74
     0
 49
6.0
 74
     0
 49
-1.5
 74
     0
 49
0.25
 74
     0
 49
-1.5
 74
     0
  0
LTYPE
  5
43
330
5
100
AcDbSymbolTableRecord
100
AcDbLinetypeTableRecord
  2
DASHED_DOUBLE-DOTTED
 70
     0
  3
---------    -    -    ---------
 72
    65
 73
     6
 40
11.0
 49
6.0
 74
     0
 49
-1.5
 74
     0
 49
0.25
 74
     0
 49
-1.5
 74
     0
 49
0.25
 74
     0
 49
-1.5
 74
     0
  0
LTYPE
  5
44
330
5
100
AcDbSymbolTableRecord
100
AcDbLinetypeTableRecord
  2
DOUBLE-DASHED_DOUBLE-DOTTED
 70
     0
  3
-----   ---------   -   -   ----
 72
    65
 73
     8
 40
18.5
 49
6.0
 74
     0
 49
-1.5
 74
     0
 49
6.0
 74
     0
 49
-1.5
 74
     0
 49
0.25
 74
     0
 49
-1.5
 74
     0
 49
0.25
 74
     0
 49
-1.5
 74
     0
  0
LTYPE
  5
45
330
5
100
AcDbSymbolTableRecord
100
AcDbLinetypeTableRecord
  2
DASHED_TRIPLICATE-DOTTED
 70
     0
  3
-------    -    -    -    ------
 72
    65
 73
     8
 40
12.75
 49
6.0
 74
     0
 49
-1.5
 74
     0
 49
0.25
 74
     0
 49
-1.5
 74
     0
 49
0.25
 74
     0
 49
-1.5
 74
     0
 49
0.25
 74
     0
 49
-1.5
 74
     0
  0
LTYPE
  5
46
330
5
100
AcDbSymbolTableRecord
100
AcDbLinetypeTableRecord
  2
DOUBLE-DASHED_TRIPLICATE-DOTTED
 70
     0
  3
-----  ---------  -  -  -  -----
 72
    65
 73
    10
 40
20.25
 49
6.0
 74
     0
 49
-1.5
 74
     0
 49
6.0
 74
     0
 49
-1.5
 74
     0
 49
0.25
 74
     0
 49
-1.5
 74
     0
 49
0.25
 74
     0
 49
-1.5
 74
     0
 49
0.25
 74
     0
 49
-1.5
 74
     0
  0
LTYPE
  5
47
330
5
100
AcDbSymbolTableRecord
100
AcDbLinetypeTableRecord
  2
UNDEFINED
 70
     0
  3
--------------------------------
 72
    65
 73
     0
 40
0.0
  0
ENDTAB
  0
TABLE
  2
LAYER
  5
2
330
0
100
AcDbSymbolTable
 70
    16
  0
LAYER
  5
10
330
2
100
AcDbSymbolTableRecord
100
AcDbLayerTableRecord
  2
0
 70
     0
 62
     7
  6
CONTINUOUS
370
    -3
390
F
  0
LAYER
  5
49
330
2
100
AcDbSymbolTableRecord
100
AcDbLayerTableRecord
  2
_2-2_IN_LINE
 70
     0
 62
     7
  6
CONTINUOUS
370
    -3
390
F
  0
LAYER
  5
4A
330
2
100
AcDbSymbolTableRecord
100
AcDbLayerTableRecord
  2
_2-3_
 70
     0
 62
     7
  6
CONTINUOUS
370
    -3
390
F
  0
LAYER
  5
4B
330
2
100
AcDbSymbolTableRecord
100
AcDbLayerTableRecord
  2
_2-4_OUT_LINE
 70
     0
 62
     7
  6
CONTINUOUS
370
    -3
390
F
  0
LAYER
  5
4C
330
2
100
AcDbSymbolTableRecord
100
AcDbLayerTableRecord
  2
_2-6_鋼板__アングル
 70
     0
 62
     7
  6
CONTINUOUS
370
    -3
390
F
  0
LAYER
  5
4D
330
2
100
AcDbSymbolTableRecord
100
AcDbLayerTableRecord
  2
_2-7_ビス
 70
     0
 62
     7
  6
CONTINUOUS
370
    -3
390
F
  0
LAYER
  5
4E
330
2
100
AcDbSymbolTableRecord
100
AcDbLayerTableRecord
  2
_2-A_MOJI
 70
     0
 62
     7
  6
CONTINUOUS
370
    -3
390
F
  0
LAYER
  5
4F
330
2
100
AcDbSymbolTableRecord
100
AcDbLayerTableRecord
  2
_2-B_DIM
 70
     0
 62
     7
  6
CONTINUOUS
370
    -3
390
F
  0
LAYER
  5
50
330
2
100
AcDbSymbolTableRecord
100
AcDbLayerTableRecord
  2
_2-D_ハッチ他
 70
     0
 62
     7
  6
CONTINUOUS
370
    -3
390
F
  0
LAYER
  5
51
330
2
100
AcDbSymbolTableRecord
100
AcDbLayerTableRecord
  2
_2-E_CON他
 70
     0
 62
     7
  6
CONTINUOUS
370
    -3
390
F
  0
LAYER
  5
52
330
2
100
AcDbSymbolTableRecord
100
AcDbLayerTableRecord
  2
_F-2_
 70
     0
 62
     7
  6
CONTINUOUS
370
    -3
390
F
  0
LAYER
  5
53
330
2
100
AcDbSymbolTableRecord
100
AcDbLayerTableRecord
  2
_F-5_
 70
     0
 62
     7
  6
CONTINUOUS
370
    -3
390
F
  0
LAYER
  5
54
330
2
100
AcDbSymbolTableRecord
100
AcDbLayerTableRecord
  2
_F-7_
 70
     0
 62
     7
  6
CONTINUOUS
370
    -3
390
F
  0
LAYER
  5
55
330
2
100
AcDbSymbolTableRecord
100
AcDbLayerTableRecord
  2
_F-8_
 70
     0
 62
     7
  6
CONTINUOUS
370
    -3
390
F
  0
LAYER
  5
56
330
2
100
AcDbSymbolTableRecord
100
AcDbLayerTableRecord
  2
_F-A_
 70
     0
 62
     7
  6
CONTINUOUS
370
    -3
390
F
  0
LAYER
  5
57
330
2
100
AcDbSymbolTableRecord
100
AcDbLayerTableRecord
  2
ADD_LINE
 70
     0
 62
     7
  6
CONTINUOUS
370
    -3
390
F
  0
ENDTAB
  0
TABLE
  2
STYLE
  5
3
330
0
100
AcDbSymbolTable
 70
     2
  0
STYLE
  5
11
330
3
100
AcDbSymbolTableRecord
100
AcDbTextStyleTableRecord
  2
STANDARD
 70
     0
 40
0.0
 41
1.0
 50
0.0
 71
     0
 42
0.2
  3
txt
  4
bigfont.shx
  0
STYLE
  5
48
330
3
100
AcDbSymbolTableRecord
100
AcDbTextStyleTableRecord
  2
TATEGAKI
 70
     4
 40
0.0
 41
1.0
 50
0.0
 71
     0
 42
1.0
  3
txt
  4
bigfont.shx
  0
ENDTAB
  0
TABLE
  2
VIEW
  5
6
330
0
100
AcDbSymbolTable
 70
     0
  0
ENDTAB
  0
TABLE
  2
UCS
  5
7
330
0
100
AcDbSymbolTable
 70
     0
  0
ENDTAB
  0
TABLE
  2
APPID
  5
9
330
0
100
AcDbSymbolTable
 70
     1
  0
APPID
  5
12
330
9
100
AcDbSymbolTableRecord
100
AcDbRegAppTableRecord
  2
ACAD
 70
     0
  0
ENDTAB
  0
TABLE
  2
DIMSTYLE
  5
A
330
0
100
AcDbSymbolTable
 70
     1
100
AcDbDimStyleTable
 71
     0
  0
DIMSTYLE
105
73C
330
A
100
AcDbSymbolTableRecord
100
AcDbDimStyleTableRecord
  2
Standard
 70
     0
340
11
  0
ENDTAB
  0
TABLE
  2
BLOCK_RECORD
  5
1
330
0
100
AcDbSymbolTable
 70
     0
  0
BLOCK_RECORD
  5
22
330
1
100
AcDbSymbolTableRecord
100
AcDbBlockTableRecord
  2
*Model_Space
340
25
  0
BLOCK_RECORD
  5
1E
330
1
100
AcDbSymbolTableRecord
100
AcDbBlockTableRecord
  2
*Paper_Space
340
21
  0
ENDTAB
  0
ENDSEC
  0
SECTION
  2
BLOCKS
  0
BLOCK
  5
23
330
22
100
AcDbEntity
  8
0
100
AcDbBlockBegin
  2
*Model_Space
 70
     0
 10
0.0
 20
0.0
 30
0.0
  3
*Model_Space
  1

  0
ENDBLK
  5
24
330
22
100
AcDbEntity
  8
0
100
AcDbBlockEnd
  0
BLOCK
  5
1F
330
1E
100
AcDbEntity
 67
     1
  8
0
100
AcDbBlockBegin
  2
*Paper_Space
 70
     0
 10
0.0
 20
0.0
 30
0.0
  3
*Paper_Space
  1

  0
ENDBLK
  5
20
330
1E
100
AcDbEntity
 67
     1
  8
0
100
AcDbBlockEnd
  0
ENDSEC
  0
SECTION
  2
ENTITIES
  0
LINE
  5
5B
330
22
100
AcDbEntity
  8
ADD_LINE
  6
DOT
 62
   136
100
AcDbLine
 10
544.9598465500447
 20
1464.641155899298
 30
0.0
 11
544.9598465500447
 21
34.64115589929932
 31
0.0
  0
LINE
  5
5C
330
22
100
AcDbEntity
  8
ADD_LINE
  6
DOT
 62
   136
100
AcDbLine
 10
544.9598465500447
 20
1464.641155899298
 30
0.0
 11
1544.959846550044
 21
1464.641155899298
 31
0.0
  0
LINE
  5
5D
330
22
100
AcDbEntity
  8
ADD_LINE
  6
DOT
 62
   136
100
AcDbLine
 10
1544.959846550044
 20
1464.641155899298
 30
0.0
 11
1544.959846550044
 21
34.64115589929932
 31
0.0
  0
LINE
  5
5E
330
22
100
AcDbEntity
  8
ADD_LINE
  6
DOT
 62
   136
100
AcDbLine
 10
1544.959846550044
 20
34.64115589929932
 30
0.0
 11
544.9598465500424
 21
34.64115589929932
 31
0.0
  0
LINE
  5
5F
330
22
100
AcDbEntity
  8
_F-7_
  6
Continuous
 62
     1
100
AcDbLine
 10
644.9598465500424
 20
1364.641155899298
 30
0.0
 11
1444.959846550042
 21
1364.641155899298
 31
0.0
  0
LINE
  5
60
330
22
100
AcDbEntity
  8
_F-7_
  6
Continuous
 62
     1
100
AcDbLine
 10
644.9598465500424
 20
774.6411558992987
 30
0.0
 11
1444.959846550042
 21
774.6411558992987
 31
0.0
  0
LINE
  5
61
330
22
100
AcDbEntity
  8
_F-7_
  6
Continuous
 62
     1
100
AcDbLine
 10
1444.959846550042
 20
1364.641155899298
 30
0.0
 11
1444.959846550042
 21
774.6411558992987
 31
0.0
  0
LINE
  5
62
330
22
100
AcDbEntity
  8
_F-7_
  6
Continuous
 62
     1
100
AcDbLine
 10
644.9598465500424
 20
1364.641155899298
 30
0.0
 11
644.9598465500424
 21
774.6411558992987
 31
0.0
  0
LINE
  5
63
330
22
100
AcDbEntity
  8
ADD_LINE
  6
DOT
 62
   136
100
AcDbLine
 10
644.9598465500424
 20
794.6411558992987
 30
0.0
 11
1444.959846550042
 21
794.6411558992987
 31
0.0
  0
LINE
  5
64
330
22
100
AcDbEntity
  8
_F-5_
  6
Continuous
 62
     6
100
AcDbLine
 10
644.9598465500424
 20
814.6411558992987
 30
0.0
 11
1444.959846550042
 21
814.6411558992987
 31
0.0
  0
LINE
  5
65
330
22
100
AcDbEntity
  8
ADD_LINE
  6
DOT
 62
   136
100
AcDbLine
 10
664.9598465500424
 20
814.6411558992987
 30
0.0
 11
664.9598465500424
 21
774.6411558992987
 31
0.0
  0
LINE
  5
66
330
22
100
AcDbEntity
  8
_F-2_
  6
Continuous
 62
     7
100
AcDbLine
 10
1014.959846550042
 20
814.6411558992987
 30
0.0
 11
1014.959846550042
 21
774.6411558992987
 31
0.0
  0
LINE
  5
67
330
22
100
AcDbEntity
  8
ADD_LINE
  6
DOT
 62
   136
100
AcDbLine
 10
1029.959846550042
 20
814.6411558992987
 30
0.0
 11
1029.959846550042
 21
774.6411558992987
 31
0.0
  0
LINE
  5
68
330
22
100
AcDbEntity
  8
ADD_LINE
  6
DOT
 62
   136
100
AcDbLine
 10
879.9598465500425
 20
814.6411558992987
 30
0.0
 11
879.9598465500425
 21
774.6411558992987
 31
0.0
  0
TEXT
  5
69
330
22
100
AcDbEntity
  8
_F-A_
 62
     7
100
AcDbText
 10
879.9598465500425
 20
784.6411558992987
 30
0.0
 40
17.5
  1
下地：ＲＣ
100
AcDbText
  0
LINE
  5
6A
330
22
100
AcDbEntity
  8
_F-5_
  6
Continuous
 62
     6
100
AcDbLine
 10
864.9598465500424
 20
814.6411558992987
 30
0.0
 11
864.9598465500424
 21
774.6411558992987
 31
0.0
  0
LINE
  5
6B
330
22
100
AcDbEntity
  8
_F-5_
  6
Continuous
 62
     6
100
AcDbLine
 10
862.4598465500424
 20
814.6411558992987
 30
0.0
 11
862.4598465500424
 21
774.6411558992987
 31
0.0
  0
TEXT
  5
6C
330
22
100
AcDbEntity
  8
_F-A_
 62
     7
100
AcDbText
 10
1029.959846550042
 20
784.6411558992987
 30
0.0
 40
17.5
  1
部位：側溝
100
AcDbText
  0
TEXT
  5
6D
330
22
100
AcDbEntity
  8
_F-A_
 62
     7
100
AcDbText
 10
664.9598465500424
 20
784.6411558992987
 30
0.0
 40
20.0
  1
１２５・１２７仕様
100
AcDbText
  0
LINE
  5
6E
330
22
100
AcDbEntity
  8
ADD_LINE
  6
DOT
 62
   136
100
AcDbLine
 10
1329.959846550042
 20
814.6411558992987
 30
0.0
 11
1329.959846550042
 21
774.6411558992987
 31
0.0
  0
LINE
  5
6F
330
22
100
AcDbEntity
  8
_F-2_
  6
Continuous
 62
     7
100
AcDbLine
 10
1314.959846550042
 20
814.6411558992987
 30
0.0
 11
1314.959846550042
 21
774.6411558992987
 31
0.0
  0
LINE
  5
70
330
22
100
AcDbEntity
  8
ADD_LINE
  6
DOT
 62
   136
100
AcDbLine
 10
1224.959846550042
 20
814.6411558992987
 30
0.0
 11
1224.959846550042
 21
774.6411558992987
 31
0.0
  0
LINE
  5
71
330
22
100
AcDbEntity
  8
_F-2_
  6
Continuous
 62
     7
100
AcDbLine
 10
1209.959846550042
 20
814.6411558992987
 30
0.0
 11
1209.959846550042
 21
774.6411558992987
 31
0.0
  0
TEXT
  5
72
330
22
100
AcDbEntity
  8
_F-A_
 62
     7
100
AcDbText
 10
1224.959846550042
 20
784.6411558992987
 30
0.0
 40
15.0
  1
Ｓ＝１：５
100
AcDbText
  0
TEXT
  5
73
330
22
100
AcDbEntity
  8
_F-A_
 62
     7
100
AcDbText
 10
1329.959846550042
 20
784.6411558992987
 30
0.0
 40
15.0
  1
図番
100
AcDbText
  0
TEXT
  5
74
330
22
100
AcDbEntity
  8
_F-A_
 62
     7
100
AcDbText
 10
1376.377515274149
 20
784.6411558992987
 30
0.0
 40
15.0
  1
３－１０
100
AcDbText
  0
TEXT
  5
75
330
22
100
AcDbEntity
  8
_2-A_MOJI
 62
     7
100
AcDbText
 10
1071.300182081837
 20
833.3362602632611
 30
0.0
 40
15.0
  1
※１：側溝の幅・深さによって、接合位置は調整する。
100
AcDbText
  0
ARC
  5
76
330
22
100
AcDbEntity
  8
_2-4_OUT_LINE
  6
Continuous
 62
     2
100
AcDbCircle
 10
820.2802194028745
 20
1246.481616306419
 30
0.0
 40
15.0
100
AcDbArc
 50
0.0
 51
90.00000000000003
  0
LINE
  5
77
330
22
100
AcDbEntity
  8
_2-4_OUT_LINE
  6
Continuous
 62
     2
100
AcDbLine
 10
820.2802194028745
 20
1261.481616306419
 30
0.0
 11
739.821886069541
 21
1261.481616306419
 31
0.0
  0
ARC
  5
78
330
22
100
AcDbEntity
  8
_2-4_OUT_LINE
  6
Continuous
 62
     2
100
AcDbCircle
 10
1122.280219402875
 20
1069.481616306416
 30
0.0
 40
3.0
100
AcDbArc
 50
270.0
 51
0.0
  0
LINE
  5
79
330
22
100
AcDbEntity
  8
_2-4_OUT_LINE
  6
Continuous
 62
     2
100
AcDbLine
 10
835.2802194028743
 20
1069.481616306416
 30
0.0
 11
835.2802194028743
 21
1246.481616306419
 31
0.0
  0
ARC
  5
7A
330
22
100
AcDbEntity
  8
_2-4_OUT_LINE
  6
Continuous
 62
     2
100
AcDbCircle
 10
838.2802194028737
 20
1069.481616306416
 30
0.0
 40
3.0
100
AcDbArc
 50
180.0
 51
270.0
  0
LINE
  5
7B
330
22
100
AcDbEntity
  8
_2-4_OUT_LINE
  6
Continuous
 62
     2
100
AcDbLine
 10
838.2802194028737
 20
1066.481616306419
 30
0.0
 11
888.2802194028739
 21
1066.481616306419
 31
0.0
  0
LINE
  5
7C
330
22
100
AcDbEntity
  8
_2-4_OUT_LINE
  6
Continuous
 62
     2
100
AcDbLine
 10
888.2802194028739
 20
1066.481616306419
 30
0.0
 11
888.2802194028739
 21
1061.481616306419
 31
0.0
  0
LINE
  5
7D
330
22
100
AcDbEntity
  8
_2-4_OUT_LINE
  6
Continuous
 62
     2
100
AcDbLine
 10
888.2802194028739
 20
1061.481616306419
 30
0.0
 11
1072.280219402875
 21
1061.481616306419
 31
0.0
  0
LINE
  5
7E
330
22
100
AcDbEntity
  8
_2-4_OUT_LINE
  6
Continuous
 62
     2
100
AcDbLine
 10
1072.280219402875
 20
1066.481616306419
 30
0.0
 11
1072.280219402875
 21
1061.481616306419
 31
0.0
  0
LINE
  5
7F
330
22
100
AcDbEntity
  8
_2-4_OUT_LINE
  6
Continuous
 62
     2
100
AcDbLine
 10
1122.280219402875
 20
1066.481616306419
 30
0.0
 11
1072.280219402875
 21
1066.481616306419
 31
0.0
  0
LINE
  5
80
330
22
100
AcDbEntity
  8
_2-4_OUT_LINE
  6
Continuous
 62
     2
100
AcDbLine
 10
680.2802194028743
 20
906.481616306419
 30
0.0
 11
1130.280219402874
 21
906.481616306419
 31
0.0
  0
LINE
  5
81
330
22
100
AcDbEntity
  8
_2-4_OUT_LINE
  6
Continuous
 62
     2
100
AcDbLine
 10
1130.280219402874
 20
906.481616306419
 30
0.0
 11
1130.280219402874
 21
864.6411558992987
 31
0.0
  0
LINE
  5
82
330
22
100
AcDbEntity
  8
_2-E_CON他
  6
Continuous
 62
     4
100
AcDbLine
 10
680.2802194028743
 20
972.0828165443027
 30
0.0
 11
830.2802194028744
 21
1122.082816544303
 31
0.0
  0
LINE
  5
83
330
22
100
AcDbEntity
  8
_2-E_CON他
  6
Continuous
 62
     4
100
AcDbLine
 10
680.2802194028743
 20
965.0117487324362
 30
0.0
 11
830.2802194028744
 21
1115.011748732436
 31
0.0
  0
LINE
  5
84
330
22
100
AcDbEntity
  8
_2-E_CON他
  6
Continuous
 62
     4
100
AcDbLine
 10
680.2802194028743
 20
957.9406809205694
 30
0.0
 11
830.2802194028744
 21
1107.940680920569
 31
0.0
  0
LINE
  5
85
330
22
100
AcDbEntity
  8
_2-E_CON他
  6
Continuous
 62
     4
100
AcDbLine
 10
680.2802194028743
 20
1172.082816544303
 30
0.0
 11
764.6790191649927
 21
1256.481616306419
 31
0.0
  0
LINE
  5
86
330
22
100
AcDbEntity
  8
_2-E_CON他
  6
Continuous
 62
     4
100
AcDbLine
 10
680.2802194028743
 20
1157.940680920569
 30
0.0
 11
778.8211547887226
 21
1256.481616306419
 31
0.0
  0
LINE
  5
87
330
22
100
AcDbEntity
  8
_2-E_CON他
  6
Continuous
 62
     4
100
AcDbLine
 10
680.2802194028743
 20
1165.011748732436
 30
0.0
 11
771.7500869768582
 21
1256.481616306419
 31
0.0
  0
LINE
  5
88
330
22
100
AcDbEntity
  8
_2-E_CON他
  6
Continuous
 62
     4
100
AcDbLine
 10
814.6790191649918
 20
906.481616306419
 30
0.0
 11
964.6790191649895
 21
1056.481616306419
 31
0.0
  0
LINE
  5
89
330
22
100
AcDbEntity
  8
_2-E_CON他
  6
Continuous
 62
     4
100
AcDbLine
 10
1028.821154788722
 20
906.481616306419
 30
0.0
 11
1278.821154788718
 21
1156.481616306419
 31
0.0
  0
LINE
  5
8A
330
22
100
AcDbEntity
  8
_2-E_CON他
  6
Continuous
 62
     4
100
AcDbLine
 10
828.8211547887225
 20
906.481616306419
 30
0.0
 11
978.8211547887206
 21
1056.481616306419
 31
0.0
  0
LINE
  5
8B
330
22
100
AcDbEntity
  8
_2-E_CON他
  6
Continuous
 62
     4
100
AcDbLine
 10
821.7500869768581
 20
906.481616306419
 30
0.0
 11
971.750086976856
 21
1056.481616306419
 31
0.0
  0
LINE
  5
8C
330
22
100
AcDbEntity
  8
_2-E_CON他
  6
Continuous
 62
     4
100
AcDbLine
 10
1014.679019164993
 20
906.481616306419
 30
0.0
 11
1264.679019164993
 21
1156.481616306419
 31
0.0
  0
LINE
  5
8D
330
22
100
AcDbEntity
  8
_2-E_CON他
  6
Continuous
 62
     4
100
AcDbLine
 10
1021.750086976858
 20
906.481616306419
 30
0.0
 11
1271.750086976854
 21
1156.481616306419
 31
0.0
  0
LINE
  5
8E
330
22
100
AcDbEntity
  8
_2-E_CON他
  6
Continuous
 62
     4
100
AcDbLine
 10
1172.838558757875
 20
864.6411558992987
 30
0.0
 11
1280.280219402874
 21
972.0828165443027
 31
0.0
  0
LINE
  5
8F
330
22
100
AcDbEntity
  8
_2-E_CON他
  6
Continuous
 62
     4
100
AcDbLine
 10
1314.679019164991
 20
1006.481616306419
 30
0.0
 11
1419.959846550042
 21
1111.762443691473
 31
0.0
  0
LINE
  5
90
330
22
100
AcDbEntity
  8
_2-E_CON他
  6
Continuous
 62
     4
100
AcDbLine
 10
1186.980694381603
 20
864.6411558992987
 30
0.0
 11
1280.280219402874
 21
957.9406809205694
 31
0.0
  0
LINE
  5
91
330
22
100
AcDbEntity
  8
_2-E_CON他
  6
Continuous
 62
     4
100
AcDbLine
 10
1328.821154788722
 20
1006.481616306419
 30
0.0
 11
1419.959846550042
 21
1097.62030806774
 31
0.0
  0
LINE
  5
92
330
22
100
AcDbEntity
  8
_2-E_CON他
  6
Continuous
 62
     4
100
AcDbLine
 10
1179.90962656974
 20
864.6411558992987
 30
0.0
 11
1280.280219402874
 21
965.0117487324362
 31
0.0
  0
LINE
  5
93
330
22
100
AcDbEntity
  8
_2-E_CON他
  6
Continuous
 62
     4
100
AcDbLine
 10
1321.750086976857
 20
1006.481616306419
 30
0.0
 11
1419.959846550042
 21
1104.691375879606
 31
0.0
  0
TEXT
  5
94
330
22
100
AcDbEntity
  8
_2-A_MOJI
 62
     7
100
AcDbText
 10
893.009448524349
 20
1179.955425042522
 30
0.0
 40
15.0
  1
塩ビシート 接着工法
100
AcDbText
  0
LINE
  5
95
330
22
100
AcDbEntity
  8
_2-A_MOJI
  6
Continuous
 62
     7
100
AcDbLine
 10
835.2802194028743
 20
1144.941105478465
 30
0.0
 11
859.8258732475962
 21
1187.455425042522
 31
0.0
  0
LINE
  5
96
330
22
100
AcDbEntity
  8
_2-A_MOJI
  6
Continuous
 62
     7
100
AcDbLine
 10
883.009448524349
 20
1187.455425042522
 30
0.0
 11
859.8258732475962
 21
1187.455425042522
 31
0.0
  0
TEXT
  5
97
330
22
100
AcDbEntity
  8
_2-A_MOJI
 62
     7
100
AcDbText
 10
975.7764424254608
 20
1137.208241274111
 30
0.0
 40
15.0
  1
プルーフシーラー
100
AcDbText
  0
TEXT
  5
98
330
22
100
AcDbEntity
  8
_2-A_MOJI
 62
     7
100
AcDbText
 10
975.7764424254608
 20
1112.208241274111
 30
0.0
 40
15.0
  1
塩ビシート 接着工法
100
AcDbText
  0
LINE
  5
99
330
22
100
AcDbEntity
  8
_2-A_MOJI
  6
Continuous
 62
     7
100
AcDbLine
 10
911.1343021035203
 20
1061.481616306419
 30
0.0
 11
944.7514597026206
 21
1119.708241274111
 31
0.0
  0
LINE
  5
9A
330
22
100
AcDbEntity
  8
_2-A_MOJI
  6
Continuous
 62
     7
100
AcDbLine
 10
965.7764424254608
 20
1119.708241274111
 30
0.0
 11
944.7514597026206
 21
1119.708241274111
 31
0.0
  0
LINE
  5
9B
330
22
100
AcDbEntity
  8
_2-A_MOJI
  6
Continuous
 62
     7
100
AcDbLine
 10
965.7764424254608
 20
1144.708241274111
 30
0.0
 11
931.9673838070754
 21
1144.708241274111
 31
0.0
  0
LINE
  5
9C
330
22
100
AcDbEntity
  8
_2-A_MOJI
  6
Continuous
 62
     7
100
AcDbLine
 10
888.8746260172069
 20
1070.069395343794
 30
0.0
 11
931.9673838070754
 21
1144.708241274111
 31
0.0
  0
POINT
  5
9D
330
22
100
AcDbEntity
  8
_2-B_DIM
 62
     1
100
AcDbPoint
 10
1072.280219402875
 20
1016.701132499725
 30
0.0
  0
LINE
  5
9E
330
22
100
AcDbEntity
  8
_2-B_DIM
  6
Continuous
 62
     7
100
AcDbLine
 10
1072.280219402875
 20
1045.775963222559
 30
0.0
 11
1072.280219402875
 21
1016.701132499725
 31
0.0
  0
POINT
  5
9F
330
22
100
AcDbEntity
  8
_2-B_DIM
 62
     1
100
AcDbPoint
 10
888.2802194028739
 20
1016.701132499725
 30
0.0
  0
LINE
  5
A0
330
22
100
AcDbEntity
  8
_2-B_DIM
  6
Continuous
 62
     7
100
AcDbLine
 10
888.2802194028739
 20
1045.775963222559
 30
0.0
 11
888.2802194028739
 21
1016.701132499725
 31
0.0
  0
LINE
  5
A1
330
22
100
AcDbEntity
  8
_2-D_ハッチ他
  6
Continuous
 62
     4
100
AcDbLine
 10
1384.838660630029
 20
1156.481616306419
 30
0.0
 11
1414.838660630028
 21
1186.481616306419
 31
0.0
  0
LINE
  5
A2
330
22
100
AcDbEntity
  8
_2-D_ハッチ他
  6
Continuous
 62
     4
100
AcDbLine
 10
1356.554389382571
 20
1156.481616306419
 30
0.0
 11
1386.554389382569
 21
1186.481616306417
 31
0.0
  0
LINE
  5
A3
330
22
100
AcDbEntity
  8
_2-D_ハッチ他
  6
Continuous
 62
     4
100
AcDbLine
 10
1328.270118135107
 20
1156.481616306421
 30
0.0
 11
1358.270118135106
 21
1186.481616306419
 31
0.0
  0
LINE
  5
A4
330
22
100
AcDbEntity
  8
_2-D_ハッチ他
  6
Continuous
 62
     4
100
AcDbLine
 10
1299.985846887647
 20
1156.481616306419
 30
0.0
 11
1329.985846887647
 21
1186.481616306419
 31
0.0
  0
LINE
  5
A5
330
22
100
AcDbEntity
  8
_2-D_ハッチ他
  6
Continuous
 62
     4
100
AcDbLine
 10
1271.70157564018
 20
1156.481616306419
 30
0.0
 11
1301.70157564018
 21
1186.481616306419
 31
0.0
  0
LINE
  5
A6
330
22
100
AcDbEntity
  8
_2-D_ハッチ他
  6
Continuous
 62
     4
100
AcDbLine
 10
1243.417304392723
 20
1156.481616306419
 30
0.0
 11
1273.417304392723
 21
1186.481616306419
 31
0.0
  0
LINE
  5
A7
330
22
100
AcDbEntity
  8
_2-D_ハッチ他
  6
Continuous
 62
     4
100
AcDbLine
 10
1215.133033145257
 20
1156.481616306419
 30
0.0
 11
1245.133033145259
 21
1186.481616306421
 31
0.0
  0
LINE
  5
A8
330
22
100
AcDbEntity
  8
_2-D_ハッチ他
  6
Continuous
 62
     4
100
AcDbLine
 10
1186.848761897796
 20
1156.481616306416
 30
0.0
 11
1216.848761897796
 21
1186.481616306417
 31
0.0
  0
LINE
  5
A9
330
22
100
AcDbEntity
  8
_2-D_ハッチ他
  6
Continuous
 62
     4
100
AcDbLine
 10
1158.56449065033
 20
1156.481616306416
 30
0.0
 11
1188.564490650332
 21
1186.481616306419
 31
0.0
  0
LINE
  5
AA
330
22
100
AcDbEntity
  8
_2-D_ハッチ他
  6
Continuous
 62
     4
100
AcDbLine
 10
1162.373052480976
 20
1186.481616306419
 30
0.0
 11
1192.373052480976
 21
1156.481616306419
 31
0.0
  0
LINE
  5
AB
330
22
100
AcDbEntity
  8
_2-D_ハッチ他
  6
Continuous
 62
     4
100
AcDbLine
 10
1190.657323728435
 20
1186.481616306417
 30
0.0
 11
1220.657323728434
 21
1156.481616306416
 31
0.0
  0
LINE
  5
AC
330
22
100
AcDbEntity
  8
_2-D_ハッチ他
  6
Continuous
 62
     4
100
AcDbLine
 10
1218.941594975903
 20
1186.481616306417
 30
0.0
 11
1248.941594975902
 21
1156.481616306416
 31
0.0
  0
LINE
  5
AD
330
22
100
AcDbEntity
  8
_2-D_ハッチ他
  6
Continuous
 62
     4
100
AcDbLine
 10
1247.225866223358
 20
1186.481616306419
 30
0.0
 11
1277.225866223357
 21
1156.481616306419
 31
0.0
  0
LINE
  5
AE
330
22
100
AcDbEntity
  8
_2-D_ハッチ他
  6
Continuous
 62
     4
100
AcDbLine
 10
1275.510137470825
 20
1186.481616306419
 30
0.0
 11
1305.510137470825
 21
1156.481616306419
 31
0.0
  0
LINE
  5
AF
330
22
100
AcDbEntity
  8
_2-D_ハッチ他
  6
Continuous
 62
     4
100
AcDbLine
 10
1303.794408718282
 20
1186.481616306417
 30
0.0
 11
1333.794408718282
 21
1156.481616306416
 31
0.0
  0
LINE
  5
B0
330
22
100
AcDbEntity
  8
_2-D_ハッチ他
  6
Continuous
 62
     4
100
AcDbLine
 10
1332.078679965749
 20
1186.481616306417
 30
0.0
 11
1362.078679965749
 21
1156.481616306416
 31
0.0
  0
LINE
  5
B1
330
22
100
AcDbEntity
  8
_2-D_ハッチ他
  6
Continuous
 62
     4
100
AcDbLine
 10
1360.362951213207
 20
1186.481616306419
 30
0.0
 11
1390.362951213207
 21
1156.481616306419
 31
0.0
  0
LINE
  5
B2
330
22
100
AcDbEntity
  8
_2-D_ハッチ他
  6
Continuous
 62
     4
100
AcDbLine
 10
1388.647222460673
 20
1186.481616306417
 30
0.0
 11
1418.647222460673
 21
1156.481616306419
 31
0.0
  0
LINE
  5
B3
330
22
100
AcDbEntity
  8
_2-D_ハッチ他
  6
Continuous
 62
     4
100
AcDbLine
 10
1130.280219402874
 20
1162.005906889603
 30
0.0
 11
1135.804509986057
 21
1156.481616306423
 31
0.0
  0
LINE
  5
B4
330
22
100
AcDbEntity
  8
_2-D_ハッチ他
  6
Continuous
 62
     4
100
AcDbLine
 10
1413.122931877494
 20
1156.481616306419
 30
0.0
 11
1419.959846550042
 21
1163.318530978965
 31
0.0
  0
LINE
  5
B5
330
22
100
AcDbEntity
  8
_2-D_ハッチ他
  6
Continuous
 62
     4
100
AcDbLine
 10
1416.931493708131
 20
1186.481616306419
 30
0.0
 11
1419.959846550042
 21
1183.453263464507
 31
0.0
  0
LINE
  5
B6
330
22
100
AcDbEntity
  8
_2-D_ハッチ他
  6
Continuous
 62
     4
100
AcDbLine
 10
1408.38751533616
 20
1186.481616306421
 30
0.0
 11
1418.38751533616
 21
1196.481616306421
 31
0.0
  0
LINE
  5
B7
330
22
100
AcDbEntity
  8
_2-D_ハッチ他
  6
Continuous
 62
     4
100
AcDbLine
 10
1394.245379712425
 20
1186.481616306421
 30
0.0
 11
1404.245379712425
 21
1196.481616306419
 31
0.0
  0
LINE
  5
B8
330
22
100
AcDbEntity
  8
_2-D_ハッチ他
  6
Continuous
 62
     4
100
AcDbLine
 10
1380.1032440887
 20
1186.481616306419
 30
0.0
 11
1390.1032440887
 21
1196.481616306419
 31
0.0
  0
LINE
  5
B9
330
22
100
AcDbEntity
  8
_2-D_ハッチ他
  6
Continuous
 62
     4
100
AcDbLine
 10
1365.961108464968
 20
1186.481616306421
 30
0.0
 11
1375.961108464968
 21
1196.481616306421
 31
0.0
  0
LINE
  5
BA
330
22
100
AcDbEntity
  8
_2-D_ハッチ他
  6
Continuous
 62
     4
100
AcDbLine
 10
1351.818972841236
 20
1186.481616306423
 30
0.0
 11
1361.818972841236
 21
1196.481616306424
 31
0.0
  0
LINE
  5
BB
330
22
100
AcDbEntity
  8
_2-D_ハッチ他
  6
Continuous
 62
     4
100
AcDbLine
 10
1337.676837217501
 20
1186.481616306421
 30
0.0
 11
1347.676837217501
 21
1196.481616306421
 31
0.0
  0
LINE
  5
BC
330
22
100
AcDbEntity
  8
_2-D_ハッチ他
  6
Continuous
 62
     4
100
AcDbLine
 10
1309.392565970044
 20
1186.481616306421
 30
0.0
 11
1319.392565970043
 21
1196.481616306421
 31
0.0
  0
LINE
  5
BD
330
22
100
AcDbEntity
  8
_2-D_ハッチ他
  6
Continuous
 62
     4
100
AcDbLine
 10
1295.250430346311
 20
1186.481616306423
 30
0.0
 11
1305.250430346313
 21
1196.481616306424
 31
0.0
  0
LINE
  5
BE
330
22
100
AcDbEntity
  8
_2-D_ハッチ他
  6
Continuous
 62
     4
100
AcDbLine
 10
1281.108294722577
 20
1186.481616306421
 30
0.0
 11
1291.108294722577
 21
1196.481616306421
 31
0.0
  0
LINE
  5
BF
330
22
100
AcDbEntity
  8
_2-D_ハッチ他
  6
Continuous
 62
     4
100
AcDbLine
 10
1266.966159098853
 20
1186.481616306419
 30
0.0
 11
1276.966159098853
 21
1196.481616306419
 31
0.0
  0
LINE
  5
C0
330
22
100
AcDbEntity
  8
_2-D_ハッチ他
  6
Continuous
 62
     4
100
AcDbLine
 10
1252.824023475119
 20
1186.481616306421
 30
0.0
 11
1262.824023475119
 21
1196.481616306421
 31
0.0
  0
LINE
  5
C1
330
22
100
AcDbEntity
  8
_2-D_ハッチ他
  6
Continuous
 62
     4
100
AcDbLine
 10
1238.681887851386
 20
1186.481616306419
 30
0.0
 11
1248.681887851389
 21
1196.481616306424
 31
0.0
  0
LINE
  5
C2
330
22
100
AcDbEntity
  8
_2-D_ハッチ他
  6
Continuous
 62
     4
100
AcDbLine
 10
1224.539752227653
 20
1186.481616306421
 30
0.0
 11
1234.539752227653
 21
1196.481616306421
 31
0.0
  0
LINE
  5
C3
330
22
100
AcDbEntity
  8
_2-D_ハッチ他
  6
Continuous
 62
     4
100
AcDbLine
 10
1210.397616603929
 20
1186.481616306421
 30
0.0
 11
1220.397616603929
 21
1196.481616306419
 31
0.0
  0
LINE
  5
C4
330
22
100
AcDbEntity
  8
_2-D_ハッチ他
  6
Continuous
 62
     4
100
AcDbLine
 10
1196.255480980196
 20
1186.481616306421
 30
0.0
 11
1206.255480980196
 21
1196.481616306421
 31
0.0
  0
LINE
  5
C5
330
22
100
AcDbEntity
  8
_2-D_ハッチ他
  6
Continuous
 62
     4
100
AcDbLine
 10
1182.113345356462
 20
1186.481616306419
 30
0.0
 11
1192.113345356462
 21
1196.481616306419
 31
0.0
  0
LINE
  5
C6
330
22
100
AcDbEntity
  8
_2-D_ハッチ他
  6
Continuous
 62
     4
100
AcDbLine
 10
1167.97120973273
 20
1186.481616306421
 30
0.0
 11
1177.971209732729
 21
1196.481616306421
 31
0.0
  0
LINE
  5
C7
330
22
100
AcDbEntity
  8
_2-D_ハッチ他
  6
Continuous
 62
     4
100
AcDbLine
 10
1139.686938485272
 20
1186.481616306421
 30
0.0
 11
1149.686938485272
 21
1196.481616306421
 31
0.0
  0
LINE
  5
C8
330
22
100
AcDbEntity
  8
_2-D_ハッチ他
  6
Continuous
 62
     4
100
AcDbLine
 10
1323.534701593765
 20
1186.481616306419
 30
0.0
 11
1333.534701593765
 21
1196.481616306419
 31
0.0
  0
LINE
  5
C9
330
22
100
AcDbEntity
  8
_2-D_ハッチ他
  6
Continuous
 62
     4
100
AcDbLine
 10
1130.280219402874
 20
1191.217032847758
 30
0.0
 11
1135.544802861538
 21
1196.481616306419
 31
0.0
  0
LINE
  5
CA
330
22
100
AcDbEntity
  8
_2-A_MOJI
  6
Continuous
 62
     7
100
AcDbLine
 10
1203.548692834433
 20
1178.277615430388
 30
0.0
 11
1270.769946007223
 21
1294.708241274111
 31
0.0
  0
TEXT
  5
CB
330
22
100
AcDbEntity
  8
_2-A_MOJI
 62
     7
100
AcDbText
 10
1296.900345560588
 20
1287.208241274111
 30
0.0
 40
15.0
  1
塩ビシート 接着工法
100
AcDbText
  0
LINE
  5
CC
330
22
100
AcDbEntity
  8
_2-A_MOJI
  6
Continuous
 62
     7
100
AcDbLine
 10
1286.900345560588
 20
1294.708241274111
 30
0.0
 11
1270.769946007223
 21
1294.708241274111
 31
0.0
  0
LINE
  5
CD
330
22
100
AcDbEntity
  8
_2-A_MOJI
  6
Continuous
 62
     7
100
AcDbLine
 10
1286.900345560588
 20
1269.708241274111
 30
0.0
 11
1256.336189277482
 21
1269.708241274111
 31
0.0
  0
LINE
  5
CE
330
22
100
AcDbEntity
  8
_2-A_MOJI
  6
Continuous
 62
     7
100
AcDbLine
 10
1286.900345560588
 20
1244.708241274111
 30
0.0
 11
1241.902432547741
 21
1244.708241274111
 31
0.0
  0
TEXT
  5
CF
330
22
100
AcDbEntity
  8
_2-A_MOJI
 62
     7
100
AcDbText
 10
1296.900345560588
 20
1237.208241274111
 30
0.0
 40
15.0
  1
断熱材
100
AcDbText
  0
TEXT
  5
D0
330
22
100
AcDbEntity
  8
_2-A_MOJI
 62
     7
100
AcDbText
 10
1296.900345560588
 20
1262.208241274111
 30
0.0
 40
15.0
  1
ＯＬパネル
100
AcDbText
  0
LINE
  5
D1
330
22
100
AcDbEntity
  8
_2-3_
  6
Continuous
 62
     3
100
AcDbLine
 10
1280.280219402874
 20
1006.481616306419
 30
0.0
 11
1419.959846550042
 21
1006.481616306419
 31
0.0
  0
LINE
  5
D2
330
22
100
AcDbEntity
  8
_2-3_
  6
Continuous
 62
     3
100
AcDbLine
 10
1280.280219402874
 20
1006.481616306419
 30
0.0
 11
1280.280219402874
 21
864.6411558992987
 31
0.0
  0
POINT
  5
D3
330
22
100
AcDbEntity
  8
_2-B_DIM
 62
     1
100
AcDbPoint
 10
835.2802194028743
 20
1016.701132499725
 30
0.0
  0
LINE
  5
D4
330
22
100
AcDbEntity
  8
_2-B_DIM
  6
Continuous
 62
     7
100
AcDbLine
 10
835.2802194028743
 20
1045.775963222559
 30
0.0
 11
835.2802194028743
 21
1016.701132499725
 31
0.0
  0
LINE
  5
D5
330
22
100
AcDbEntity
  8
_2-B_DIM
  6
Continuous
 62
     7
100
AcDbLine
 10
835.2802194028743
 20
1016.701132499725
 30
0.0
 11
888.2802194028739
 21
1016.701132499725
 31
0.0
  0
POINT
  5
D6
330
22
100
AcDbEntity
  8
_2-B_DIM
 62
     1
100
AcDbPoint
 10
1125.280219402874
 20
1016.701132499725
 30
0.0
  0
LINE
  5
D7
330
22
100
AcDbEntity
  8
_2-B_DIM
  6
Continuous
 62
     7
100
AcDbLine
 10
1125.280219402874
 20
1045.775963222559
 30
0.0
 11
1125.280219402874
 21
1016.701132499725
 31
0.0
  0
LINE
  5
D8
330
22
100
AcDbEntity
  8
_2-B_DIM
  6
Continuous
 62
     7
100
AcDbLine
 10
1072.280219402875
 20
1016.701132499725
 30
0.0
 11
1125.280219402874
 21
1016.701132499725
 31
0.0
  0
LINE
  5
D9
330
22
100
AcDbEntity
  8
_2-7_ビス
  6
Continuous
 62
     7
100
AcDbLine
 10
1155.266800270013
 20
1196.481616306419
 30
0.0
 11
1151.016798620413
 21
1196.481616306419
 31
0.0
  0
LINE
  5
DA
330
22
100
AcDbEntity
  8
_2-7_ビス
  6
Continuous
 62
     7
100
AcDbLine
 10
1148.141795321216
 20
1199.356619605617
 30
0.0
 11
1151.016798620413
 21
1196.481616306419
 31
0.0
  0
LINE
  5
DB
330
22
100
AcDbEntity
  8
_2-7_ビス
  6
Continuous
 62
     7
100
AcDbLine
 10
1158.141803569211
 20
1199.356619605617
 30
0.0
 11
1148.141795321216
 21
1199.356619605617
 31
0.0
  0
LINE
  5
DC
330
22
100
AcDbEntity
  8
_2-7_ビス
  6
Continuous
 62
     7
100
AcDbLine
 10
1148.141795321216
 20
1199.856645999198
 30
0.0
 11
1148.141795321216
 21
1199.356619605617
 31
0.0
  0
LINE
  5
DD
330
22
100
AcDbEntity
  8
_2-7_ビス
  6
Continuous
 62
     7
100
AcDbLine
 10
1158.141803569211
 20
1199.356619605617
 30
0.0
 11
1158.141803569211
 21
1199.856645999198
 31
0.0
  0
LINE
  5
DE
330
22
100
AcDbEntity
  8
_2-7_ビス
  6
Continuous
 62
     7
100
AcDbLine
 10
1158.141803569211
 20
1199.856645999198
 30
0.0
 11
1148.141795321216
 21
1199.856645999198
 31
0.0
  0
LINE
  5
DF
330
22
100
AcDbEntity
  8
_2-7_ビス
  6
Continuous
 62
     7
100
AcDbLine
 10
1158.141803569211
 20
1199.356619605617
 30
0.0
 11
1155.266800270013
 21
1196.481616306419
 31
0.0
  0
ARC
  5
E0
330
22
100
AcDbEntity
  8
_2-7_ビス
  6
DASHED3
 62
     7
100
AcDbCircle
 10
1153.141799445213
 20
1198.592179017569
 30
0.0
 40
1.840317539266638
100
AcDbArc
 50
217.1175079345703
 51
322.8824768066406
  0
LINE
  5
E1
330
22
100
AcDbEntity
  8
_2-7_ビス
  6
DASHED3
 62
     7
100
AcDbLine
 10
1155.691815281363
 20
1199.356619605617
 30
0.0
 11
1154.609290801316
 21
1197.481594861633
 31
0.0
  0
LINE
  5
E2
330
22
100
AcDbEntity
  8
_2-7_ビス
  6
DASHED3
 62
     7
100
AcDbLine
 10
1150.591820725039
 20
1199.356619605617
 30
0.0
 11
1151.674345205084
 21
1197.481594861633
 31
0.0
  0
LINE
  5
E3
330
22
100
AcDbEntity
  8
_2-7_ビス
  6
DASHED3
 62
     7
100
AcDbLine
 10
1150.591820725039
 20
1199.356619605617
 30
0.0
 11
1150.591820725039
 21
1199.856645999198
 31
0.0
  0
LINE
  5
E4
330
22
100
AcDbEntity
  8
_2-7_ビス
  6
DASHED3
 62
     7
100
AcDbLine
 10
1155.691815281363
 20
1199.356619605617
 30
0.0
 11
1155.691815281363
 21
1199.856645999198
 31
0.0
  0
LINE
  5
E5
330
22
100
AcDbEntity
  8
_2-7_ビス
  6
Continuous
 62
     7
100
AcDbLine
 10
1155.141799445213
 20
1196.481616306419
 30
0.0
 11
1155.141799445212
 21
1156.481616306419
 31
0.0
  0
LINE
  5
E6
330
22
100
AcDbEntity
  8
_2-7_ビス
  6
Continuous
 62
     7
100
AcDbLine
 10
1151.141799445213
 20
1196.481616306419
 30
0.0
 11
1151.141799445212
 21
1156.481616306419
 31
0.0
  0
LINE
  5
E7
330
22
100
AcDbEntity
  8
_2-4_OUT_LINE
  6
Continuous
 62
     2
100
AcDbLine
 10
1123.141799445214
 20
1152.170228005577
 30
0.0
 11
1125.280219402874
 21
1145.754968132596
 31
0.0
  0
LINE
  5
E8
330
22
100
AcDbEntity
  8
_2-4_OUT_LINE
  6
Continuous
 62
     2
100
AcDbLine
 10
1125.280219402874
 20
1069.481616306416
 30
0.0
 11
1125.280219402874
 21
1145.754968132596
 31
0.0
  0
LINE
  5
E9
330
22
100
AcDbEntity
  8
_2-A_MOJI
  6
Continuous
 62
     7
100
AcDbLine
 10
1203.609226466659
 20
1077.372490897574
 30
0.0
 11
1175.272366877869
 21
1077.372490897574
 31
0.0
  0
LINE
  5
EA
330
22
100
AcDbEntity
  8
_2-A_MOJI
  6
Continuous
 62
     7
100
AcDbLine
 10
1154.625111347098
 20
1113.134586513727
 30
0.0
 11
1175.272366877869
 21
1077.372490897574
 31
0.0
  0
LINE
  5
EB
330
22
100
AcDbEntity
  8
_2-D_ハッチ他
  6
Continuous
 62
     4
100
AcDbLine
 10
1130.280219402874
 20
1156.481616306419
 30
0.0
 11
1151.141799445212
 21
1177.343196348757
 31
0.0
  0
LINE
  5
EC
330
22
100
AcDbEntity
  8
_2-D_ハッチ他
  6
Continuous
 62
     4
100
AcDbLine
 10
1155.141799445213
 20
1181.343196348757
 30
0.0
 11
1160.280219402874
 21
1186.481616306419
 31
0.0
  0
LINE
  5
ED
330
22
100
AcDbEntity
  8
_2-D_ハッチ他
  6
Continuous
 62
     4
100
AcDbLine
 10
1134.088781233518
 20
1186.481616306419
 30
0.0
 11
1151.141799445212
 21
1169.428598094723
 31
0.0
  0
LINE
  5
EE
330
22
100
AcDbEntity
  8
_2-D_ハッチ他
  6
Continuous
 62
     4
100
AcDbLine
 10
1155.141799445212
 20
1165.428598094725
 30
0.0
 11
1164.088781233521
 21
1156.481616306416
 31
0.0
  0
LINE
  5
EF
330
22
100
AcDbEntity
  8
_2-D_ハッチ他
  6
Continuous
 62
     4
100
AcDbLine
 10
1155.141799445213
 20
1187.79434164263
 30
0.0
 11
1163.829074109004
 21
1196.481616306421
 31
0.0
  0
LINE
  5
F0
330
22
100
AcDbEntity
  8
_2-4_OUT_LINE
  6
Continuous
 62
     2
100
AcDbLine
 10
1186.453187746062
 20
1201.481616306419
 30
0.0
 11
1419.959846550042
 21
1201.481616306419
 31
0.0
  0
LINE
  5
F1
330
22
100
AcDbEntity
  8
_2-4_OUT_LINE
  6
Continuous
 62
     2
100
AcDbLine
 10
1118.141799445214
 20
1152.170228005577
 30
0.0
 11
1123.141799445214
 21
1152.170228005577
 31
0.0
  0
TEXT
  5
F2
330
22
100
AcDbEntity
  8
_2-A_MOJI
 62
     7
100
AcDbText
 10
1018.129452417039
 20
1229.955425042522
 30
0.0
 40
15.0
  1
※１
100
AcDbText
  0
LINE
  5
F3
330
22
100
AcDbEntity
  8
_2-A_MOJI
  6
Continuous
 62
     7
100
AcDbLine
 10
1058.129452417039
 20
1237.455425042522
 30
0.0
 11
1083.281677200145
 21
1237.455425042522
 31
0.0
  0
LINE
  5
F4
330
22
100
AcDbEntity
  8
_2-A_MOJI
  6
Continuous
 62
     7
100
AcDbLine
 10
1118.141799445214
 20
1177.075922156
 30
0.0
 11
1083.281677200145
 21
1237.455425042522
 31
0.0
  0
ARC
  5
F5
330
22
100
AcDbEntity
  8
_2-2_IN_LINE
  6
Continuous
 62
     7
100
AcDbCircle
 10
820.2802194028745
 20
1246.481616306419
 30
0.0
 40
10.0
100
AcDbArc
 50
0.0
 51
90.00000000000003
  0
LINE
  5
F6
330
22
100
AcDbEntity
  8
_2-2_IN_LINE
  6
Continuous
 62
     7
100
AcDbLine
 10
830.2802194028744
 20
1246.481616306419
 30
0.0
 11
830.2802194028744
 21
1056.481616306419
 31
0.0
  0
ARC
  5
F7
330
22
100
AcDbEntity
  8
_2-2_IN_LINE
  6
Continuous
 62
     7
100
AcDbCircle
 10
838.2802194028737
 20
1069.481616306416
 30
0.0
 40
8.0
100
AcDbArc
 50
180.0
 51
270.0
  0
LINE
  5
F8
330
22
100
AcDbEntity
  8
_2-2_IN_LINE
  6
Continuous
 62
     7
100
AcDbLine
 10
882.2830873359421
 20
1066.481616306419
 30
0.0
 11
882.3013061234645
 21
1066.612521253098
 31
0.0
  0
LINE
  5
F9
330
22
100
AcDbEntity
  8
_2-2_IN_LINE
  6
Continuous
 62
     7
100
AcDbLine
 10
882.3013061234645
 20
1066.612521253098
 30
0.0
 11
882.3343729031252
 21
1066.837595188115
 31
0.0
  0
LINE
  5
FA
330
22
100
AcDbEntity
  8
_2-2_IN_LINE
  6
Continuous
 62
     7
100
AcDbLine
 10
882.3343729031252
 20
1066.837595188115
 30
0.0
 11
882.3720371189928
 21
1067.060935098375
 31
0.0
  0
LINE
  5
FB
330
22
100
AcDbEntity
  8
_2-2_IN_LINE
  6
Continuous
 62
     7
100
AcDbLine
 10
882.3720371189928
 20
1067.060935098375
 30
0.0
 11
882.4172085408156
 21
1067.281443499846
 31
0.0
  0
LINE
  5
FC
330
22
100
AcDbEntity
  8
_2-2_IN_LINE
  6
Continuous
 62
     7
100
AcDbLine
 10
882.4172085408156
 20
1067.281443499846
 30
0.0
 11
882.4727969383468
 21
1067.498022908503
 31
0.0
  0
LINE
  5
FD
330
22
100
AcDbEntity
  8
_2-2_IN_LINE
  6
Continuous
 62
     7
100
AcDbLine
 10
882.4727969383468
 20
1067.498022908503
 30
0.0
 11
882.5417120813346
 21
1067.709575840322
 31
0.0
  0
LINE
  5
FE
330
22
100
AcDbEntity
  8
_2-2_IN_LINE
  6
Continuous
 62
     7
100
AcDbLine
 10
882.5417120813346
 20
1067.709575840322
 30
0.0
 11
882.5889357796279
 21
1067.829540943312
 31
0.0
  0
LINE
  5
FF
330
22
100
AcDbEntity
  8
_2-2_IN_LINE
  6
Continuous
 62
     7
100
AcDbLine
 10
882.5889357796279
 20
1067.829540943312
 30
0.0
 11
882.6298768408914
 21
1067.921657782908
 31
0.0
  0
LINE
  5
100
330
22
100
AcDbEntity
  8
_2-2_IN_LINE
  6
Continuous
 62
     7
100
AcDbLine
 10
882.6298768408914
 20
1067.921657782908
 30
0.0
 11
882.7082920135731
 21
1068.077372085915
 31
0.0
  0
LINE
  5
101
330
22
100
AcDbEntity
  8
_2-2_IN_LINE
  6
Continuous
 62
     7
100
AcDbLine
 10
882.7082920135731
 20
1068.077372085915
 30
0.0
 11
882.7953990278993
 21
1068.229375688797
 31
0.0
  0
LINE
  5
102
330
22
100
AcDbEntity
  8
_2-2_IN_LINE
  6
Continuous
 62
     7
100
AcDbLine
 10
882.7953990278993
 20
1068.229375688797
 30
0.0
 11
882.8897840170487
 21
1068.3779282046
 31
0.0
  0
LINE
  5
103
330
22
100
AcDbEntity
  8
_2-2_IN_LINE
  6
Continuous
 62
     7
100
AcDbLine
 10
882.8897840170487
 20
1068.3779282046
 30
0.0
 11
882.9900331141914
 21
1068.523289246373
 31
0.0
  0
LINE
  5
104
330
22
100
AcDbEntity
  8
_2-2_IN_LINE
  6
Continuous
 62
     7
100
AcDbLine
 10
882.9900331141914
 20
1068.523289246373
 30
0.0
 11
883.0947324525086
 21
1068.665718427169
 31
0.0
  0
LINE
  5
105
330
22
100
AcDbEntity
  8
_2-2_IN_LINE
  6
Continuous
 62
     7
100
AcDbLine
 10
883.0947324525086
 20
1068.665718427169
 30
0.0
 11
883.1569400321871
 21
1068.74708627437
 31
0.0
  0
LINE
  5
106
330
22
100
AcDbEntity
  8
_2-2_IN_LINE
  6
Continuous
 62
     7
100
AcDbLine
 10
883.1569400321871
 20
1068.74708627437
 30
0.0
 11
883.2311563061251
 21
1068.841769867174
 31
0.0
  0
LINE
  5
107
330
22
100
AcDbEntity
  8
_2-2_IN_LINE
  6
Continuous
 62
     7
100
AcDbLine
 10
883.2311563061251
 20
1068.841769867174
 30
0.0
 11
883.3613812462285
 21
1069.002488661035
 31
0.0
  0
LINE
  5
108
330
22
100
AcDbEntity
  8
_2-2_IN_LINE
  6
Continuous
 62
     7
100
AcDbLine
 10
883.3613812462285
 20
1069.002488661035
 30
0.0
 11
883.4942330654474
 21
1069.160355423426
 31
0.0
  0
LINE
  5
109
330
22
100
AcDbEntity
  8
_2-2_IN_LINE
  6
Continuous
 62
     7
100
AcDbLine
 10
883.4942330654474
 20
1069.160355423426
 30
0.0
 11
883.6294312035773
 21
1069.315775916891
 31
0.0
  0
LINE
  5
10A
330
22
100
AcDbEntity
  8
_2-2_IN_LINE
  6
Continuous
 62
     7
100
AcDbLine
 10
883.6294312035773
 20
1069.315775916891
 30
0.0
 11
883.7666951003996
 21
1069.46915590398
 31
0.0
  0
LINE
  5
10B
330
22
100
AcDbEntity
  8
_2-2_IN_LINE
  6
Continuous
 62
     7
100
AcDbLine
 10
883.7666951003996
 20
1069.46915590398
 30
0.0
 11
883.9057441957073
 21
1069.620901147237
 31
0.0
  0
LINE
  5
10C
330
22
100
AcDbEntity
  8
_2-2_IN_LINE
  6
Continuous
 62
     7
100
AcDbLine
 10
883.9057441957073
 20
1069.620901147237
 30
0.0
 11
883.9871000936193
 21
1069.708324240241
 31
0.0
  0
LINE
  5
10D
330
22
100
AcDbEntity
  8
_2-2_IN_LINE
  6
Continuous
 62
     7
100
AcDbLine
 10
883.9871000936193
 20
1069.708324240241
 30
0.0
 11
884.0727351670343
 21
1069.799394414638
 31
0.0
  0
LINE
  5
10E
330
22
100
AcDbEntity
  8
_2-2_IN_LINE
  6
Continuous
 62
     7
100
AcDbLine
 10
884.0727351670343
 20
1069.799394414638
 30
0.0
 11
884.2219325253418
 21
1069.955096163476
 31
0.0
  0
LINE
  5
10F
330
22
100
AcDbEntity
  8
_2-2_IN_LINE
  6
Continuous
 62
     7
100
AcDbLine
 10
884.2219325253418
 20
1069.955096163476
 30
0.0
 11
884.3736827389113
 21
1070.108442141873
 31
0.0
  0
LINE
  5
110
330
22
100
AcDbEntity
  8
_2-2_IN_LINE
  6
Continuous
 62
     7
100
AcDbLine
 10
884.3736827389113
 20
1070.108442141873
 30
0.0
 11
884.5286718184151
 21
1070.258629780792
 31
0.0
  0
LINE
  5
111
330
22
100
AcDbEntity
  8
_2-2_IN_LINE
  6
Continuous
 62
     7
100
AcDbLine
 10
884.5286718184151
 20
1070.258629780792
 30
0.0
 11
884.6875857745239
 21
1070.40485651119
 31
0.0
  0
LINE
  5
112
330
22
100
AcDbEntity
  8
_2-2_IN_LINE
  6
Continuous
 62
     7
100
AcDbLine
 10
884.6875857745239
 20
1070.40485651119
 30
0.0
 11
884.8511106179023
 21
1070.546319764017
 31
0.0
  0
LINE
  5
113
330
22
100
AcDbEntity
  8
_2-2_IN_LINE
  6
Continuous
 62
     7
100
AcDbLine
 10
884.8511106179023
 20
1070.546319764017
 30
0.0
 11
884.9483380594906
 21
1070.625869571299
 31
0.0
  0
LINE
  5
114
330
22
100
AcDbEntity
  8
_2-2_IN_LINE
  6
Continuous
 62
     7
100
AcDbLine
 10
884.9483380594906
 20
1070.625869571299
 30
0.0
 11
885.0359917590335
 21
1070.694594923798
 31
0.0
  0
LINE
  5
115
330
22
100
AcDbEntity
  8
_2-2_IN_LINE
  6
Continuous
 62
     7
100
AcDbLine
 10
885.0359917590335
 20
1070.694594923798
 30
0.0
 11
885.1906048589524
 21
1070.808807691596
 31
0.0
  0
LINE
  5
116
330
22
100
AcDbEntity
  8
_2-2_IN_LINE
  6
Continuous
 62
     7
100
AcDbLine
 10
885.1906048589524
 20
1070.808807691596
 30
0.0
 11
885.3495700021415
 21
1070.916780380531
 31
0.0
  0
LINE
  5
117
330
22
100
AcDbEntity
  8
_2-2_IN_LINE
  6
Continuous
 62
     7
100
AcDbLine
 10
885.3495700021415
 20
1070.916780380531
 30
0.0
 11
885.5128166593715
 21
1071.017555611952
 31
0.0
  0
LINE
  5
118
330
22
100
AcDbEntity
  8
_2-2_IN_LINE
  6
Continuous
 62
     7
100
AcDbLine
 10
885.5128166593715
 20
1071.017555611952
 30
0.0
 11
885.6802743014
 21
1071.110176007239
 31
0.0
  0
LINE
  5
119
330
22
100
AcDbEntity
  8
_2-2_IN_LINE
  6
Continuous
 62
     7
100
AcDbLine
 10
885.6802743014
 20
1071.110176007239
 30
0.0
 11
885.8518723990041
 21
1071.193684187751
 31
0.0
  0
LINE
  5
11A
330
22
100
AcDbEntity
  8
_2-2_IN_LINE
  6
Continuous
 62
     7
100
AcDbLine
 10
885.8518723990041
 20
1071.193684187751
 30
0.0
 11
885.9532686601745
 21
1071.237566458671
 31
0.0
  0
LINE
  5
11B
330
22
100
AcDbEntity
  8
_2-2_IN_LINE
  6
Continuous
 62
     7
100
AcDbLine
 10
885.9532686601745
 20
1071.237566458671
 30
0.0
 11
886.067174152912
 21
1071.282095171935
 31
0.0
  0
LINE
  5
11C
330
22
100
AcDbEntity
  8
_2-2_IN_LINE
  6
Continuous
 62
     7
100
AcDbLine
 10
886.067174152912
 20
1071.282095171935
 30
0.0
 11
886.2670626107673
 21
1071.349405800347
 31
0.0
  0
LINE
  5
11D
330
22
100
AcDbEntity
  8
_2-2_IN_LINE
  6
Continuous
 62
     7
100
AcDbLine
 10
886.2670626107673
 20
1071.349405800347
 30
0.0
 11
886.470764709626
 21
1071.406009351847
 31
0.0
  0
LINE
  5
11E
330
22
100
AcDbEntity
  8
_2-2_IN_LINE
  6
Continuous
 62
     7
100
AcDbLine
 10
886.470764709626
 20
1071.406009351847
 30
0.0
 11
886.6775637864327
 21
1071.453384225579
 31
0.0
  0
LINE
  5
11F
330
22
100
AcDbEntity
  8
_2-2_IN_LINE
  6
Continuous
 62
     7
100
AcDbLine
 10
886.6775637864327
 20
1071.453384225579
 30
0.0
 11
886.886743178144
 21
1071.493008820687
 31
0.0
  0
LINE
  5
120
330
22
100
AcDbEntity
  8
_2-2_IN_LINE
  6
Continuous
 62
     7
100
AcDbLine
 10
886.886743178144
 20
1071.493008820687
 30
0.0
 11
887.0975862216972
 21
1071.526361536323
 31
0.0
  0
LINE
  5
121
330
22
100
AcDbEntity
  8
_2-2_IN_LINE
  6
Continuous
 62
     7
100
AcDbLine
 10
887.0975862216972
 20
1071.526361536323
 30
0.0
 11
887.2203550697269
 21
1071.543414902358
 31
0.0
  0
LINE
  5
122
330
22
100
AcDbEntity
  8
_2-2_IN_LINE
  6
Continuous
 62
     7
100
AcDbLine
 10
887.2203550697269
 20
1071.543414902358
 30
0.0
 11
887.3688120398117
 21
1071.562131901623
 31
0.0
  0
LINE
  5
123
330
22
100
AcDbEntity
  8
_2-2_IN_LINE
  6
Continuous
 62
     7
100
AcDbLine
 10
887.3688120398117
 20
1071.562131901623
 30
0.0
 11
887.6251323050984
 21
1071.589038662712
 31
0.0
  0
LINE
  5
124
330
22
100
AcDbEntity
  8
_2-2_IN_LINE
  6
Continuous
 62
     7
100
AcDbLine
 10
887.6251323050984
 20
1071.589038662712
 30
0.0
 11
887.8815276336776
 21
1071.607896910014
 31
0.0
  0
LINE
  5
125
330
22
100
AcDbEntity
  8
_2-2_IN_LINE
  6
Continuous
 62
     7
100
AcDbLine
 10
887.8815276336776
 20
1071.607896910014
 30
0.0
 11
888.1375554703085
 21
1071.617243001199
 31
0.0
  0
LINE
  5
126
330
22
100
AcDbEntity
  8
_2-2_IN_LINE
  6
Continuous
 62
     7
100
AcDbLine
 10
888.1375554703085
 20
1071.617243001199
 30
0.0
 11
888.3927732597443
 21
1071.615613293952
 31
0.0
  0
LINE
  5
127
330
22
100
AcDbEntity
  8
_2-2_IN_LINE
  6
Continuous
 62
     7
100
AcDbLine
 10
888.3927732597443
 20
1071.615613293952
 30
0.0
 11
888.6467384467335
 21
1071.601544145951
 31
0.0
  0
LINE
  5
128
330
22
100
AcDbEntity
  8
_2-2_IN_LINE
  6
Continuous
 62
     7
100
AcDbLine
 10
888.6467384467335
 20
1071.601544145951
 30
0.0
 11
888.7932899229703
 21
1071.587107537171
 31
0.0
  0
LINE
  5
129
330
22
100
AcDbEntity
  8
_2-2_IN_LINE
  6
Continuous
 62
     7
100
AcDbLine
 10
888.7932899229703
 20
1071.587107537171
 30
0.0
 11
888.9006341145353
 21
1071.573417751088
 31
0.0
  0
LINE
  5
12A
330
22
100
AcDbEntity
  8
_2-2_IN_LINE
  6
Continuous
 62
     7
100
AcDbLine
 10
888.9006341145353
 20
1071.573417751088
 30
0.0
 11
889.0850841753048
 21
1071.544458119841
 31
0.0
  0
LINE
  5
12B
330
22
100
AcDbEntity
  8
_2-2_IN_LINE
  6
Continuous
 62
     7
100
AcDbLine
 10
889.0850841753048
 20
1071.544458119841
 30
0.0
 11
889.2690550327474
 21
1071.510142638306
 31
0.0
  0
LINE
  5
12C
330
22
100
AcDbEntity
  8
_2-2_IN_LINE
  6
Continuous
 62
     7
100
AcDbLine
 10
889.2690550327474
 20
1071.510142638306
 30
0.0
 11
889.4529110686073
 21
1071.472127812276
 31
0.0
  0
LINE
  5
12D
330
22
100
AcDbEntity
  8
_2-2_IN_LINE
  6
Continuous
 62
     7
100
AcDbLine
 10
889.4529110686073
 20
1071.472127812276
 30
0.0
 11
889.6370166646251
 21
1071.432070147571
 31
0.0
  0
LINE
  5
12E
330
22
100
AcDbEntity
  8
_2-2_IN_LINE
  6
Continuous
 62
     7
100
AcDbLine
 10
889.6370166646251
 20
1071.432070147571
 30
0.0
 11
889.8217362025539
 21
1071.391626149996
 31
0.0
  0
LINE
  5
12F
330
22
100
AcDbEntity
  8
_2-2_IN_LINE
  6
Continuous
 62
     7
100
AcDbLine
 10
889.8217362025539
 20
1071.391626149996
 30
0.0
 11
889.9292984280886
 21
1071.368644363111
 31
0.0
  0
LINE
  5
130
330
22
100
AcDbEntity
  8
_2-2_IN_LINE
  6
Continuous
 62
     7
100
AcDbLine
 10
889.9292984280886
 20
1071.368644363111
 30
0.0
 11
890.051409659417
 21
1071.343370641612
 31
0.0
  0
LINE
  5
131
330
22
100
AcDbEntity
  8
_2-2_IN_LINE
  6
Continuous
 62
     7
100
AcDbLine
 10
890.051409659417
 20
1071.343370641612
 30
0.0
 11
890.2622076829802
 21
1071.300021125376
 31
0.0
  0
LINE
  5
132
330
22
100
AcDbEntity
  8
_2-2_IN_LINE
  6
Continuous
 62
     7
100
AcDbLine
 10
890.2622076829802
 20
1071.300021125376
 30
0.0
 11
890.4719129068205
 21
1071.253887967227
 31
0.0
  0
LINE
  5
133
330
22
100
AcDbEntity
  8
_2-2_IN_LINE
  6
Continuous
 62
     7
100
AcDbLine
 10
890.4719129068205
 20
1071.253887967227
 30
0.0
 11
890.6788698560889
 21
1071.201401925523
 31
0.0
  0
LINE
  5
134
330
22
100
AcDbEntity
  8
_2-2_IN_LINE
  6
Continuous
 62
     7
100
AcDbLine
 10
890.6788698560889
 20
1071.201401925523
 30
0.0
 11
890.8814230559405
 21
1071.138993758623
 31
0.0
  0
LINE
  5
135
330
22
100
AcDbEntity
  8
_2-2_IN_LINE
  6
Continuous
 62
     7
100
AcDbLine
 10
890.8814230559405
 20
1071.138993758623
 30
0.0
 11
891.0779170315404
 21
1071.063094224892
 31
0.0
  0
LINE
  5
136
330
22
100
AcDbEntity
  8
_2-2_IN_LINE
  6
Continuous
 62
     7
100
AcDbLine
 10
891.0779170315404
 20
1071.063094224892
 30
0.0
 11
891.1884548576622
 21
1071.011484284236
 31
0.0
  0
LINE
  5
137
330
22
100
AcDbEntity
  8
_2-2_IN_LINE
  6
Continuous
 62
     7
100
AcDbLine
 10
891.1884548576622
 20
1071.011484284236
 30
0.0
 11
891.287777088843
 21
1070.958398812309
 31
0.0
  0
LINE
  5
138
330
22
100
AcDbEntity
  8
_2-2_IN_LINE
  6
Continuous
 62
     7
100
AcDbLine
 10
891.287777088843
 20
1070.958398812309
 30
0.0
 11
891.4532010040296
 21
1070.855112531212
 31
0.0
  0
LINE
  5
139
330
22
100
AcDbEntity
  8
_2-2_IN_LINE
  6
Continuous
 62
     7
100
AcDbLine
 10
891.4532010040296
 20
1070.855112531212
 30
0.0
 11
891.6112525753909
 21
1070.738562899478
 31
0.0
  0
LINE
  5
13A
330
22
100
AcDbEntity
  8
_2-2_IN_LINE
  6
Continuous
 62
     7
100
AcDbLine
 10
891.6112525753909
 20
1070.738562899478
 30
0.0
 11
891.7619276218067
 21
1070.610636226165
 31
0.0
  0
LINE
  5
13B
330
22
100
AcDbEntity
  8
_2-2_IN_LINE
  6
Continuous
 62
     7
100
AcDbLine
 10
891.7619276218067
 20
1070.610636226165
 30
0.0
 11
891.9052219621759
 21
1070.473218820316
 31
0.0
  0
LINE
  5
13C
330
22
100
AcDbEntity
  8
_2-2_IN_LINE
  6
Continuous
 62
     7
100
AcDbLine
 10
891.9052219621759
 20
1070.473218820316
 30
0.0
 11
892.0411314153776
 21
1070.328196990986
 31
0.0
  0
LINE
  5
13D
330
22
100
AcDbEntity
  8
_2-2_IN_LINE
  6
Continuous
 62
     7
100
AcDbLine
 10
892.0411314153776
 20
1070.328196990986
 30
0.0
 11
892.116573495365
 21
1070.241343286989
 31
0.0
  0
LINE
  5
13E
330
22
100
AcDbEntity
  8
_2-2_IN_LINE
  6
Continuous
 62
     7
100
AcDbLine
 10
892.116573495365
 20
1070.241343286989
 30
0.0
 11
892.2008685197363
 21
1070.138775898999
 31
0.0
  0
LINE
  5
13F
330
22
100
AcDbEntity
  8
_2-2_IN_LINE
  6
Continuous
 62
     7
100
AcDbLine
 10
892.2008685197363
 20
1070.138775898999
 30
0.0
 11
892.339040379003
 21
1069.957490889262
 31
0.0
  0
LINE
  5
140
330
22
100
AcDbEntity
  8
_2-2_IN_LINE
  6
Continuous
 62
     7
100
AcDbLine
 10
892.339040379003
 20
1069.957490889262
 30
0.0
 11
892.4691506460217
 21
1069.771266214643
 31
0.0
  0
LINE
  5
141
330
22
100
AcDbEntity
  8
_2-2_IN_LINE
  6
Continuous
 62
     7
100
AcDbLine
 10
892.4691506460217
 20
1069.771266214643
 30
0.0
 11
892.5923705480078
 21
1069.580900153555
 31
0.0
  0
LINE
  5
142
330
22
100
AcDbEntity
  8
_2-2_IN_LINE
  6
Continuous
 62
     7
100
AcDbLine
 10
892.5923705480078
 20
1069.580900153555
 30
0.0
 11
892.7098713121779
 21
1069.387190984412
 31
0.0
  0
LINE
  5
143
330
22
100
AcDbEntity
  8
_2-2_IN_LINE
  6
Continuous
 62
     7
100
AcDbLine
 10
892.7098713121779
 20
1069.387190984412
 30
0.0
 11
892.8228241657475
 21
1069.190936985629
 31
0.0
  0
LINE
  5
144
330
22
100
AcDbEntity
  8
_2-2_IN_LINE
  6
Continuous
 62
     7
100
AcDbLine
 10
892.8228241657475
 20
1069.190936985629
 30
0.0
 11
892.8867144926051
 21
1069.076258188597
 31
0.0
  0
LINE
  5
145
330
22
100
AcDbEntity
  8
_2-2_IN_LINE
  6
Continuous
 62
     7
100
AcDbLine
 10
892.8867144926051
 20
1069.076258188597
 30
0.0
 11
892.953981860111
 21
1068.953191596463
 31
0.0
  0
LINE
  5
146
330
22
100
AcDbEntity
  8
_2-2_IN_LINE
  6
Continuous
 62
     7
100
AcDbLine
 10
892.953981860111
 20
1068.953191596463
 30
0.0
 11
893.0679631013198
 21
1068.739984840095
 31
0.0
  0
LINE
  5
147
330
22
100
AcDbEntity
  8
_2-2_IN_LINE
  6
Continuous
 62
     7
100
AcDbLine
 10
893.0679631013198
 20
1068.739984840095
 30
0.0
 11
893.1800776496848
 21
1068.525687840556
 31
0.0
  0
LINE
  5
148
330
22
100
AcDbEntity
  8
_2-2_IN_LINE
  6
Continuous
 62
     7
100
AcDbLine
 10
893.1800776496848
 20
1068.525687840556
 30
0.0
 11
893.2910942589307
 21
1068.31053857948
 31
0.0
  0
LINE
  5
149
330
22
100
AcDbEntity
  8
_2-2_IN_LINE
  6
Continuous
 62
     7
100
AcDbLine
 10
893.2910942589307
 20
1068.31053857948
 30
0.0
 11
893.401781682793
 21
1068.094775038503
 31
0.0
  0
LINE
  5
14A
330
22
100
AcDbEntity
  8
_2-2_IN_LINE
  6
Continuous
 62
     7
100
AcDbLine
 10
893.401781682793
 20
1068.094775038503
 30
0.0
 11
893.5129086749897
 21
1067.878635199247
 31
0.0
  0
LINE
  5
14B
330
22
100
AcDbEntity
  8
_2-2_IN_LINE
  6
Continuous
 62
     7
100
AcDbLine
 10
893.5129086749897
 20
1067.878635199247
 30
0.0
 11
893.5778666696194
 21
1067.753195449745
 31
0.0
  0
LINE
  5
14C
330
22
100
AcDbEntity
  8
_2-2_IN_LINE
  6
Continuous
 62
     7
100
AcDbLine
 10
893.5778666696194
 20
1067.753195449745
 30
0.0
 11
893.6662801237947
 21
1067.58436726674
 31
0.0
  0
LINE
  5
14D
330
22
100
AcDbEntity
  8
_2-2_IN_LINE
  6
Continuous
 62
     7
100
AcDbLine
 10
893.6662801237947
 20
1067.58436726674
 30
0.0
 11
893.8227849397266
 21
1067.294971500851
 31
0.0
  0
LINE
  5
14E
330
22
100
AcDbEntity
  8
_2-2_IN_LINE
  6
Continuous
 62
     7
100
AcDbLine
 10
893.8227849397266
 20
1067.294971500851
 30
0.0
 11
893.9870065329513
 21
1067.010263324601
 31
0.0
  0
LINE
  5
14F
330
22
100
AcDbEntity
  8
_2-2_IN_LINE
  6
Continuous
 62
     7
100
AcDbLine
 10
893.9870065329513
 20
1067.010263324601
 30
0.0
 11
894.1619305203371
 21
1066.733209896583
 31
0.0
  0
LINE
  5
150
330
22
100
AcDbEntity
  8
_2-2_IN_LINE
  6
Continuous
 62
     7
100
AcDbLine
 10
894.1619305203371
 20
1066.733209896583
 30
0.0
 11
894.350542518738
 21
1066.466778375396
 31
0.0
  0
LINE
  5
151
330
22
100
AcDbEntity
  8
_2-2_IN_LINE
  6
Continuous
 62
     7
100
AcDbLine
 10
894.350542518738
 20
1066.466778375396
 30
0.0
 11
894.5558281450134
 21
1066.213935919638
 31
0.0
  0
LINE
  5
152
330
22
100
AcDbEntity
  8
_2-2_IN_LINE
  6
Continuous
 62
     7
100
AcDbLine
 10
894.5558281450134
 20
1066.213935919638
 30
0.0
 11
894.6837101528389
 21
1066.07468301986
 31
0.0
  0
LINE
  5
153
330
22
100
AcDbEntity
  8
_2-2_IN_LINE
  6
Continuous
 62
     7
100
AcDbLine
 10
894.6837101528389
 20
1066.07468301986
 30
0.0
 11
894.7299253251426
 21
1066.027578013946
 31
0.0
  0
LINE
  5
154
330
22
100
AcDbEntity
  8
_2-2_IN_LINE
  6
Continuous
 62
     7
100
AcDbLine
 10
894.7299253251426
 20
1066.027578013946
 30
0.0
 11
894.8116245866835
 21
1065.948232918913
 31
0.0
  0
LINE
  5
155
330
22
100
AcDbEntity
  8
_2-2_IN_LINE
  6
Continuous
 62
     7
100
AcDbLine
 10
894.8116245866835
 20
1065.948232918913
 30
0.0
 11
894.895826979015
 21
1065.87143280947
 31
0.0
  0
LINE
  5
156
330
22
100
AcDbEntity
  8
_2-2_IN_LINE
  6
Continuous
 62
     7
100
AcDbLine
 10
894.895826979015
 20
1065.87143280947
 30
0.0
 11
894.9824729545083
 21
1065.797383906147
 31
0.0
  0
LINE
  5
157
330
22
100
AcDbEntity
  8
_2-2_IN_LINE
  6
Continuous
 62
     7
100
AcDbLine
 10
894.9824729545083
 20
1065.797383906147
 30
0.0
 11
895.0715029655441
 21
1065.726292429454
 31
0.0
  0
LINE
  5
158
330
22
100
AcDbEntity
  8
_2-2_IN_LINE
  6
Continuous
 62
     7
100
AcDbLine
 10
895.0715029655441
 20
1065.726292429454
 30
0.0
 11
895.1628574644983
 21
1065.658364599926
 31
0.0
  0
LINE
  5
159
330
22
100
AcDbEntity
  8
_2-2_IN_LINE
  6
Continuous
 62
     7
100
AcDbLine
 10
895.1628574644983
 20
1065.658364599926
 30
0.0
 11
895.2168846893904
 21
1065.620497303532
 31
0.0
  0
LINE
  5
15A
330
22
100
AcDbEntity
  8
_2-2_IN_LINE
  6
Continuous
 62
     7
100
AcDbLine
 10
895.2168846893904
 20
1065.620497303532
 30
0.0
 11
895.3064861004794
 21
1065.561204613159
 31
0.0
  0
LINE
  5
15B
330
22
100
AcDbEntity
  8
_2-2_IN_LINE
  6
Continuous
 62
     7
100
AcDbLine
 10
895.3064861004794
 20
1065.561204613159
 30
0.0
 11
895.4646775446498
 21
1065.464791348963
 31
0.0
  0
LINE
  5
15C
330
22
100
AcDbEntity
  8
_2-2_IN_LINE
  6
Continuous
 62
     7
100
AcDbLine
 10
895.4646775446498
 20
1065.464791348963
 30
0.0
 11
895.6260888316831
 21
1065.373462939892
 31
0.0
  0
LINE
  5
15D
330
22
100
AcDbEntity
  8
_2-2_IN_LINE
  6
Continuous
 62
     7
100
AcDbLine
 10
895.6260888316831
 20
1065.373462939892
 30
0.0
 11
895.7890087799764
 21
1065.28457223144
 31
0.0
  0
LINE
  5
15E
330
22
100
AcDbEntity
  8
_2-2_IN_LINE
  6
Continuous
 62
     7
100
AcDbLine
 10
895.7890087799764
 20
1065.28457223144
 30
0.0
 11
895.9517262079284
 21
1065.195472069108
 31
0.0
  0
LINE
  5
15F
330
22
100
AcDbEntity
  8
_2-2_IN_LINE
  6
Continuous
 62
     7
100
AcDbLine
 10
895.9517262079284
 20
1065.195472069108
 30
0.0
 11
896.1125299339403
 21
1065.103515298376
 31
0.0
  0
LINE
  5
160
330
22
100
AcDbEntity
  8
_2-2_IN_LINE
  6
Continuous
 62
     7
100
AcDbLine
 10
896.1125299339403
 20
1065.103515298376
 30
0.0
 11
896.2042449422655
 21
1065.047828356869
 31
0.0
  0
LINE
  5
161
330
22
100
AcDbEntity
  8
_2-2_IN_LINE
  6
Continuous
 62
     7
100
AcDbLine
 10
896.2042449422655
 20
1065.047828356869
 30
0.0
 11
896.296655934665
 21
1064.988463586995
 31
0.0
  0
LINE
  5
162
330
22
100
AcDbEntity
  8
_2-2_IN_LINE
  6
Continuous
 62
     7
100
AcDbLine
 10
896.296655934665
 20
1064.988463586995
 30
0.0
 11
896.4525989368201
 21
1064.880961825229
 31
0.0
  0
LINE
  5
163
330
22
100
AcDbEntity
  8
_2-2_IN_LINE
  6
Continuous
 62
     7
100
AcDbLine
 10
896.4525989368201
 20
1064.880961825229
 30
0.0
 11
896.6049214790441
 21
1064.767978635259
 31
0.0
  0
LINE
  5
164
330
22
100
AcDbEntity
  8
_2-2_IN_LINE
  6
Continuous
 62
     7
100
AcDbLine
 10
896.6049214790441
 20
1064.767978635259
 30
0.0
 11
896.754397967776
 21
1064.650718582861
 31
0.0
  0
LINE
  5
165
330
22
100
AcDbEntity
  8
_2-2_IN_LINE
  6
Continuous
 62
     7
100
AcDbLine
 10
896.754397967776
 20
1064.650718582861
 30
0.0
 11
896.9018028094696
 21
1064.530386233816
 31
0.0
  0
LINE
  5
166
330
22
100
AcDbEntity
  8
_2-2_IN_LINE
  6
Continuous
 62
     7
100
AcDbLine
 10
896.9018028094696
 20
1064.530386233816
 30
0.0
 11
897.0479104105665
 21
1064.408186153892
 31
0.0
  0
LINE
  5
167
330
22
100
AcDbEntity
  8
_2-2_IN_LINE
  6
Continuous
 62
     7
100
AcDbLine
 10
897.0479104105665
 20
1064.408186153892
 30
0.0
 11
897.1323635799684
 21
1064.336928974799
 31
0.0
  0
LINE
  5
168
330
22
100
AcDbEntity
  8
_2-2_IN_LINE
  6
Continuous
 62
     7
100
AcDbLine
 10
897.1323635799684
 20
1064.336928974799
 30
0.0
 11
897.2382054435879
 21
1064.247448390897
 31
0.0
  0
LINE
  5
169
330
22
100
AcDbEntity
  8
_2-2_IN_LINE
  6
Continuous
 62
     7
100
AcDbLine
 10
897.2382054435879
 20
1064.247448390897
 30
0.0
 11
897.4197782218983
 21
1064.092365337101
 31
0.0
  0
LINE
  5
16A
330
22
100
AcDbEntity
  8
_2-2_IN_LINE
  6
Continuous
 62
     7
100
AcDbLine
 10
897.4197782218983
 20
1064.092365337101
 30
0.0
 11
897.598952874522
 21
1063.934976168862
 31
0.0
  0
LINE
  5
16B
330
22
100
AcDbEntity
  8
_2-2_IN_LINE
  6
Continuous
 62
     7
100
AcDbLine
 10
897.598952874522
 20
1063.934976168862
 30
0.0
 11
897.7742850007473
 21
1063.773785970932
 31
0.0
  0
LINE
  5
16C
330
22
100
AcDbEntity
  8
_2-2_IN_LINE
  6
Continuous
 62
     7
100
AcDbLine
 10
897.7742850007473
 20
1063.773785970932
 30
0.0
 11
897.9443301998584
 21
1063.607299828086
 31
0.0
  0
LINE
  5
16D
330
22
100
AcDbEntity
  8
_2-2_IN_LINE
  6
Continuous
 62
     7
100
AcDbLine
 10
897.9443301998584
 20
1063.607299828086
 30
0.0
 11
898.1076440711341
 21
1063.434022825074
 31
0.0
  0
LINE
  5
16E
330
22
100
AcDbEntity
  8
_2-2_IN_LINE
  6
Continuous
 62
     7
100
AcDbLine
 10
898.1076440711341
 20
1063.434022825074
 30
0.0
 11
898.1987126530738
 21
1063.329821516863
 31
0.0
  0
LINE
  5
16F
330
22
100
AcDbEntity
  8
_2-2_IN_LINE
  6
Continuous
 62
     7
100
AcDbLine
 10
898.1987126530738
 20
1063.329821516863
 30
0.0
 11
898.2503719257113
 21
1063.267734241342
 31
0.0
  0
LINE
  5
170
330
22
100
AcDbEntity
  8
_2-2_IN_LINE
  6
Continuous
 62
     7
100
AcDbLine
 10
898.2503719257113
 20
1063.267734241342
 30
0.0
 11
898.3366970360169
 21
1063.158261501503
 31
0.0
  0
LINE
  5
171
330
22
100
AcDbEntity
  8
_2-2_IN_LINE
  6
Continuous
 62
     7
100
AcDbLine
 10
898.3366970360169
 20
1063.158261501503
 30
0.0
 11
898.4190569081478
 21
1063.045760243745
 31
0.0
  0
LINE
  5
172
330
22
100
AcDbEntity
  8
_2-2_IN_LINE
  6
Continuous
 62
     7
100
AcDbLine
 10
898.4190569081478
 20
1063.045760243745
 30
0.0
 11
898.4968775988965
 21
1062.930279311035
 31
0.0
  0
LINE
  5
173
330
22
100
AcDbEntity
  8
_2-2_IN_LINE
  6
Continuous
 62
     7
100
AcDbLine
 10
898.4968775988965
 20
1062.930279311035
 30
0.0
 11
898.5695851650383
 21
1062.811867546343
 31
0.0
  0
LINE
  5
174
330
22
100
AcDbEntity
  8
_2-2_IN_LINE
  6
Continuous
 62
     7
100
AcDbLine
 10
898.5695851650383
 20
1062.811867546343
 30
0.0
 11
898.6366056633675
 21
1062.690573792638
 31
0.0
  0
LINE
  5
175
330
22
100
AcDbEntity
  8
_2-2_IN_LINE
  6
Continuous
 62
     7
100
AcDbLine
 10
898.6366056633675
 20
1062.690573792638
 30
0.0
 11
898.672645574453
 21
1062.618922134798
 31
0.0
  0
LINE
  5
176
330
22
100
AcDbEntity
  8
_2-2_IN_LINE
  6
Continuous
 62
     7
100
AcDbLine
 10
898.672645574453
 20
1062.618922134798
 30
0.0
 11
898.7192974278116
 21
1062.517446243744
 31
0.0
  0
LINE
  5
177
330
22
100
AcDbEntity
  8
_2-2_IN_LINE
  6
Continuous
 62
     7
100
AcDbLine
 10
898.7192974278116
 20
1062.517446243744
 30
0.0
 11
898.7907841861636
 21
1062.338681864692
 31
0.0
  0
LINE
  5
178
330
22
100
AcDbEntity
  8
_2-2_IN_LINE
  6
Continuous
 62
     7
100
AcDbLine
 10
898.7907841861636
 20
1062.338681864692
 30
0.0
 11
898.8527355247867
 21
1062.155861446545
 31
0.0
  0
LINE
  5
179
330
22
100
AcDbEntity
  8
_2-2_IN_LINE
  6
Continuous
 62
     7
100
AcDbLine
 10
898.8527355247867
 20
1062.155861446545
 30
0.0
 11
898.907233413055
 21
1061.969870587354
 31
0.0
  0
LINE
  5
17A
330
22
100
AcDbEntity
  8
_2-2_IN_LINE
  6
Continuous
 62
     7
100
AcDbLine
 10
898.907233413055
 20
1061.969870587354
 30
0.0
 11
898.9563598203416
 21
1061.781594885178
 31
0.0
  0
LINE
  5
17B
330
22
100
AcDbEntity
  8
_2-2_IN_LINE
  6
Continuous
 62
     7
100
AcDbLine
 10
898.9563598203416
 20
1061.781594885178
 30
0.0
 11
899.0021967160204
 21
1061.591919938078
 31
0.0
  0
LINE
  5
17C
330
22
100
AcDbEntity
  8
_2-2_IN_LINE
  6
Continuous
 62
     7
100
AcDbLine
 10
899.0021967160204
 20
1061.591919938078
 30
0.0
 11
899.0280952654906
 21
1061.481616306419
 31
0.0
  0
LINE
  5
17D
330
22
100
AcDbEntity
  8
_2-2_IN_LINE
  6
Continuous
 62
     7
100
AcDbLine
 10
830.2802194028744
 20
1061.481616306419
 30
0.0
 11
888.2802194028739
 21
1061.481616306419
 31
0.0
  0
LINE
  5
17E
330
22
100
AcDbEntity
  8
_2-2_IN_LINE
  6
Continuous
 62
     7
100
AcDbLine
 10
830.2802194028744
 20
1056.481616306419
 30
0.0
 11
1130.280219402874
 21
1056.481616306419
 31
0.0
  0
ARC
  5
17F
330
22
100
AcDbEntity
  8
_2-2_IN_LINE
  6
Continuous
 62
     7
100
AcDbCircle
 10
1122.280219402875
 20
1069.481616306416
 30
0.0
 40
8.0
100
AcDbArc
 50
270.0
 51
0.0
  0
LINE
  5
180
330
22
100
AcDbEntity
  8
_2-2_IN_LINE
  6
Continuous
 62
     7
100
AcDbLine
 10
1078.277351469806
 20
1066.481616306419
 30
0.0
 11
1078.259132682284
 21
1066.612521253098
 31
0.0
  0
LINE
  5
181
330
22
100
AcDbEntity
  8
_2-2_IN_LINE
  6
Continuous
 62
     7
100
AcDbLine
 10
1078.259132682284
 20
1066.612521253098
 30
0.0
 11
1078.226065902623
 21
1066.837595188115
 31
0.0
  0
LINE
  5
182
330
22
100
AcDbEntity
  8
_2-2_IN_LINE
  6
Continuous
 62
     7
100
AcDbLine
 10
1078.226065902623
 20
1066.837595188115
 30
0.0
 11
1078.188401686756
 21
1067.060935098375
 31
0.0
  0
LINE
  5
183
330
22
100
AcDbEntity
  8
_2-2_IN_LINE
  6
Continuous
 62
     7
100
AcDbLine
 10
1078.188401686756
 20
1067.060935098375
 30
0.0
 11
1078.143230264933
 21
1067.281443499846
 31
0.0
  0
LINE
  5
184
330
22
100
AcDbEntity
  8
_2-2_IN_LINE
  6
Continuous
 62
     7
100
AcDbLine
 10
1078.143230264933
 20
1067.281443499846
 30
0.0
 11
1078.087641867402
 21
1067.498022908503
 31
0.0
  0
LINE
  5
185
330
22
100
AcDbEntity
  8
_2-2_IN_LINE
  6
Continuous
 62
     7
100
AcDbLine
 10
1078.087641867402
 20
1067.498022908503
 30
0.0
 11
1078.018726724414
 21
1067.709575840322
 31
0.0
  0
LINE
  5
186
330
22
100
AcDbEntity
  8
_2-2_IN_LINE
  6
Continuous
 62
     7
100
AcDbLine
 10
1078.018726724414
 20
1067.709575840322
 30
0.0
 11
1077.97150302612
 21
1067.829540943312
 31
0.0
  0
LINE
  5
187
330
22
100
AcDbEntity
  8
_2-2_IN_LINE
  6
Continuous
 62
     7
100
AcDbLine
 10
1077.97150302612
 20
1067.829540943312
 30
0.0
 11
1077.930561964858
 21
1067.921657782908
 31
0.0
  0
LINE
  5
188
330
22
100
AcDbEntity
  8
_2-2_IN_LINE
  6
Continuous
 62
     7
100
AcDbLine
 10
1077.930561964858
 20
1067.921657782908
 30
0.0
 11
1077.852146792176
 21
1068.077372085915
 31
0.0
  0
LINE
  5
189
330
22
100
AcDbEntity
  8
_2-2_IN_LINE
  6
Continuous
 62
     7
100
AcDbLine
 10
1077.852146792176
 20
1068.077372085915
 30
0.0
 11
1077.765039777849
 21
1068.229375688797
 31
0.0
  0
LINE
  5
18A
330
22
100
AcDbEntity
  8
_2-2_IN_LINE
  6
Continuous
 62
     7
100
AcDbLine
 10
1077.765039777849
 20
1068.229375688797
 30
0.0
 11
1077.6706547887
 21
1068.3779282046
 31
0.0
  0
LINE
  5
18B
330
22
100
AcDbEntity
  8
_2-2_IN_LINE
  6
Continuous
 62
     7
100
AcDbLine
 10
1077.6706547887
 20
1068.3779282046
 30
0.0
 11
1077.570405691557
 21
1068.523289246373
 31
0.0
  0
LINE
  5
18C
330
22
100
AcDbEntity
  8
_2-2_IN_LINE
  6
Continuous
 62
     7
100
AcDbLine
 10
1077.570405691557
 20
1068.523289246373
 30
0.0
 11
1077.46570635324
 21
1068.665718427169
 31
0.0
  0
LINE
  5
18D
330
22
100
AcDbEntity
  8
_2-2_IN_LINE
  6
Continuous
 62
     7
100
AcDbLine
 10
1077.46570635324
 20
1068.665718427169
 30
0.0
 11
1077.403498773562
 21
1068.74708627437
 31
0.0
  0
LINE
  5
18E
330
22
100
AcDbEntity
  8
_2-2_IN_LINE
  6
Continuous
 62
     7
100
AcDbLine
 10
1077.403498773562
 20
1068.74708627437
 30
0.0
 11
1077.329282499624
 21
1068.841769867174
 31
0.0
  0
LINE
  5
18F
330
22
100
AcDbEntity
  8
_2-2_IN_LINE
  6
Continuous
 62
     7
100
AcDbLine
 10
1077.329282499624
 20
1068.841769867174
 30
0.0
 11
1077.19905755952
 21
1069.002488661035
 31
0.0
  0
LINE
  5
190
330
22
100
AcDbEntity
  8
_2-2_IN_LINE
  6
Continuous
 62
     7
100
AcDbLine
 10
1077.19905755952
 20
1069.002488661035
 30
0.0
 11
1077.066205740301
 21
1069.160355423426
 31
0.0
  0
LINE
  5
191
330
22
100
AcDbEntity
  8
_2-2_IN_LINE
  6
Continuous
 62
     7
100
AcDbLine
 10
1077.066205740301
 20
1069.160355423426
 30
0.0
 11
1076.931007602171
 21
1069.315775916891
 31
0.0
  0
LINE
  5
192
330
22
100
AcDbEntity
  8
_2-2_IN_LINE
  6
Continuous
 62
     7
100
AcDbLine
 10
1076.931007602171
 20
1069.315775916891
 30
0.0
 11
1076.793743705349
 21
1069.46915590398
 31
0.0
  0
LINE
  5
193
330
22
100
AcDbEntity
  8
_2-2_IN_LINE
  6
Continuous
 62
     7
100
AcDbLine
 10
1076.793743705349
 20
1069.46915590398
 30
0.0
 11
1076.654694610041
 21
1069.620901147237
 31
0.0
  0
LINE
  5
194
330
22
100
AcDbEntity
  8
_2-2_IN_LINE
  6
Continuous
 62
     7
100
AcDbLine
 10
1076.654694610041
 20
1069.620901147237
 30
0.0
 11
1076.57333871213
 21
1069.708324240241
 31
0.0
  0
LINE
  5
195
330
22
100
AcDbEntity
  8
_2-2_IN_LINE
  6
Continuous
 62
     7
100
AcDbLine
 10
1076.57333871213
 20
1069.708324240241
 30
0.0
 11
1076.487703638715
 21
1069.799394414638
 31
0.0
  0
LINE
  5
196
330
22
100
AcDbEntity
  8
_2-2_IN_LINE
  6
Continuous
 62
     7
100
AcDbLine
 10
1076.487703638715
 20
1069.799394414638
 30
0.0
 11
1076.338506280407
 21
1069.955096163476
 31
0.0
  0
LINE
  5
197
330
22
100
AcDbEntity
  8
_2-2_IN_LINE
  6
Continuous
 62
     7
100
AcDbLine
 10
1076.338506280407
 20
1069.955096163476
 30
0.0
 11
1076.186756066837
 21
1070.108442141873
 31
0.0
  0
LINE
  5
198
330
22
100
AcDbEntity
  8
_2-2_IN_LINE
  6
Continuous
 62
     7
100
AcDbLine
 10
1076.186756066837
 20
1070.108442141873
 30
0.0
 11
1076.031766987334
 21
1070.258629780792
 31
0.0
  0
LINE
  5
199
330
22
100
AcDbEntity
  8
_2-2_IN_LINE
  6
Continuous
 62
     7
100
AcDbLine
 10
1076.031766987334
 20
1070.258629780792
 30
0.0
 11
1075.872853031225
 21
1070.40485651119
 31
0.0
  0
LINE
  5
19A
330
22
100
AcDbEntity
  8
_2-2_IN_LINE
  6
Continuous
 62
     7
100
AcDbLine
 10
1075.872853031225
 20
1070.40485651119
 30
0.0
 11
1075.709328187846
 21
1070.546319764017
 31
0.0
  0
LINE
  5
19B
330
22
100
AcDbEntity
  8
_2-2_IN_LINE
  6
Continuous
 62
     7
100
AcDbLine
 10
1075.709328187846
 20
1070.546319764017
 30
0.0
 11
1075.612100746258
 21
1070.625869571299
 31
0.0
  0
LINE
  5
19C
330
22
100
AcDbEntity
  8
_2-2_IN_LINE
  6
Continuous
 62
     7
100
AcDbLine
 10
1075.612100746258
 20
1070.625869571299
 30
0.0
 11
1075.524447046716
 21
1070.694594923798
 31
0.0
  0
LINE
  5
19D
330
22
100
AcDbEntity
  8
_2-2_IN_LINE
  6
Continuous
 62
     7
100
AcDbLine
 10
1075.524447046716
 20
1070.694594923798
 30
0.0
 11
1075.369833946796
 21
1070.808807691596
 31
0.0
  0
LINE
  5
19E
330
22
100
AcDbEntity
  8
_2-2_IN_LINE
  6
Continuous
 62
     7
100
AcDbLine
 10
1075.369833946796
 20
1070.808807691596
 30
0.0
 11
1075.210868803607
 21
1070.916780380531
 31
0.0
  0
LINE
  5
19F
330
22
100
AcDbEntity
  8
_2-2_IN_LINE
  6
Continuous
 62
     7
100
AcDbLine
 10
1075.210868803607
 20
1070.916780380531
 30
0.0
 11
1075.047622146377
 21
1071.017555611952
 31
0.0
  0
LINE
  5
1A0
330
22
100
AcDbEntity
  8
_2-2_IN_LINE
  6
Continuous
 62
     7
100
AcDbLine
 10
1075.047622146377
 20
1071.017555611952
 30
0.0
 11
1074.880164504349
 21
1071.110176007239
 31
0.0
  0
LINE
  5
1A1
330
22
100
AcDbEntity
  8
_2-2_IN_LINE
  6
Continuous
 62
     7
100
AcDbLine
 10
1074.880164504349
 20
1071.110176007239
 30
0.0
 11
1074.708566406744
 21
1071.193684187751
 31
0.0
  0
LINE
  5
1A2
330
22
100
AcDbEntity
  8
_2-2_IN_LINE
  6
Continuous
 62
     7
100
AcDbLine
 10
1074.708566406744
 20
1071.193684187751
 30
0.0
 11
1074.607170145574
 21
1071.237566458671
 31
0.0
  0
LINE
  5
1A3
330
22
100
AcDbEntity
  8
_2-2_IN_LINE
  6
Continuous
 62
     7
100
AcDbLine
 10
1074.607170145574
 20
1071.237566458671
 30
0.0
 11
1074.493264652837
 21
1071.282095171935
 31
0.0
  0
LINE
  5
1A4
330
22
100
AcDbEntity
  8
_2-2_IN_LINE
  6
Continuous
 62
     7
100
AcDbLine
 10
1074.493264652837
 20
1071.282095171935
 30
0.0
 11
1074.293376194981
 21
1071.349405800347
 31
0.0
  0
LINE
  5
1A5
330
22
100
AcDbEntity
  8
_2-2_IN_LINE
  6
Continuous
 62
     7
100
AcDbLine
 10
1074.293376194981
 20
1071.349405800347
 30
0.0
 11
1074.089674096123
 21
1071.406009351847
 31
0.0
  0
LINE
  5
1A6
330
22
100
AcDbEntity
  8
_2-2_IN_LINE
  6
Continuous
 62
     7
100
AcDbLine
 10
1074.089674096123
 20
1071.406009351847
 30
0.0
 11
1073.882875019316
 21
1071.453384225579
 31
0.0
  0
LINE
  5
1A7
330
22
100
AcDbEntity
  8
_2-2_IN_LINE
  6
Continuous
 62
     7
100
AcDbLine
 10
1073.882875019316
 20
1071.453384225579
 30
0.0
 11
1073.673695627605
 21
1071.493008820687
 31
0.0
  0
LINE
  5
1A8
330
22
100
AcDbEntity
  8
_2-2_IN_LINE
  6
Continuous
 62
     7
100
AcDbLine
 10
1073.673695627605
 20
1071.493008820687
 30
0.0
 11
1073.462852584051
 21
1071.526361536323
 31
0.0
  0
LINE
  5
1A9
330
22
100
AcDbEntity
  8
_2-2_IN_LINE
  6
Continuous
 62
     7
100
AcDbLine
 10
1073.462852584051
 20
1071.526361536323
 30
0.0
 11
1073.340083736022
 21
1071.543414902358
 31
0.0
  0
LINE
  5
1AA
330
22
100
AcDbEntity
  8
_2-2_IN_LINE
  6
Continuous
 62
     7
100
AcDbLine
 10
1073.340083736022
 20
1071.543414902358
 30
0.0
 11
1073.191626765937
 21
1071.562131901623
 31
0.0
  0
LINE
  5
1AB
330
22
100
AcDbEntity
  8
_2-2_IN_LINE
  6
Continuous
 62
     7
100
AcDbLine
 10
1073.191626765937
 20
1071.562131901623
 30
0.0
 11
1072.93530650065
 21
1071.589038662712
 31
0.0
  0
LINE
  5
1AC
330
22
100
AcDbEntity
  8
_2-2_IN_LINE
  6
Continuous
 62
     7
100
AcDbLine
 10
1072.93530650065
 20
1071.589038662712
 30
0.0
 11
1072.678911172071
 21
1071.607896910014
 31
0.0
  0
LINE
  5
1AD
330
22
100
AcDbEntity
  8
_2-2_IN_LINE
  6
Continuous
 62
     7
100
AcDbLine
 10
1072.678911172071
 20
1071.607896910014
 30
0.0
 11
1072.42288333544
 21
1071.617243001199
 31
0.0
  0
LINE
  5
1AE
330
22
100
AcDbEntity
  8
_2-2_IN_LINE
  6
Continuous
 62
     7
100
AcDbLine
 10
1072.42288333544
 20
1071.617243001199
 30
0.0
 11
1072.167665546004
 21
1071.615613293952
 31
0.0
  0
LINE
  5
1AF
330
22
100
AcDbEntity
  8
_2-2_IN_LINE
  6
Continuous
 62
     7
100
AcDbLine
 10
1072.167665546004
 20
1071.615613293952
 30
0.0
 11
1071.913700359015
 21
1071.601544145951
 31
0.0
  0
LINE
  5
1B0
330
22
100
AcDbEntity
  8
_2-2_IN_LINE
  6
Continuous
 62
     7
100
AcDbLine
 10
1071.913700359015
 20
1071.601544145951
 30
0.0
 11
1071.767148882779
 21
1071.587107537171
 31
0.0
  0
LINE
  5
1B1
330
22
100
AcDbEntity
  8
_2-2_IN_LINE
  6
Continuous
 62
     7
100
AcDbLine
 10
1071.767148882779
 20
1071.587107537171
 30
0.0
 11
1071.659804691213
 21
1071.573417751088
 31
0.0
  0
LINE
  5
1B2
330
22
100
AcDbEntity
  8
_2-2_IN_LINE
  6
Continuous
 62
     7
100
AcDbLine
 10
1071.659804691213
 20
1071.573417751088
 30
0.0
 11
1071.475354630444
 21
1071.544458119841
 31
0.0
  0
LINE
  5
1B3
330
22
100
AcDbEntity
  8
_2-2_IN_LINE
  6
Continuous
 62
     7
100
AcDbLine
 10
1071.475354630444
 20
1071.544458119841
 30
0.0
 11
1071.291383773001
 21
1071.510142638306
 31
0.0
  0
LINE
  5
1B4
330
22
100
AcDbEntity
  8
_2-2_IN_LINE
  6
Continuous
 62
     7
100
AcDbLine
 10
1071.291383773001
 20
1071.510142638306
 30
0.0
 11
1071.107527737141
 21
1071.472127812276
 31
0.0
  0
LINE
  5
1B5
330
22
100
AcDbEntity
  8
_2-2_IN_LINE
  6
Continuous
 62
     7
100
AcDbLine
 10
1071.107527737141
 20
1071.472127812276
 30
0.0
 11
1070.923422141124
 21
1071.432070147571
 31
0.0
  0
LINE
  5
1B6
330
22
100
AcDbEntity
  8
_2-2_IN_LINE
  6
Continuous
 62
     7
100
AcDbLine
 10
1070.923422141124
 20
1071.432070147571
 30
0.0
 11
1070.738702603195
 21
1071.391626149996
 31
0.0
  0
LINE
  5
1B7
330
22
100
AcDbEntity
  8
_2-2_IN_LINE
  6
Continuous
 62
     7
100
AcDbLine
 10
1070.738702603195
 20
1071.391626149996
 30
0.0
 11
1070.63114037766
 21
1071.368644363111
 31
0.0
  0
LINE
  5
1B8
330
22
100
AcDbEntity
  8
_2-2_IN_LINE
  6
Continuous
 62
     7
100
AcDbLine
 10
1070.63114037766
 20
1071.368644363111
 30
0.0
 11
1070.509029146332
 21
1071.343370641612
 31
0.0
  0
LINE
  5
1B9
330
22
100
AcDbEntity
  8
_2-2_IN_LINE
  6
Continuous
 62
     7
100
AcDbLine
 10
1070.509029146332
 20
1071.343370641612
 30
0.0
 11
1070.298231122769
 21
1071.300021125376
 31
0.0
  0
LINE
  5
1BA
330
22
100
AcDbEntity
  8
_2-2_IN_LINE
  6
Continuous
 62
     7
100
AcDbLine
 10
1070.298231122769
 20
1071.300021125376
 30
0.0
 11
1070.088525898928
 21
1071.253887967227
 31
0.0
  0
LINE
  5
1BB
330
22
100
AcDbEntity
  8
_2-2_IN_LINE
  6
Continuous
 62
     7
100
AcDbLine
 10
1070.088525898928
 20
1071.253887967227
 30
0.0
 11
1069.88156894966
 21
1071.201401925523
 31
0.0
  0
LINE
  5
1BC
330
22
100
AcDbEntity
  8
_2-2_IN_LINE
  6
Continuous
 62
     7
100
AcDbLine
 10
1069.88156894966
 20
1071.201401925523
 30
0.0
 11
1069.679015749808
 21
1071.138993758623
 31
0.0
  0
LINE
  5
1BD
330
22
100
AcDbEntity
  8
_2-2_IN_LINE
  6
Continuous
 62
     7
100
AcDbLine
 10
1069.679015749808
 20
1071.138993758623
 30
0.0
 11
1069.482521774208
 21
1071.063094224892
 31
0.0
  0
LINE
  5
1BE
330
22
100
AcDbEntity
  8
_2-2_IN_LINE
  6
Continuous
 62
     7
100
AcDbLine
 10
1069.482521774208
 20
1071.063094224892
 30
0.0
 11
1069.371983948086
 21
1071.011484284236
 31
0.0
  0
LINE
  5
1BF
330
22
100
AcDbEntity
  8
_2-2_IN_LINE
  6
Continuous
 62
     7
100
AcDbLine
 10
1069.371983948086
 20
1071.011484284236
 30
0.0
 11
1069.272661716906
 21
1070.958398812309
 31
0.0
  0
LINE
  5
1C0
330
22
100
AcDbEntity
  8
_2-2_IN_LINE
  6
Continuous
 62
     7
100
AcDbLine
 10
1069.272661716906
 20
1070.958398812309
 30
0.0
 11
1069.107237801719
 21
1070.855112531212
 31
0.0
  0
LINE
  5
1C1
330
22
100
AcDbEntity
  8
_2-2_IN_LINE
  6
Continuous
 62
     7
100
AcDbLine
 10
1069.107237801719
 20
1070.855112531212
 30
0.0
 11
1068.949186230358
 21
1070.738562899478
 31
0.0
  0
LINE
  5
1C2
330
22
100
AcDbEntity
  8
_2-2_IN_LINE
  6
Continuous
 62
     7
100
AcDbLine
 10
1068.949186230358
 20
1070.738562899478
 30
0.0
 11
1068.798511183942
 21
1070.610636226165
 31
0.0
  0
LINE
  5
1C3
330
22
100
AcDbEntity
  8
_2-2_IN_LINE
  6
Continuous
 62
     7
100
AcDbLine
 10
1068.798511183942
 20
1070.610636226165
 30
0.0
 11
1068.655216843573
 21
1070.473218820316
 31
0.0
  0
LINE
  5
1C4
330
22
100
AcDbEntity
  8
_2-2_IN_LINE
  6
Continuous
 62
     7
100
AcDbLine
 10
1068.655216843573
 20
1070.473218820316
 30
0.0
 11
1068.519307390371
 21
1070.328196990986
 31
0.0
  0
LINE
  5
1C5
330
22
100
AcDbEntity
  8
_2-2_IN_LINE
  6
Continuous
 62
     7
100
AcDbLine
 10
1068.519307390371
 20
1070.328196990986
 30
0.0
 11
1068.443865310384
 21
1070.241343286989
 31
0.0
  0
LINE
  5
1C6
330
22
100
AcDbEntity
  8
_2-2_IN_LINE
  6
Continuous
 62
     7
100
AcDbLine
 10
1068.443865310384
 20
1070.241343286989
 30
0.0
 11
1068.359570286012
 21
1070.138775898999
 31
0.0
  0
LINE
  5
1C7
330
22
100
AcDbEntity
  8
_2-2_IN_LINE
  6
Continuous
 62
     7
100
AcDbLine
 10
1068.359570286012
 20
1070.138775898999
 30
0.0
 11
1068.221398426746
 21
1069.957490889262
 31
0.0
  0
LINE
  5
1C8
330
22
100
AcDbEntity
  8
_2-2_IN_LINE
  6
Continuous
 62
     7
100
AcDbLine
 10
1068.221398426746
 20
1069.957490889262
 30
0.0
 11
1068.091288159727
 21
1069.771266214643
 31
0.0
  0
LINE
  5
1C9
330
22
100
AcDbEntity
  8
_2-2_IN_LINE
  6
Continuous
 62
     7
100
AcDbLine
 10
1068.091288159727
 20
1069.771266214643
 30
0.0
 11
1067.968068257741
 21
1069.580900153555
 31
0.0
  0
LINE
  5
1CA
330
22
100
AcDbEntity
  8
_2-2_IN_LINE
  6
Continuous
 62
     7
100
AcDbLine
 10
1067.968068257741
 20
1069.580900153555
 30
0.0
 11
1067.85056749357
 21
1069.387190984412
 31
0.0
  0
LINE
  5
1CB
330
22
100
AcDbEntity
  8
_2-2_IN_LINE
  6
Continuous
 62
     7
100
AcDbLine
 10
1067.85056749357
 20
1069.387190984412
 30
0.0
 11
1067.737614640002
 21
1069.190936985629
 31
0.0
  0
LINE
  5
1CC
330
22
100
AcDbEntity
  8
_2-2_IN_LINE
  6
Continuous
 62
     7
100
AcDbLine
 10
1067.737614640002
 20
1069.190936985629
 30
0.0
 11
1067.673724313144
 21
1069.076258188597
 31
0.0
  0
LINE
  5
1CD
330
22
100
AcDbEntity
  8
_2-2_IN_LINE
  6
Continuous
 62
     7
100
AcDbLine
 10
1067.673724313144
 20
1069.076258188597
 30
0.0
 11
1067.606456945638
 21
1068.953191596463
 31
0.0
  0
LINE
  5
1CE
330
22
100
AcDbEntity
  8
_2-2_IN_LINE
  6
Continuous
 62
     7
100
AcDbLine
 10
1067.606456945638
 20
1068.953191596463
 30
0.0
 11
1067.492475704429
 21
1068.739984840095
 31
0.0
  0
LINE
  5
1CF
330
22
100
AcDbEntity
  8
_2-2_IN_LINE
  6
Continuous
 62
     7
100
AcDbLine
 10
1067.492475704429
 20
1068.739984840095
 30
0.0
 11
1067.380361156064
 21
1068.525687840556
 31
0.0
  0
LINE
  5
1D0
330
22
100
AcDbEntity
  8
_2-2_IN_LINE
  6
Continuous
 62
     7
100
AcDbLine
 10
1067.380361156064
 20
1068.525687840556
 30
0.0
 11
1067.269344546818
 21
1068.31053857948
 31
0.0
  0
LINE
  5
1D1
330
22
100
AcDbEntity
  8
_2-2_IN_LINE
  6
Continuous
 62
     7
100
AcDbLine
 10
1067.269344546818
 20
1068.31053857948
 30
0.0
 11
1067.158657122956
 21
1068.094775038503
 31
0.0
  0
LINE
  5
1D2
330
22
100
AcDbEntity
  8
_2-2_IN_LINE
  6
Continuous
 62
     7
100
AcDbLine
 10
1067.158657122956
 20
1068.094775038503
 30
0.0
 11
1067.047530130759
 21
1067.878635199247
 31
0.0
  0
LINE
  5
1D3
330
22
100
AcDbEntity
  8
_2-2_IN_LINE
  6
Continuous
 62
     7
100
AcDbLine
 10
1067.047530130759
 20
1067.878635199247
 30
0.0
 11
1066.982572136129
 21
1067.753195449745
 31
0.0
  0
LINE
  5
1D4
330
22
100
AcDbEntity
  8
_2-2_IN_LINE
  6
Continuous
 62
     7
100
AcDbLine
 10
1066.982572136129
 20
1067.753195449745
 30
0.0
 11
1066.894158681954
 21
1067.58436726674
 31
0.0
  0
LINE
  5
1D5
330
22
100
AcDbEntity
  8
_2-2_IN_LINE
  6
Continuous
 62
     7
100
AcDbLine
 10
1066.894158681954
 20
1067.58436726674
 30
0.0
 11
1066.737653866022
 21
1067.294971500851
 31
0.0
  0
LINE
  5
1D6
330
22
100
AcDbEntity
  8
_2-2_IN_LINE
  6
Continuous
 62
     7
100
AcDbLine
 10
1066.737653866022
 20
1067.294971500851
 30
0.0
 11
1066.573432272797
 21
1067.010263324601
 31
0.0
  0
LINE
  5
1D7
330
22
100
AcDbEntity
  8
_2-2_IN_LINE
  6
Continuous
 62
     7
100
AcDbLine
 10
1066.573432272797
 20
1067.010263324601
 30
0.0
 11
1066.398508285412
 21
1066.733209896583
 31
0.0
  0
LINE
  5
1D8
330
22
100
AcDbEntity
  8
_2-2_IN_LINE
  6
Continuous
 62
     7
100
AcDbLine
 10
1066.398508285412
 20
1066.733209896583
 30
0.0
 11
1066.209896287011
 21
1066.466778375396
 31
0.0
  0
LINE
  5
1D9
330
22
100
AcDbEntity
  8
_2-2_IN_LINE
  6
Continuous
 62
     7
100
AcDbLine
 10
1066.209896287011
 20
1066.466778375396
 30
0.0
 11
1066.004610660735
 21
1066.213935919638
 31
0.0
  0
LINE
  5
1DA
330
22
100
AcDbEntity
  8
_2-2_IN_LINE
  6
Continuous
 62
     7
100
AcDbLine
 10
1066.004610660735
 20
1066.213935919638
 30
0.0
 11
1065.87672865291
 21
1066.07468301986
 31
0.0
  0
LINE
  5
1DB
330
22
100
AcDbEntity
  8
_2-2_IN_LINE
  6
Continuous
 62
     7
100
AcDbLine
 10
1065.87672865291
 20
1066.07468301986
 30
0.0
 11
1065.830513480606
 21
1066.027578013946
 31
0.0
  0
LINE
  5
1DC
330
22
100
AcDbEntity
  8
_2-2_IN_LINE
  6
Continuous
 62
     7
100
AcDbLine
 10
1065.830513480606
 20
1066.027578013946
 30
0.0
 11
1065.748814219065
 21
1065.948232918913
 31
0.0
  0
LINE
  5
1DD
330
22
100
AcDbEntity
  8
_2-2_IN_LINE
  6
Continuous
 62
     7
100
AcDbLine
 10
1065.748814219065
 20
1065.948232918913
 30
0.0
 11
1065.664611826734
 21
1065.87143280947
 31
0.0
  0
LINE
  5
1DE
330
22
100
AcDbEntity
  8
_2-2_IN_LINE
  6
Continuous
 62
     7
100
AcDbLine
 10
1065.664611826734
 20
1065.87143280947
 30
0.0
 11
1065.57796585124
 21
1065.797383906147
 31
0.0
  0
LINE
  5
1DF
330
22
100
AcDbEntity
  8
_2-2_IN_LINE
  6
Continuous
 62
     7
100
AcDbLine
 10
1065.57796585124
 20
1065.797383906147
 30
0.0
 11
1065.488935840204
 21
1065.726292429454
 31
0.0
  0
LINE
  5
1E0
330
22
100
AcDbEntity
  8
_2-2_IN_LINE
  6
Continuous
 62
     7
100
AcDbLine
 10
1065.488935840204
 20
1065.726292429454
 30
0.0
 11
1065.39758134125
 21
1065.658364599926
 31
0.0
  0
LINE
  5
1E1
330
22
100
AcDbEntity
  8
_2-2_IN_LINE
  6
Continuous
 62
     7
100
AcDbLine
 10
1065.39758134125
 20
1065.658364599926
 30
0.0
 11
1065.343554116358
 21
1065.620497303532
 31
0.0
  0
LINE
  5
1E2
330
22
100
AcDbEntity
  8
_2-2_IN_LINE
  6
Continuous
 62
     7
100
AcDbLine
 10
1065.343554116358
 20
1065.620497303532
 30
0.0
 11
1065.253952705269
 21
1065.561204613159
 31
0.0
  0
LINE
  5
1E3
330
22
100
AcDbEntity
  8
_2-2_IN_LINE
  6
Continuous
 62
     7
100
AcDbLine
 10
1065.253952705269
 20
1065.561204613159
 30
0.0
 11
1065.095761261099
 21
1065.464791348963
 31
0.0
  0
LINE
  5
1E4
330
22
100
AcDbEntity
  8
_2-2_IN_LINE
  6
Continuous
 62
     7
100
AcDbLine
 10
1065.095761261099
 20
1065.464791348963
 30
0.0
 11
1064.934349974065
 21
1065.373462939892
 31
0.0
  0
LINE
  5
1E5
330
22
100
AcDbEntity
  8
_2-2_IN_LINE
  6
Continuous
 62
     7
100
AcDbLine
 10
1064.934349974065
 20
1065.373462939892
 30
0.0
 11
1064.771430025772
 21
1065.28457223144
 31
0.0
  0
LINE
  5
1E6
330
22
100
AcDbEntity
  8
_2-2_IN_LINE
  6
Continuous
 62
     7
100
AcDbLine
 10
1064.771430025772
 20
1065.28457223144
 30
0.0
 11
1064.60871259782
 21
1065.195472069108
 31
0.0
  0
LINE
  5
1E7
330
22
100
AcDbEntity
  8
_2-2_IN_LINE
  6
Continuous
 62
     7
100
AcDbLine
 10
1064.60871259782
 20
1065.195472069108
 30
0.0
 11
1064.447908871808
 21
1065.103515298376
 31
0.0
  0
LINE
  5
1E8
330
22
100
AcDbEntity
  8
_2-2_IN_LINE
  6
Continuous
 62
     7
100
AcDbLine
 10
1064.447908871808
 20
1065.103515298376
 30
0.0
 11
1064.356193863483
 21
1065.047828356869
 31
0.0
  0
LINE
  5
1E9
330
22
100
AcDbEntity
  8
_2-2_IN_LINE
  6
Continuous
 62
     7
100
AcDbLine
 10
1064.356193863483
 20
1065.047828356869
 30
0.0
 11
1064.263782871084
 21
1064.988463586995
 31
0.0
  0
LINE
  5
1EA
330
22
100
AcDbEntity
  8
_2-2_IN_LINE
  6
Continuous
 62
     7
100
AcDbLine
 10
1064.263782871084
 20
1064.988463586995
 30
0.0
 11
1064.107839868928
 21
1064.880961825229
 31
0.0
  0
LINE
  5
1EB
330
22
100
AcDbEntity
  8
_2-2_IN_LINE
  6
Continuous
 62
     7
100
AcDbLine
 10
1064.107839868928
 20
1064.880961825229
 30
0.0
 11
1063.955517326705
 21
1064.767978635259
 31
0.0
  0
LINE
  5
1EC
330
22
100
AcDbEntity
  8
_2-2_IN_LINE
  6
Continuous
 62
     7
100
AcDbLine
 10
1063.955517326705
 20
1064.767978635259
 30
0.0
 11
1063.806040837973
 21
1064.650718582861
 31
0.0
  0
LINE
  5
1ED
330
22
100
AcDbEntity
  8
_2-2_IN_LINE
  6
Continuous
 62
     7
100
AcDbLine
 10
1063.806040837973
 20
1064.650718582861
 30
0.0
 11
1063.658635996279
 21
1064.530386233816
 31
0.0
  0
LINE
  5
1EE
330
22
100
AcDbEntity
  8
_2-2_IN_LINE
  6
Continuous
 62
     7
100
AcDbLine
 10
1063.658635996279
 20
1064.530386233816
 30
0.0
 11
1063.512528395182
 21
1064.408186153892
 31
0.0
  0
LINE
  5
1EF
330
22
100
AcDbEntity
  8
_2-2_IN_LINE
  6
Continuous
 62
     7
100
AcDbLine
 10
1063.512528395182
 20
1064.408186153892
 30
0.0
 11
1063.42807522578
 21
1064.336928974799
 31
0.0
  0
LINE
  5
1F0
330
22
100
AcDbEntity
  8
_2-2_IN_LINE
  6
Continuous
 62
     7
100
AcDbLine
 10
1063.42807522578
 20
1064.336928974799
 30
0.0
 11
1063.322233362161
 21
1064.247448390897
 31
0.0
  0
LINE
  5
1F1
330
22
100
AcDbEntity
  8
_2-2_IN_LINE
  6
Continuous
 62
     7
100
AcDbLine
 10
1063.322233362161
 20
1064.247448390897
 30
0.0
 11
1063.14066058385
 21
1064.092365337101
 31
0.0
  0
LINE
  5
1F2
330
22
100
AcDbEntity
  8
_2-2_IN_LINE
  6
Continuous
 62
     7
100
AcDbLine
 10
1063.14066058385
 20
1064.092365337101
 30
0.0
 11
1062.961485931227
 21
1063.934976168862
 31
0.0
  0
LINE
  5
1F3
330
22
100
AcDbEntity
  8
_2-2_IN_LINE
  6
Continuous
 62
     7
100
AcDbLine
 10
1062.961485931227
 20
1063.934976168862
 30
0.0
 11
1062.786153805002
 21
1063.773785970932
 31
0.0
  0
LINE
  5
1F4
330
22
100
AcDbEntity
  8
_2-2_IN_LINE
  6
Continuous
 62
     7
100
AcDbLine
 10
1062.786153805002
 20
1063.773785970932
 30
0.0
 11
1062.61610860589
 21
1063.607299828086
 31
0.0
  0
LINE
  5
1F5
330
22
100
AcDbEntity
  8
_2-2_IN_LINE
  6
Continuous
 62
     7
100
AcDbLine
 10
1062.61610860589
 20
1063.607299828086
 30
0.0
 11
1062.452794734614
 21
1063.434022825074
 31
0.0
  0
LINE
  5
1F6
330
22
100
AcDbEntity
  8
_2-2_IN_LINE
  6
Continuous
 62
     7
100
AcDbLine
 10
1062.452794734614
 20
1063.434022825074
 30
0.0
 11
1062.361726152675
 21
1063.329821516863
 31
0.0
  0
LINE
  5
1F7
330
22
100
AcDbEntity
  8
_2-2_IN_LINE
  6
Continuous
 62
     7
100
AcDbLine
 10
1062.361726152675
 20
1063.329821516863
 30
0.0
 11
1062.310066880038
 21
1063.267734241342
 31
0.0
  0
LINE
  5
1F8
330
22
100
AcDbEntity
  8
_2-2_IN_LINE
  6
Continuous
 62
     7
100
AcDbLine
 10
1062.310066880038
 20
1063.267734241342
 30
0.0
 11
1062.223741769732
 21
1063.158261501503
 31
0.0
  0
LINE
  5
1F9
330
22
100
AcDbEntity
  8
_2-2_IN_LINE
  6
Continuous
 62
     7
100
AcDbLine
 10
1062.223741769732
 20
1063.158261501503
 30
0.0
 11
1062.141381897601
 21
1063.045760243745
 31
0.0
  0
LINE
  5
1FA
330
22
100
AcDbEntity
  8
_2-2_IN_LINE
  6
Continuous
 62
     7
100
AcDbLine
 10
1062.141381897601
 20
1063.045760243745
 30
0.0
 11
1062.063561206852
 21
1062.930279311035
 31
0.0
  0
LINE
  5
1FB
330
22
100
AcDbEntity
  8
_2-2_IN_LINE
  6
Continuous
 62
     7
100
AcDbLine
 10
1062.063561206852
 20
1062.930279311035
 30
0.0
 11
1061.99085364071
 21
1062.811867546343
 31
0.0
  0
LINE
  5
1FC
330
22
100
AcDbEntity
  8
_2-2_IN_LINE
  6
Continuous
 62
     7
100
AcDbLine
 10
1061.99085364071
 20
1062.811867546343
 30
0.0
 11
1061.923833142381
 21
1062.690573792638
 31
0.0
  0
LINE
  5
1FD
330
22
100
AcDbEntity
  8
_2-2_IN_LINE
  6
Continuous
 62
     7
100
AcDbLine
 10
1061.923833142381
 20
1062.690573792638
 30
0.0
 11
1061.887793231295
 21
1062.618922134798
 31
0.0
  0
LINE
  5
1FE
330
22
100
AcDbEntity
  8
_2-2_IN_LINE
  6
Continuous
 62
     7
100
AcDbLine
 10
1061.887793231295
 20
1062.618922134798
 30
0.0
 11
1061.841141377937
 21
1062.517446243744
 31
0.0
  0
LINE
  5
1FF
330
22
100
AcDbEntity
  8
_2-2_IN_LINE
  6
Continuous
 62
     7
100
AcDbLine
 10
1061.841141377937
 20
1062.517446243744
 30
0.0
 11
1061.769654619585
 21
1062.338681864692
 31
0.0
  0
LINE
  5
200
330
22
100
AcDbEntity
  8
_2-2_IN_LINE
  6
Continuous
 62
     7
100
AcDbLine
 10
1061.769654619585
 20
1062.338681864692
 30
0.0
 11
1061.707703280962
 21
1062.155861446545
 31
0.0
  0
LINE
  5
201
330
22
100
AcDbEntity
  8
_2-2_IN_LINE
  6
Continuous
 62
     7
100
AcDbLine
 10
1061.707703280962
 20
1062.155861446545
 30
0.0
 11
1061.653205392694
 21
1061.969870587354
 31
0.0
  0
LINE
  5
202
330
22
100
AcDbEntity
  8
_2-2_IN_LINE
  6
Continuous
 62
     7
100
AcDbLine
 10
1061.653205392694
 20
1061.969870587354
 30
0.0
 11
1061.604078985407
 21
1061.781594885178
 31
0.0
  0
LINE
  5
203
330
22
100
AcDbEntity
  8
_2-2_IN_LINE
  6
Continuous
 62
     7
100
AcDbLine
 10
1061.604078985407
 20
1061.781594885178
 30
0.0
 11
1061.558242089728
 21
1061.591919938078
 31
0.0
  0
LINE
  5
204
330
22
100
AcDbEntity
  8
_2-2_IN_LINE
  6
Continuous
 62
     7
100
AcDbLine
 10
1061.558242089728
 20
1061.591919938078
 30
0.0
 11
1061.532343540258
 21
1061.481616306419
 31
0.0
  0
LINE
  5
205
330
22
100
AcDbEntity
  8
_2-2_IN_LINE
  6
Continuous
 62
     7
100
AcDbLine
 10
1130.280219402874
 20
1061.481616306419
 30
0.0
 11
1072.280219402875
 21
1061.481616306419
 31
0.0
  0
LINE
  5
206
330
22
100
AcDbEntity
  8
_2-2_IN_LINE
  6
Continuous
 62
     7
100
AcDbLine
 10
1130.280219402874
 20
1156.481616306419
 30
0.0
 11
1419.959846550042
 21
1156.481616306419
 31
0.0
  0
LINE
  5
207
330
22
100
AcDbEntity
  8
_2-2_IN_LINE
  6
Continuous
 62
     7
100
AcDbLine
 10
1130.280219402874
 20
1196.481616306419
 30
0.0
 11
1130.280219402874
 21
1056.481616306419
 31
0.0
  0
LINE
  5
208
330
22
100
AcDbEntity
  8
_2-2_IN_LINE
  6
Continuous
 62
     7
100
AcDbLine
 10
1130.280219402874
 20
1196.481616306419
 30
0.0
 11
1419.959846550042
 21
1196.481616306419
 31
0.0
  0
LINE
  5
209
330
22
100
AcDbEntity
  8
_2-2_IN_LINE
  6
Continuous
 62
     7
100
AcDbLine
 10
1129.141799445214
 20
1149.981616306418
 30
0.0
 11
1130.280219402874
 21
1146.566356433436
 31
0.0
  0
LINE
  5
20A
330
22
100
AcDbEntity
  8
_2-2_IN_LINE
  6
Continuous
 62
     7
100
AcDbLine
 10
1130.280219402874
 20
1186.481616306419
 30
0.0
 11
1151.141799445213
 21
1186.481616306419
 31
0.0
  0
LINE
  5
20B
330
22
100
AcDbEntity
  8
_2-2_IN_LINE
  6
Continuous
 62
     7
100
AcDbLine
 10
1155.141799445213
 20
1186.481616306419
 30
0.0
 11
1419.959846550042
 21
1186.481616306419
 31
0.0
  0
LINE
  5
20C
330
22
100
AcDbEntity
  8
_2-2_IN_LINE
  6
Continuous
 62
     7
100
AcDbLine
 10
1178.141799445214
 20
1198.981616306419
 30
0.0
 11
1185.641799445221
 21
1196.481616306419
 31
0.0
  0
LINE
  5
20D
330
22
100
AcDbEntity
  8
_2-2_IN_LINE
  6
Continuous
 62
     7
100
AcDbLine
 10
1118.141799445214
 20
1158.167360072509
 30
0.0
 11
1118.010894498534
 21
1158.149141284987
 31
0.0
  0
LINE
  5
20E
330
22
100
AcDbEntity
  8
_2-2_IN_LINE
  6
Continuous
 62
     7
100
AcDbLine
 10
1118.010894498534
 20
1158.149141284987
 30
0.0
 11
1117.785820563517
 21
1158.116074505326
 31
0.0
  0
LINE
  5
20F
330
22
100
AcDbEntity
  8
_2-2_IN_LINE
  6
Continuous
 62
     7
100
AcDbLine
 10
1117.785820563517
 20
1158.116074505326
 30
0.0
 11
1117.562480653258
 21
1158.078410289459
 31
0.0
  0
LINE
  5
210
330
22
100
AcDbEntity
  8
_2-2_IN_LINE
  6
Continuous
 62
     7
100
AcDbLine
 10
1117.562480653258
 20
1158.078410289459
 30
0.0
 11
1117.341972251787
 21
1158.033238867636
 31
0.0
  0
LINE
  5
211
330
22
100
AcDbEntity
  8
_2-2_IN_LINE
  6
Continuous
 62
     7
100
AcDbLine
 10
1117.341972251787
 20
1158.033238867636
 30
0.0
 11
1117.125392843129
 21
1157.977650470104
 31
0.0
  0
LINE
  5
212
330
22
100
AcDbEntity
  8
_2-2_IN_LINE
  6
Continuous
 62
     7
100
AcDbLine
 10
1117.125392843129
 20
1157.977650470104
 30
0.0
 11
1116.913839911312
 21
1157.908735327117
 31
0.0
  0
LINE
  5
213
330
22
100
AcDbEntity
  8
_2-2_IN_LINE
  6
Continuous
 62
     7
100
AcDbLine
 10
1116.913839911312
 20
1157.908735327117
 30
0.0
 11
1116.793874808319
 21
1157.861511628823
 31
0.0
  0
LINE
  5
214
330
22
100
AcDbEntity
  8
_2-2_IN_LINE
  6
Continuous
 62
     7
100
AcDbLine
 10
1116.793874808319
 20
1157.861511628823
 30
0.0
 11
1116.701757968724
 21
1157.82057056756
 31
0.0
  0
LINE
  5
215
330
22
100
AcDbEntity
  8
_2-2_IN_LINE
  6
Continuous
 62
     7
100
AcDbLine
 10
1116.701757968724
 20
1157.82057056756
 30
0.0
 11
1116.546043665717
 21
1157.742155394879
 31
0.0
  0
LINE
  5
216
330
22
100
AcDbEntity
  8
_2-2_IN_LINE
  6
Continuous
 62
     7
100
AcDbLine
 10
1116.546043665717
 20
1157.742155394879
 30
0.0
 11
1116.394040062834
 21
1157.655048380552
 31
0.0
  0
LINE
  5
217
330
22
100
AcDbEntity
  8
_2-2_IN_LINE
  6
Continuous
 62
     7
100
AcDbLine
 10
1116.394040062834
 20
1157.655048380552
 30
0.0
 11
1116.245487547033
 21
1157.560663391403
 31
0.0
  0
LINE
  5
218
330
22
100
AcDbEntity
  8
_2-2_IN_LINE
  6
Continuous
 62
     7
100
AcDbLine
 10
1116.245487547033
 20
1157.560663391403
 30
0.0
 11
1116.100126505259
 21
1157.46041429426
 31
0.0
  0
LINE
  5
219
330
22
100
AcDbEntity
  8
_2-2_IN_LINE
  6
Continuous
 62
     7
100
AcDbLine
 10
1116.100126505259
 20
1157.46041429426
 30
0.0
 11
1115.957697324462
 21
1157.355714955943
 31
0.0
  0
LINE
  5
21A
330
22
100
AcDbEntity
  8
_2-2_IN_LINE
  6
Continuous
 62
     7
100
AcDbLine
 10
1115.957697324462
 20
1157.355714955943
 30
0.0
 11
1115.876329477261
 21
1157.293507376264
 31
0.0
  0
LINE
  5
21B
330
22
100
AcDbEntity
  8
_2-2_IN_LINE
  6
Continuous
 62
     7
100
AcDbLine
 10
1115.876329477261
 20
1157.293507376264
 30
0.0
 11
1115.781645884458
 21
1157.219291102326
 31
0.0
  0
LINE
  5
21C
330
22
100
AcDbEntity
  8
_2-2_IN_LINE
  6
Continuous
 62
     7
100
AcDbLine
 10
1115.781645884458
 20
1157.219291102326
 30
0.0
 11
1115.620927090597
 21
1157.089066162223
 31
0.0
  0
LINE
  5
21D
330
22
100
AcDbEntity
  8
_2-2_IN_LINE
  6
Continuous
 62
     7
100
AcDbLine
 10
1115.620927090597
 20
1157.089066162223
 30
0.0
 11
1115.463060328207
 21
1156.956214343004
 31
0.0
  0
LINE
  5
21E
330
22
100
AcDbEntity
  8
_2-2_IN_LINE
  6
Continuous
 62
     7
100
AcDbLine
 10
1115.463060328207
 20
1156.956214343004
 30
0.0
 11
1115.307639834741
 21
1156.821016204874
 31
0.0
  0
LINE
  5
21F
330
22
100
AcDbEntity
  8
_2-2_IN_LINE
  6
Continuous
 62
     7
100
AcDbLine
 10
1115.307639834741
 20
1156.821016204874
 30
0.0
 11
1115.154259847652
 21
1156.683752308052
 31
0.0
  0
LINE
  5
220
330
22
100
AcDbEntity
  8
_2-2_IN_LINE
  6
Continuous
 62
     7
100
AcDbLine
 10
1115.154259847652
 20
1156.683752308052
 30
0.0
 11
1115.002514604396
 21
1156.544703212744
 31
0.0
  0
LINE
  5
221
330
22
100
AcDbEntity
  8
_2-2_IN_LINE
  6
Continuous
 62
     7
100
AcDbLine
 10
1115.002514604396
 20
1156.544703212744
 30
0.0
 11
1114.91509151139
 21
1156.463347314832
 31
0.0
  0
LINE
  5
222
330
22
100
AcDbEntity
  8
_2-2_IN_LINE
  6
Continuous
 62
     7
100
AcDbLine
 10
1114.91509151139
 20
1156.463347314832
 30
0.0
 11
1114.824021336994
 21
1156.377712241417
 31
0.0
  0
LINE
  5
223
330
22
100
AcDbEntity
  8
_2-2_IN_LINE
  6
Continuous
 62
     7
100
AcDbLine
 10
1114.824021336994
 20
1156.377712241417
 30
0.0
 11
1114.668319588156
 21
1156.22851488311
 31
0.0
  0
LINE
  5
224
330
22
100
AcDbEntity
  8
_2-2_IN_LINE
  6
Continuous
 62
     7
100
AcDbLine
 10
1114.668319588156
 20
1156.22851488311
 30
0.0
 11
1114.51497360976
 21
1156.07676466954
 31
0.0
  0
LINE
  5
225
330
22
100
AcDbEntity
  8
_2-2_IN_LINE
  6
Continuous
 62
     7
100
AcDbLine
 10
1114.51497360976
 20
1156.07676466954
 30
0.0
 11
1114.364785970839
 21
1155.921775590036
 31
0.0
  0
LINE
  5
226
330
22
100
AcDbEntity
  8
_2-2_IN_LINE
  6
Continuous
 62
     7
100
AcDbLine
 10
1114.364785970839
 20
1155.921775590036
 30
0.0
 11
1114.218559240443
 21
1155.762861633927
 31
0.0
  0
LINE
  5
227
330
22
100
AcDbEntity
  8
_2-2_IN_LINE
  6
Continuous
 62
     7
100
AcDbLine
 10
1114.218559240443
 20
1155.762861633927
 30
0.0
 11
1114.077095987615
 21
1155.599336790549
 31
0.0
  0
LINE
  5
228
330
22
100
AcDbEntity
  8
_2-2_IN_LINE
  6
Continuous
 62
     7
100
AcDbLine
 10
1114.077095987615
 20
1155.599336790549
 30
0.0
 11
1113.997546180334
 21
1155.502109348961
 31
0.0
  0
LINE
  5
229
330
22
100
AcDbEntity
  8
_2-2_IN_LINE
  6
Continuous
 62
     7
100
AcDbLine
 10
1113.997546180334
 20
1155.502109348961
 30
0.0
 11
1113.928820827834
 21
1155.414455649418
 31
0.0
  0
LINE
  5
22A
330
22
100
AcDbEntity
  8
_2-2_IN_LINE
  6
Continuous
 62
     7
100
AcDbLine
 10
1113.928820827834
 20
1155.414455649418
 30
0.0
 11
1113.814608060035
 21
1155.259842549499
 31
0.0
  0
LINE
  5
22B
330
22
100
AcDbEntity
  8
_2-2_IN_LINE
  6
Continuous
 62
     7
100
AcDbLine
 10
1113.814608060035
 20
1155.259842549499
 30
0.0
 11
1113.706635371102
 21
1155.10087740631
 31
0.0
  0
LINE
  5
22C
330
22
100
AcDbEntity
  8
_2-2_IN_LINE
  6
Continuous
 62
     7
100
AcDbLine
 10
1113.706635371102
 20
1155.10087740631
 30
0.0
 11
1113.605860139679
 21
1154.93763074908
 31
0.0
  0
LINE
  5
22D
330
22
100
AcDbEntity
  8
_2-2_IN_LINE
  6
Continuous
 62
     7
100
AcDbLine
 10
1113.605860139679
 20
1154.93763074908
 30
0.0
 11
1113.513239744393
 21
1154.770173107051
 31
0.0
  0
LINE
  5
22E
330
22
100
AcDbEntity
  8
_2-2_IN_LINE
  6
Continuous
 62
     7
100
AcDbLine
 10
1113.513239744393
 20
1154.770173107051
 30
0.0
 11
1113.42973156388
 21
1154.598575009447
 31
0.0
  0
LINE
  5
22F
330
22
100
AcDbEntity
  8
_2-2_IN_LINE
  6
Continuous
 62
     7
100
AcDbLine
 10
1113.42973156388
 20
1154.598575009447
 30
0.0
 11
1113.385849292962
 21
1154.497178748277
 31
0.0
  0
LINE
  5
230
330
22
100
AcDbEntity
  8
_2-2_IN_LINE
  6
Continuous
 62
     7
100
AcDbLine
 10
1113.385849292962
 20
1154.497178748277
 30
0.0
 11
1113.341320579698
 21
1154.383273255539
 31
0.0
  0
LINE
  5
231
330
22
100
AcDbEntity
  8
_2-2_IN_LINE
  6
Continuous
 62
     7
100
AcDbLine
 10
1113.341320579698
 20
1154.383273255539
 30
0.0
 11
1113.274009951284
 21
1154.183384797684
 31
0.0
  0
LINE
  5
232
330
22
100
AcDbEntity
  8
_2-2_IN_LINE
  6
Continuous
 62
     7
100
AcDbLine
 10
1113.274009951284
 20
1154.183384797684
 30
0.0
 11
1113.217406399785
 21
1153.979682698826
 31
0.0
  0
LINE
  5
233
330
22
100
AcDbEntity
  8
_2-2_IN_LINE
  6
Continuous
 62
     7
100
AcDbLine
 10
1113.217406399785
 20
1153.979682698826
 30
0.0
 11
1113.170031526054
 21
1153.772883622019
 31
0.0
  0
LINE
  5
234
330
22
100
AcDbEntity
  8
_2-2_IN_LINE
  6
Continuous
 62
     7
100
AcDbLine
 10
1113.170031526054
 20
1153.772883622019
 30
0.0
 11
1113.130406930945
 21
1153.563704230307
 31
0.0
  0
LINE
  5
235
330
22
100
AcDbEntity
  8
_2-2_IN_LINE
  6
Continuous
 62
     7
100
AcDbLine
 10
1113.130406930945
 20
1153.563704230307
 30
0.0
 11
1113.097054215309
 21
1153.352861186754
 31
0.0
  0
LINE
  5
236
330
22
100
AcDbEntity
  8
_2-2_IN_LINE
  6
Continuous
 62
     7
100
AcDbLine
 10
1113.097054215309
 20
1153.352861186754
 30
0.0
 11
1113.080000849273
 21
1153.230092338724
 31
0.0
  0
LINE
  5
237
330
22
100
AcDbEntity
  8
_2-2_IN_LINE
  6
Continuous
 62
     7
100
AcDbLine
 10
1113.080000849273
 20
1153.230092338724
 30
0.0
 11
1113.06128385001
 21
1153.081635368639
 31
0.0
  0
LINE
  5
238
330
22
100
AcDbEntity
  8
_2-2_IN_LINE
  6
Continuous
 62
     7
100
AcDbLine
 10
1113.06128385001
 20
1153.081635368639
 30
0.0
 11
1113.03437708892
 21
1152.825315103353
 31
0.0
  0
LINE
  5
239
330
22
100
AcDbEntity
  8
_2-2_IN_LINE
  6
Continuous
 62
     7
100
AcDbLine
 10
1113.03437708892
 20
1152.825315103353
 30
0.0
 11
1113.015518841618
 21
1152.568919774774
 31
0.0
  0
LINE
  5
23A
330
22
100
AcDbEntity
  8
_2-2_IN_LINE
  6
Continuous
 62
     7
100
AcDbLine
 10
1113.015518841618
 20
1152.568919774774
 30
0.0
 11
1113.006172750433
 21
1152.312891938143
 31
0.0
  0
LINE
  5
23B
330
22
100
AcDbEntity
  8
_2-2_IN_LINE
  6
Continuous
 62
     7
100
AcDbLine
 10
1113.006172750433
 20
1152.312891938143
 30
0.0
 11
1113.00780245768
 21
1152.057674148707
 31
0.0
  0
LINE
  5
23C
330
22
100
AcDbEntity
  8
_2-2_IN_LINE
  6
Continuous
 62
     7
100
AcDbLine
 10
1113.00780245768
 20
1152.057674148707
 30
0.0
 11
1113.021871605681
 21
1151.803708961718
 31
0.0
  0
LINE
  5
23D
330
22
100
AcDbEntity
  8
_2-2_IN_LINE
  6
Continuous
 62
     7
100
AcDbLine
 10
1113.021871605681
 20
1151.803708961718
 30
0.0
 11
1113.036308214462
 21
1151.657157485481
 31
0.0
  0
LINE
  5
23E
330
22
100
AcDbEntity
  8
_2-2_IN_LINE
  6
Continuous
 62
     7
100
AcDbLine
 10
1113.036308214462
 20
1151.657157485481
 30
0.0
 11
1113.049998000545
 21
1151.549813293916
 31
0.0
  0
LINE
  5
23F
330
22
100
AcDbEntity
  8
_2-2_IN_LINE
  6
Continuous
 62
     7
100
AcDbLine
 10
1113.049998000545
 20
1151.549813293916
 30
0.0
 11
1113.078957631792
 21
1151.365363233147
 31
0.0
  0
LINE
  5
240
330
22
100
AcDbEntity
  8
_2-2_IN_LINE
  6
Continuous
 62
     7
100
AcDbLine
 10
1113.078957631792
 20
1151.365363233147
 30
0.0
 11
1113.113273113326
 21
1151.181392375704
 31
0.0
  0
LINE
  5
241
330
22
100
AcDbEntity
  8
_2-2_IN_LINE
  6
Continuous
 62
     7
100
AcDbLine
 10
1113.113273113326
 20
1151.181392375704
 30
0.0
 11
1113.151287939355
 21
1150.997536339844
 31
0.0
  0
LINE
  5
242
330
22
100
AcDbEntity
  8
_2-2_IN_LINE
  6
Continuous
 62
     7
100
AcDbLine
 10
1113.151287939355
 20
1150.997536339844
 30
0.0
 11
1113.19134560406
 21
1150.813430743826
 31
0.0
  0
LINE
  5
243
330
22
100
AcDbEntity
  8
_2-2_IN_LINE
  6
Continuous
 62
     7
100
AcDbLine
 10
1113.19134560406
 20
1150.813430743826
 30
0.0
 11
1113.231789601637
 21
1150.628711205897
 31
0.0
  0
LINE
  5
244
330
22
100
AcDbEntity
  8
_2-2_IN_LINE
  6
Continuous
 62
     7
100
AcDbLine
 10
1113.231789601637
 20
1150.628711205897
 30
0.0
 11
1113.254771388522
 21
1150.521148980363
 31
0.0
  0
LINE
  5
245
330
22
100
AcDbEntity
  8
_2-2_IN_LINE
  6
Continuous
 62
     7
100
AcDbLine
 10
1113.254771388522
 20
1150.521148980363
 30
0.0
 11
1113.280045110019
 21
1150.399037749035
 31
0.0
  0
LINE
  5
246
330
22
100
AcDbEntity
  8
_2-2_IN_LINE
  6
Continuous
 62
     7
100
AcDbLine
 10
1113.280045110019
 20
1150.399037749035
 30
0.0
 11
1113.323394626256
 21
1150.188239725471
 31
0.0
  0
LINE
  5
247
330
22
100
AcDbEntity
  8
_2-2_IN_LINE
  6
Continuous
 62
     7
100
AcDbLine
 10
1113.323394626256
 20
1150.188239725471
 30
0.0
 11
1113.369527784406
 21
1149.978534501631
 31
0.0
  0
LINE
  5
248
330
22
100
AcDbEntity
  8
_2-2_IN_LINE
  6
Continuous
 62
     7
100
AcDbLine
 10
1113.369527784406
 20
1149.978534501631
 30
0.0
 11
1113.422013826108
 21
1149.771577552362
 31
0.0
  0
LINE
  5
249
330
22
100
AcDbEntity
  8
_2-2_IN_LINE
  6
Continuous
 62
     7
100
AcDbLine
 10
1113.422013826108
 20
1149.771577552362
 30
0.0
 11
1113.484421993009
 21
1149.569024352511
 31
0.0
  0
LINE
  5
24A
330
22
100
AcDbEntity
  8
_2-2_IN_LINE
  6
Continuous
 62
     7
100
AcDbLine
 10
1113.484421993009
 20
1149.569024352511
 30
0.0
 11
1113.560321526741
 21
1149.372530376911
 31
0.0
  0
LINE
  5
24B
330
22
100
AcDbEntity
  8
_2-2_IN_LINE
  6
Continuous
 62
     7
100
AcDbLine
 10
1113.560321526741
 20
1149.372530376911
 30
0.0
 11
1113.611931467397
 21
1149.261992550789
 31
0.0
  0
LINE
  5
24C
330
22
100
AcDbEntity
  8
_2-2_IN_LINE
  6
Continuous
 62
     7
100
AcDbLine
 10
1113.611931467397
 20
1149.261992550789
 30
0.0
 11
1113.665016939323
 21
1149.162670319608
 31
0.0
  0
LINE
  5
24D
330
22
100
AcDbEntity
  8
_2-2_IN_LINE
  6
Continuous
 62
     7
100
AcDbLine
 10
1113.665016939323
 20
1149.162670319608
 30
0.0
 11
1113.768303220419
 21
1148.997246404422
 31
0.0
  0
LINE
  5
24E
330
22
100
AcDbEntity
  8
_2-2_IN_LINE
  6
Continuous
 62
     7
100
AcDbLine
 10
1113.768303220419
 20
1148.997246404422
 30
0.0
 11
1113.884852852153
 21
1148.83919483306
 31
0.0
  0
LINE
  5
24F
330
22
100
AcDbEntity
  8
_2-2_IN_LINE
  6
Continuous
 62
     7
100
AcDbLine
 10
1113.884852852153
 20
1148.83919483306
 30
0.0
 11
1114.012779525467
 21
1148.688519786644
 31
0.0
  0
LINE
  5
250
330
22
100
AcDbEntity
  8
_2-2_IN_LINE
  6
Continuous
 62
     7
100
AcDbLine
 10
1114.012779525467
 20
1148.688519786644
 30
0.0
 11
1114.150196931315
 21
1148.545225446276
 31
0.0
  0
LINE
  5
251
330
22
100
AcDbEntity
  8
_2-2_IN_LINE
  6
Continuous
 62
     7
100
AcDbLine
 10
1114.150196931315
 20
1148.545225446276
 30
0.0
 11
1114.295218760645
 21
1148.409315993074
 31
0.0
  0
LINE
  5
252
330
22
100
AcDbEntity
  8
_2-2_IN_LINE
  6
Continuous
 62
     7
100
AcDbLine
 10
1114.295218760645
 20
1148.409315993074
 30
0.0
 11
1114.382072464642
 21
1148.333873913086
 31
0.0
  0
LINE
  5
253
330
22
100
AcDbEntity
  8
_2-2_IN_LINE
  6
Continuous
 62
     7
100
AcDbLine
 10
1114.382072464642
 20
1148.333873913086
 30
0.0
 11
1114.484639852632
 21
1148.249578888715
 31
0.0
  0
LINE
  5
254
330
22
100
AcDbEntity
  8
_2-2_IN_LINE
  6
Continuous
 62
     7
100
AcDbLine
 10
1114.484639852632
 20
1148.249578888715
 30
0.0
 11
1114.66592486237
 21
1148.111407029448
 31
0.0
  0
LINE
  5
255
330
22
100
AcDbEntity
  8
_2-2_IN_LINE
  6
Continuous
 62
     7
100
AcDbLine
 10
1114.66592486237
 20
1148.111407029448
 30
0.0
 11
1114.85214953699
 21
1147.98129676243
 31
0.0
  0
LINE
  5
256
330
22
100
AcDbEntity
  8
_2-2_IN_LINE
  6
Continuous
 62
     7
100
AcDbLine
 10
1114.85214953699
 20
1147.98129676243
 30
0.0
 11
1115.042515598078
 21
1147.858076860443
 31
0.0
  0
LINE
  5
257
330
22
100
AcDbEntity
  8
_2-2_IN_LINE
  6
Continuous
 62
     7
100
AcDbLine
 10
1115.042515598078
 20
1147.858076860443
 30
0.0
 11
1115.236224767222
 21
1147.740576096273
 31
0.0
  0
LINE
  5
258
330
22
100
AcDbEntity
  8
_2-2_IN_LINE
  6
Continuous
 62
     7
100
AcDbLine
 10
1115.236224767222
 20
1147.740576096273
 30
0.0
 11
1115.432478766005
 21
1147.627623242704
 31
0.0
  0
LINE
  5
259
330
22
100
AcDbEntity
  8
_2-2_IN_LINE
  6
Continuous
 62
     7
100
AcDbLine
 10
1115.432478766005
 20
1147.627623242704
 30
0.0
 11
1115.547157563034
 21
1147.563732915846
 31
0.0
  0
LINE
  5
25A
330
22
100
AcDbEntity
  8
_2-2_IN_LINE
  6
Continuous
 62
     7
100
AcDbLine
 10
1115.547157563034
 20
1147.563732915846
 30
0.0
 11
1115.670224155169
 21
1147.49646554834
 31
0.0
  0
LINE
  5
25B
330
22
100
AcDbEntity
  8
_2-2_IN_LINE
  6
Continuous
 62
     7
100
AcDbLine
 10
1115.670224155169
 20
1147.49646554834
 30
0.0
 11
1115.883430911538
 21
1147.382484307132
 31
0.0
  0
LINE
  5
25C
330
22
100
AcDbEntity
  8
_2-2_IN_LINE
  6
Continuous
 62
     7
100
AcDbLine
 10
1115.883430911538
 20
1147.382484307132
 30
0.0
 11
1116.097727911075
 21
1147.270369758766
 31
0.0
  0
LINE
  5
25D
330
22
100
AcDbEntity
  8
_2-2_IN_LINE
  6
Continuous
 62
     7
100
AcDbLine
 10
1116.097727911075
 20
1147.270369758766
 30
0.0
 11
1116.312877172151
 21
1147.15935314952
 31
0.0
  0
LINE
  5
25E
330
22
100
AcDbEntity
  8
_2-2_IN_LINE
  6
Continuous
 62
     7
100
AcDbLine
 10
1116.312877172151
 20
1147.15935314952
 30
0.0
 11
1116.528640713128
 21
1147.048665725658
 31
0.0
  0
LINE
  5
25F
330
22
100
AcDbEntity
  8
_2-2_IN_LINE
  6
Continuous
 62
     7
100
AcDbLine
 10
1116.528640713128
 20
1147.048665725658
 30
0.0
 11
1116.744780552385
 21
1146.937538733462
 31
0.0
  0
LINE
  5
260
330
22
100
AcDbEntity
  8
_2-2_IN_LINE
  6
Continuous
 62
     7
100
AcDbLine
 10
1116.744780552385
 20
1146.937538733462
 30
0.0
 11
1116.870220301888
 21
1146.872580738832
 31
0.0
  0
LINE
  5
261
330
22
100
AcDbEntity
  8
_2-2_IN_LINE
  6
Continuous
 62
     7
100
AcDbLine
 10
1116.870220301888
 20
1146.872580738832
 30
0.0
 11
1117.039048484891
 21
1146.784167284656
 31
0.0
  0
LINE
  5
262
330
22
100
AcDbEntity
  8
_2-2_IN_LINE
  6
Continuous
 62
     7
100
AcDbLine
 10
1117.039048484891
 20
1146.784167284656
 30
0.0
 11
1117.32844425078
 21
1146.627662468725
 31
0.0
  0
LINE
  5
263
330
22
100
AcDbEntity
  8
_2-2_IN_LINE
  6
Continuous
 62
     7
100
AcDbLine
 10
1117.32844425078
 20
1146.627662468725
 30
0.0
 11
1117.613152427032
 21
1146.4634408755
 31
0.0
  0
LINE
  5
264
330
22
100
AcDbEntity
  8
_2-2_IN_LINE
  6
Continuous
 62
     7
100
AcDbLine
 10
1117.613152427032
 20
1146.4634408755
 30
0.0
 11
1117.890205855049
 21
1146.288516888114
 31
0.0
  0
LINE
  5
265
330
22
100
AcDbEntity
  8
_2-2_IN_LINE
  6
Continuous
 62
     7
100
AcDbLine
 10
1117.890205855049
 20
1146.288516888114
 30
0.0
 11
1118.156637376237
 21
1146.099904889713
 31
0.0
  0
LINE
  5
266
330
22
100
AcDbEntity
  8
_2-2_IN_LINE
  6
Continuous
 62
     7
100
AcDbLine
 10
1118.156637376237
 20
1146.099904889713
 30
0.0
 11
1118.409479831994
 21
1145.894619263438
 31
0.0
  0
LINE
  5
267
330
22
100
AcDbEntity
  8
_2-2_IN_LINE
  6
Continuous
 62
     7
100
AcDbLine
 10
1118.409479831994
 20
1145.894619263438
 30
0.0
 11
1118.548732731772
 21
1145.766737255613
 31
0.0
  0
LINE
  5
268
330
22
100
AcDbEntity
  8
_2-2_IN_LINE
  6
Continuous
 62
     7
100
AcDbLine
 10
1118.548732731772
 20
1145.766737255613
 30
0.0
 11
1118.595837737686
 21
1145.720522083309
 31
0.0
  0
LINE
  5
269
330
22
100
AcDbEntity
  8
_2-2_IN_LINE
  6
Continuous
 62
     7
100
AcDbLine
 10
1118.595837737686
 20
1145.720522083309
 30
0.0
 11
1118.675182832718
 21
1145.638822821768
 31
0.0
  0
LINE
  5
26A
330
22
100
AcDbEntity
  8
_2-2_IN_LINE
  6
Continuous
 62
     7
100
AcDbLine
 10
1118.675182832718
 20
1145.638822821768
 30
0.0
 11
1118.751982942163
 21
1145.554620429437
 31
0.0
  0
LINE
  5
26B
330
22
100
AcDbEntity
  8
_2-2_IN_LINE
  6
Continuous
 62
     7
100
AcDbLine
 10
1118.751982942163
 20
1145.554620429437
 30
0.0
 11
1118.826031845485
 21
1145.467974453943
 31
0.0
  0
LINE
  5
26C
330
22
100
AcDbEntity
  8
_2-2_IN_LINE
  6
Continuous
 62
     7
100
AcDbLine
 10
1118.826031845485
 20
1145.467974453943
 30
0.0
 11
1118.897123322178
 21
1145.378944442907
 31
0.0
  0
LINE
  5
26D
330
22
100
AcDbEntity
  8
_2-2_IN_LINE
  6
Continuous
 62
     7
100
AcDbLine
 10
1118.897123322178
 20
1145.378944442907
 30
0.0
 11
1118.965051151707
 21
1145.287589943953
 31
0.0
  0
LINE
  5
26E
330
22
100
AcDbEntity
  8
_2-2_IN_LINE
  6
Continuous
 62
     7
100
AcDbLine
 10
1118.965051151707
 20
1145.287589943953
 30
0.0
 11
1119.0029184481
 21
1145.233562719061
 31
0.0
  0
LINE
  5
26F
330
22
100
AcDbEntity
  8
_2-2_IN_LINE
  6
Continuous
 62
     7
100
AcDbLine
 10
1119.0029184481
 20
1145.233562719061
 30
0.0
 11
1119.062211138474
 21
1145.143961307972
 31
0.0
  0
LINE
  5
270
330
22
100
AcDbEntity
  8
_2-2_IN_LINE
  6
Continuous
 62
     7
100
AcDbLine
 10
1119.062211138474
 20
1145.143961307972
 30
0.0
 11
1119.15862440267
 21
1144.985769863802
 31
0.0
  0
LINE
  5
271
330
22
100
AcDbEntity
  8
_2-2_IN_LINE
  6
Continuous
 62
     7
100
AcDbLine
 10
1119.15862440267
 20
1144.985769863802
 30
0.0
 11
1119.249952811741
 21
1144.824358576768
 31
0.0
  0
LINE
  5
272
330
22
100
AcDbEntity
  8
_2-2_IN_LINE
  6
Continuous
 62
     7
100
AcDbLine
 10
1119.249952811741
 20
1144.824358576768
 30
0.0
 11
1119.338843520192
 21
1144.661438628475
 31
0.0
  0
LINE
  5
273
330
22
100
AcDbEntity
  8
_2-2_IN_LINE
  6
Continuous
 62
     7
100
AcDbLine
 10
1119.338843520192
 20
1144.661438628475
 30
0.0
 11
1119.427943682524
 21
1144.498721200523
 31
0.0
  0
LINE
  5
274
330
22
100
AcDbEntity
  8
_2-2_IN_LINE
  6
Continuous
 62
     7
100
AcDbLine
 10
1119.427943682524
 20
1144.498721200523
 30
0.0
 11
1119.519900453256
 21
1144.337917474511
 31
0.0
  0
LINE
  5
275
330
22
100
AcDbEntity
  8
_2-2_IN_LINE
  6
Continuous
 62
     7
100
AcDbLine
 10
1119.519900453256
 20
1144.337917474511
 30
0.0
 11
1119.575587394765
 21
1144.246202466186
 31
0.0
  0
LINE
  5
276
330
22
100
AcDbEntity
  8
_2-2_IN_LINE
  6
Continuous
 62
     7
100
AcDbLine
 10
1119.575587394765
 20
1144.246202466186
 30
0.0
 11
1119.634952164638
 21
1144.153791473786
 31
0.0
  0
LINE
  5
277
330
22
100
AcDbEntity
  8
_2-2_IN_LINE
  6
Continuous
 62
     7
100
AcDbLine
 10
1119.634952164638
 20
1144.153791473786
 30
0.0
 11
1119.742453926403
 21
1143.997848471631
 31
0.0
  0
LINE
  5
278
330
22
100
AcDbEntity
  8
_2-2_IN_LINE
  6
Continuous
 62
     7
100
AcDbLine
 10
1119.742453926403
 20
1143.997848471631
 30
0.0
 11
1119.855437116374
 21
1143.845525929407
 31
0.0
  0
LINE
  5
279
330
22
100
AcDbEntity
  8
_2-2_IN_LINE
  6
Continuous
 62
     7
100
AcDbLine
 10
1119.855437116374
 20
1143.845525929407
 30
0.0
 11
1119.97269716877
 21
1143.696049440675
 31
0.0
  0
LINE
  5
27A
330
22
100
AcDbEntity
  8
_2-2_IN_LINE
  6
Continuous
 62
     7
100
AcDbLine
 10
1119.97269716877
 20
1143.696049440675
 30
0.0
 11
1120.093029517816
 21
1143.548644598982
 31
0.0
  0
LINE
  5
27B
330
22
100
AcDbEntity
  8
_2-2_IN_LINE
  6
Continuous
 62
     7
100
AcDbLine
 10
1120.093029517816
 20
1143.548644598982
 30
0.0
 11
1120.215229597739
 21
1143.402536997885
 31
0.0
  0
LINE
  5
27C
330
22
100
AcDbEntity
  8
_2-2_IN_LINE
  6
Continuous
 62
     7
100
AcDbLine
 10
1120.215229597739
 20
1143.402536997885
 30
0.0
 11
1120.286486776834
 21
1143.318083828483
 31
0.0
  0
LINE
  5
27D
330
22
100
AcDbEntity
  8
_2-2_IN_LINE
  6
Continuous
 62
     7
100
AcDbLine
 10
1120.286486776834
 20
1143.318083828483
 30
0.0
 11
1120.375967360735
 21
1143.212241964864
 31
0.0
  0
LINE
  5
27E
330
22
100
AcDbEntity
  8
_2-2_IN_LINE
  6
Continuous
 62
     7
100
AcDbLine
 10
1120.375967360735
 20
1143.212241964864
 30
0.0
 11
1120.53105041453
 21
1143.030669186553
 31
0.0
  0
LINE
  5
27F
330
22
100
AcDbEntity
  8
_2-2_IN_LINE
  6
Continuous
 62
     7
100
AcDbLine
 10
1120.53105041453
 20
1143.030669186553
 30
0.0
 11
1120.688439582769
 21
1142.851494533929
 31
0.0
  0
LINE
  5
280
330
22
100
AcDbEntity
  8
_2-2_IN_LINE
  6
Continuous
 62
     7
100
AcDbLine
 10
1120.688439582769
 20
1142.851494533929
 30
0.0
 11
1120.849629780701
 21
1142.676162407704
 31
0.0
  0
LINE
  5
281
330
22
100
AcDbEntity
  8
_2-2_IN_LINE
  6
Continuous
 62
     7
100
AcDbLine
 10
1120.849629780701
 20
1142.676162407704
 30
0.0
 11
1121.016115923548
 21
1142.506117208593
 31
0.0
  0
LINE
  5
282
330
22
100
AcDbEntity
  8
_2-2_IN_LINE
  6
Continuous
 62
     7
100
AcDbLine
 10
1121.016115923548
 20
1142.506117208593
 30
0.0
 11
1121.189392926558
 21
1142.342803337317
 31
0.0
  0
LINE
  5
283
330
22
100
AcDbEntity
  8
_2-2_IN_LINE
  6
Continuous
 62
     7
100
AcDbLine
 10
1121.189392926558
 20
1142.342803337317
 30
0.0
 11
1121.293594234768
 21
1142.251734755378
 31
0.0
  0
LINE
  5
284
330
22
100
AcDbEntity
  8
_2-2_IN_LINE
  6
Continuous
 62
     7
100
AcDbLine
 10
1121.293594234768
 20
1142.251734755378
 30
0.0
 11
1121.35568151029
 21
1142.20007548274
 31
0.0
  0
LINE
  5
285
330
22
100
AcDbEntity
  8
_2-2_IN_LINE
  6
Continuous
 62
     7
100
AcDbLine
 10
1121.35568151029
 20
1142.20007548274
 30
0.0
 11
1121.465154250128
 21
1142.113750372435
 31
0.0
  0
LINE
  5
286
330
22
100
AcDbEntity
  8
_2-2_IN_LINE
  6
Continuous
 62
     7
100
AcDbLine
 10
1121.465154250128
 20
1142.113750372435
 30
0.0
 11
1121.577655507889
 21
1142.031390500304
 31
0.0
  0
LINE
  5
287
330
22
100
AcDbEntity
  8
_2-2_IN_LINE
  6
Continuous
 62
     7
100
AcDbLine
 10
1121.577655507889
 20
1142.031390500304
 30
0.0
 11
1121.693136440598
 21
1141.953569809555
 31
0.0
  0
LINE
  5
288
330
22
100
AcDbEntity
  8
_2-2_IN_LINE
  6
Continuous
 62
     7
100
AcDbLine
 10
1121.693136440598
 20
1141.953569809555
 30
0.0
 11
1121.811548205289
 21
1141.880862243413
 31
0.0
  0
LINE
  5
289
330
22
100
AcDbEntity
  8
_2-2_IN_LINE
  6
Continuous
 62
     7
100
AcDbLine
 10
1121.811548205289
 20
1141.880862243413
 30
0.0
 11
1121.932841958996
 21
1141.813841745084
 31
0.0
  0
LINE
  5
28A
330
22
100
AcDbEntity
  8
_2-2_IN_LINE
  6
Continuous
 62
     7
100
AcDbLine
 10
1121.932841958996
 20
1141.813841745084
 30
0.0
 11
1122.004493616834
 21
1141.777801833998
 31
0.0
  0
LINE
  5
28B
330
22
100
AcDbEntity
  8
_2-2_IN_LINE
  6
Continuous
 62
     7
100
AcDbLine
 10
1122.004493616834
 20
1141.777801833998
 30
0.0
 11
1122.105969507888
 21
1141.73114998064
 31
0.0
  0
LINE
  5
28C
330
22
100
AcDbEntity
  8
_2-2_IN_LINE
  6
Continuous
 62
     7
100
AcDbLine
 10
1122.105969507888
 20
1141.73114998064
 30
0.0
 11
1122.284733886941
 21
1141.659663222288
 31
0.0
  0
LINE
  5
28D
330
22
100
AcDbEntity
  8
_2-2_IN_LINE
  6
Continuous
 62
     7
100
AcDbLine
 10
1122.284733886941
 20
1141.659663222288
 30
0.0
 11
1122.467554305087
 21
1141.597711883664
 31
0.0
  0
LINE
  5
28E
330
22
100
AcDbEntity
  8
_2-2_IN_LINE
  6
Continuous
 62
     7
100
AcDbLine
 10
1122.467554305087
 20
1141.597711883664
 30
0.0
 11
1122.653545164277
 21
1141.543213995396
 31
0.0
  0
LINE
  5
28F
330
22
100
AcDbEntity
  8
_2-2_IN_LINE
  6
Continuous
 62
     7
100
AcDbLine
 10
1122.653545164277
 20
1141.543213995396
 30
0.0
 11
1122.841820866453
 21
1141.49408758811
 31
0.0
  0
LINE
  5
290
330
22
100
AcDbEntity
  8
_2-2_IN_LINE
  6
Continuous
 62
     7
100
AcDbLine
 10
1122.841820866453
 20
1141.49408758811
 30
0.0
 11
1123.031495813553
 21
1141.448250692431
 31
0.0
  0
LINE
  5
291
330
22
100
AcDbEntity
  8
_2-2_IN_LINE
  6
Continuous
 62
     7
100
AcDbLine
 10
1123.031495813553
 20
1141.448250692431
 30
0.0
 11
1123.141799445214
 21
1141.422352142961
 31
0.0
  0
LINE
  5
292
330
22
100
AcDbEntity
  8
_2-2_IN_LINE
  6
Continuous
 62
     7
100
AcDbLine
 10
1123.141799445214
 20
1141.422352142961
 30
0.0
 11
1125.280219402874
 21
1141.422352142961
 31
0.0
  0
TEXT
  5
293
330
22
100
AcDbEntity
  8
_2-A_MOJI
 62
     7
100
AcDbText
 10
1213.609226466659
 20
1069.872490897574
 30
0.0
 40
15.0
  1
ＥＬ-2001注入
100
AcDbText
  0
TEXT
  5
294
330
22
100
AcDbEntity
  8
_2-B_DIM
 62
     7
100
AcDbText
 10
1076.268359240934
 20
1019.201132499724
 30
0.0
 40
15.0
  1
40以上
100
AcDbText
  0
TEXT
  5
295
330
22
100
AcDbEntity
  8
_2-B_DIM
 62
     7
100
AcDbText
 10
839.6289748507696
 20
1019.201132499724
 30
0.0
 40
15.0
  1
40以上
100
AcDbText
  0
LINE
  5
296
330
22
100
AcDbEntity
  8
_2-A_MOJI
  6
Continuous
 62
     7
100
AcDbLine
 10
730.7179356640662
 20
1262.830908519702
 30
0.0
 11
748.8842485646121
 21
1294.295885449642
 31
0.0
  0
LINE
  5
297
330
22
100
AcDbEntity
  8
_2-A_MOJI
  6
Continuous
 62
     7
100
AcDbLine
 10
778.0273373733844
 20
1294.295885449642
 30
0.0
 11
748.8842485646121
 21
1294.295885449642
 31
0.0
  0
LINE
  5
298
330
22
100
AcDbEntity
  8
_2-2_IN_LINE
  6
Continuous
 62
     7
100
AcDbLine
 10
685.2802194028738
 20
1260.981616306419
 30
0.0
 11
685.2802194028738
 21
1256.481616306419
 31
0.0
  0
ARC
  5
299
330
22
100
AcDbEntity
  8
_2-2_IN_LINE
  6
Continuous
 62
     7
100
AcDbCircle
 10
678.4648270210068
 20
1263.526496730715
 30
0.0
 40
7.275025064752136
100
AcDbArc
 50
284.4501521415896
 51
339.5242728500532
  0
LINE
  5
29A
330
22
100
AcDbEntity
  8
_2-2_IN_LINE
  6
Continuous
 62
     7
100
AcDbLine
 10
685.2802194028738
 20
1256.481616306419
 30
0.0
 11
680.2802194028738
 21
1256.481616306419
 31
0.0
  0
LINE
  5
29B
330
22
100
AcDbEntity
  8
_2-6_鋼板__アングル
  6
Continuous
 62
     2
100
AcDbLine
 10
676.3052275327375
 20
1262.68161630642
 30
0.0
 11
676.3052275327375
 21
1221.181616306419
 31
0.0
  0
ARC
  5
29C
330
22
100
AcDbEntity
  8
_2-6_鋼板__アングル
  6
Continuous
 62
     2
100
AcDbCircle
 10
673.9052275327374
 20
1217.933088168995
 30
0.0
 40
0.5999999999999887
100
AcDbArc
 50
135.0
 51
315.0
  0
LINE
  5
29D
330
22
100
AcDbEntity
  8
_2-6_鋼板__アングル
  6
Continuous
 62
     2
100
AcDbLine
 10
676.3052275327375
 20
1221.181616306419
 30
0.0
 11
673.4809634640266
 21
1218.357352237708
 31
0.0
  0
LINE
  5
29E
330
22
100
AcDbEntity
  8
_2-6_鋼板__アングル
  6
Continuous
 62
     2
100
AcDbLine
 10
677.8052275327382
 20
1220.984560031572
 30
0.0
 11
674.3294916014503
 21
1217.508824100285
 31
0.0
  0
LINE
  5
29F
330
22
100
AcDbEntity
  8
_2-6_鋼板__アングル
  6
Continuous
 62
     2
100
AcDbLine
 10
727.0552275327378
 20
1267.181616306421
 30
0.0
 11
726.5552275327382
 21
1266.681616306421
 31
0.0
  0
LINE
  5
2A0
330
22
100
AcDbEntity
  8
_2-6_鋼板__アングル
  6
Continuous
 62
     2
100
AcDbLine
 10
726.0552275327366
 20
1267.181616306421
 30
0.0
 11
726.5552275327382
 21
1266.681616306421
 31
0.0
  0
LINE
  5
2A1
330
22
100
AcDbEntity
  8
_2-6_鋼板__アングル
  6
Continuous
 62
     2
100
AcDbLine
 10
726.0552275327366
 20
1267.181616306421
 30
0.0
 11
721.0552275327366
 21
1267.181616306421
 31
0.0
  0
LINE
  5
2A2
330
22
100
AcDbEntity
  8
_2-6_鋼板__アングル
  6
Continuous
 62
     2
100
AcDbLine
 10
717.3052275327364
 20
1262.68161630642
 30
0.0
 11
721.0552275327366
 21
1267.181616306421
 31
0.0
  0
LINE
  5
2A3
330
22
100
AcDbEntity
  8
_2-6_鋼板__アングル
  6
Continuous
 62
     2
100
AcDbLine
 10
732.0552275327378
 20
1267.181616306421
 30
0.0
 11
727.0552275327378
 21
1267.181616306421
 31
0.0
  0
LINE
  5
2A4
330
22
100
AcDbEntity
  8
_2-6_鋼板__アングル
  6
Continuous
 62
     2
100
AcDbLine
 10
717.3052275327364
 20
1262.68161630642
 30
0.0
 11
676.3052275327375
 21
1262.68161630642
 31
0.0
  0
LINE
  5
2A5
330
22
100
AcDbEntity
  8
_2-6_鋼板__アングル
  6
Continuous
 62
     2
100
AcDbLine
 10
677.8052275327382
 20
1231.760295962861
 30
0.0
 11
677.8052275327382
 21
1220.984560031572
 31
0.0
  0
ARC
  5
2A6
330
22
100
AcDbEntity
  8
_2-6_鋼板__アングル
  6
Continuous
 62
     2
100
AcDbCircle
 10
678.1052275327381
 20
1231.760295962861
 30
0.0
 40
0.3
100
AcDbArc
 50
45.0
 51
180.0
  0
ARC
  5
2A7
330
22
100
AcDbEntity
  8
_2-6_鋼板__アングル
  6
Continuous
 62
     2
100
AcDbCircle
 10
742.7052275327384
 20
1262.78161630642
 30
0.0
 40
0.5999999999999944
100
AcDbArc
 50
270.0
 51
90.0
  0
LINE
  5
2A8
330
22
100
AcDbEntity
  8
_2-6_鋼板__アングル
  6
Continuous
 62
     2
100
AcDbLine
 10
739.8052275327366
 20
1260.981616306419
 30
0.0
 11
739.3052275327369
 21
1261.481616306419
 31
0.0
  0
LINE
  5
2A9
330
22
100
AcDbEntity
  8
_2-6_鋼板__アングル
  6
Continuous
 62
     2
100
AcDbLine
 10
739.3052275327369
 20
1261.481616306419
 30
0.0
 11
738.8052275327376
 21
1260.981616306419
 31
0.0
  0
LINE
  5
2AA
330
22
100
AcDbEntity
  8
_2-6_鋼板__アングル
  6
Continuous
 62
     2
100
AcDbLine
 10
738.8052275327376
 20
1260.981616306419
 30
0.0
 11
738.3052275327378
 21
1261.481616306419
 31
0.0
  0
LINE
  5
2AB
330
22
100
AcDbEntity
  8
_2-6_鋼板__アングル
  6
Continuous
 62
     2
100
AcDbLine
 10
738.3052275327378
 20
1261.481616306419
 30
0.0
 11
737.8052275327383
 21
1260.981616306419
 31
0.0
  0
LINE
  5
2AC
330
22
100
AcDbEntity
  8
_2-6_鋼板__アングル
  6
Continuous
 62
     2
100
AcDbLine
 10
737.8052275327383
 20
1260.981616306419
 30
0.0
 11
737.3052275327367
 21
1261.481616306419
 31
0.0
  0
LINE
  5
2AD
330
22
100
AcDbEntity
  8
_2-6_鋼板__アングル
  6
Continuous
 62
     2
100
AcDbLine
 10
737.3052275327367
 20
1261.481616306419
 30
0.0
 11
736.8052275327369
 21
1260.981616306419
 31
0.0
  0
LINE
  5
2AE
330
22
100
AcDbEntity
  8
_2-6_鋼板__アングル
  6
Continuous
 62
     2
100
AcDbLine
 10
739.8052275327366
 20
1260.981616306419
 30
0.0
 11
741.1052275327375
 21
1262.181616306421
 31
0.0
  0
LINE
  5
2AF
330
22
100
AcDbEntity
  8
_2-6_鋼板__アングル
  6
Continuous
 62
     2
100
AcDbLine
 10
737.8052275327383
 20
1260.981616306419
 30
0.0
 11
737.3052275327367
 21
1261.481616306419
 31
0.0
  0
LINE
  5
2B0
330
22
100
AcDbEntity
  8
_2-6_鋼板__アングル
  6
Continuous
 62
     2
100
AcDbLine
 10
737.3052275327367
 20
1261.481616306419
 30
0.0
 11
736.8052275327369
 21
1260.981616306419
 31
0.0
  0
LINE
  5
2B1
330
22
100
AcDbEntity
  8
_2-6_鋼板__アングル
  6
Continuous
 62
     2
100
AcDbLine
 10
737.8052275327383
 20
1260.981616306419
 30
0.0
 11
737.3052275327367
 21
1261.481616306419
 31
0.0
  0
LINE
  5
2B2
330
22
100
AcDbEntity
  8
_2-6_鋼板__アングル
  6
Continuous
 62
     2
100
AcDbLine
 10
737.3052275327367
 20
1261.481616306419
 30
0.0
 11
736.8052275327369
 21
1260.981616306419
 31
0.0
  0
LINE
  5
2B3
330
22
100
AcDbEntity
  8
_2-6_鋼板__アングル
  6
Continuous
 62
     2
100
AcDbLine
 10
736.8052275327369
 20
1260.981616306419
 30
0.0
 11
736.3052275327376
 21
1261.481616306419
 31
0.0
  0
LINE
  5
2B4
330
22
100
AcDbEntity
  8
_2-6_鋼板__アングル
  6
Continuous
 62
     2
100
AcDbLine
 10
742.7052275327384
 20
1262.181616306421
 30
0.0
 11
741.1052275327375
 21
1262.181616306421
 31
0.0
  0
LINE
  5
2B5
330
22
100
AcDbEntity
  8
_2-6_鋼板__アングル
  6
Continuous
 62
     2
100
AcDbLine
 10
736.093488168952
 20
1261.269876942636
 30
0.0
 11
735.9031645455485
 21
1261.07955331923
 31
0.0
  0
LINE
  5
2B6
330
22
100
AcDbEntity
  8
_2-6_鋼板__アングル
  6
Continuous
 62
     2
100
AcDbLine
 10
736.3052275327376
 20
1261.481616306419
 30
0.0
 11
735.6267545221618
 21
1260.803143295843
 31
0.0
  0
LINE
  5
2B7
330
22
100
AcDbEntity
  8
_2-6_鋼板__アングル
  6
Continuous
 62
     2
100
AcDbLine
 10
742.7052275327384
 20
1263.381616306419
 30
0.0
 11
735.2218941994039
 21
1263.381616306419
 31
0.0
  0
ARC
  5
2B8
330
22
100
AcDbEntity
  8
_2-6_鋼板__アングル
  6
Continuous
 62
     2
100
AcDbCircle
 10
726.5552275327382
 20
1254.581616306421
 30
0.0
 40
11.0
100
AcDbArc
 50
34.44350562282312
 51
144.4214742675413
  0
LINE
  5
2B9
330
22
100
AcDbEntity
  8
_2-6_鋼板__アングル
  6
Continuous
 62
     2
100
AcDbLine
 10
732.0552275327378
 20
1267.181616306421
 30
0.0
 11
735.2218941994039
 21
1263.381616306419
 31
0.0
  0
LINE
  5
2BA
330
22
100
AcDbEntity
  8
_2-6_鋼板__アングル
  6
Continuous
 62
     2
100
AcDbLine
 10
677.8052275327382
 20
1234.181616306421
 30
0.0
 11
680.0882932305223
 21
1231.898550608635
 31
0.0
  0
ARC
  5
2BB
330
22
100
AcDbEntity
  8
_2-6_鋼板__アングル
  6
Continuous
 62
     2
100
AcDbCircle
 10
679.6640291618094
 20
1231.474286539924
 30
0.0
 40
0.5999999999999988
100
AcDbArc
 50
224.9999999999981
 51
44.99999999999807
  0
LINE
  5
2BC
330
22
100
AcDbEntity
  8
_2-6_鋼板__アングル
  6
Continuous
 62
     2
100
AcDbLine
 10
678.3173595670935
 20
1231.972427997216
 30
0.0
 11
679.2397650930963
 21
1231.050022471211
 31
0.0
  0
LINE
  5
2BD
330
22
100
AcDbEntity
  8
_2-6_鋼板__アングル
  6
Continuous
 62
     2
100
AcDbLine
 10
677.8052275327382
 20
1260.981616306419
 30
0.0
 11
717.6087198342004
 21
1260.981616306419
 31
0.0
  0
LINE
  5
2BE
330
22
100
AcDbEntity
  8
_2-6_鋼板__アングル
  6
Continuous
 62
     2
100
AcDbLine
 10
677.8052275327382
 20
1260.981616306419
 30
0.0
 11
677.8052275327382
 21
1234.181616306421
 31
0.0
  0
ARC
  5
2BF
330
22
100
AcDbEntity
  8
_2-7_ビス
  6
Continuous
 62
     7
100
AcDbCircle
 10
726.5552275327382
 20
1267.181616306421
 30
0.0
 40
3.311199832977679
100
AcDbArc
 50
0.0
 51
180.0
  0
LINE
  5
2C0
330
22
100
AcDbEntity
  8
_2-7_ビス
  6
Continuous
 62
     7
100
AcDbLine
 10
729.8664273657169
 20
1267.181616306421
 30
0.0
 11
723.2440276997619
 21
1267.181616306421
 31
0.0
  0
LINE
  5
2C1
330
22
100
AcDbEntity
  8
_2-7_ビス
  6
Continuous
 62
     7
100
AcDbLine
 10
728.5552275327388
 20
1267.181616306421
 30
0.0
 11
728.5552275327388
 21
1256.481616306419
 31
0.0
  0
LINE
  5
2C2
330
22
100
AcDbEntity
  8
_2-7_ビス
  6
Continuous
 62
     7
100
AcDbLine
 10
724.5552275327378
 20
1267.181616306421
 30
0.0
 11
724.5552275327378
 21
1256.481616306419
 31
0.0
  0
LINE
  5
2C3
330
22
100
AcDbEntity
  8
_2-D_ハッチ他
  6
Continuous
 62
     4
100
AcDbLine
 10
732.4807917263123
 20
1260.981616306419
 30
0.0
 11
734.0925660584282
 21
1262.593390638538
 31
0.0
  0
LINE
  5
2C4
330
22
100
AcDbEntity
  8
_2-D_ハッチ他
  6
Continuous
 62
     4
100
AcDbLine
 10
728.9452578203878
 20
1260.981616306419
 30
0.0
 11
732.0655627446949
 21
1264.101921230729
 31
0.0
  0
LINE
  5
2C5
330
22
100
AcDbEntity
  8
_2-D_ハッチ他
  6
Continuous
 62
     4
100
AcDbLine
 10
718.3386561025811
 20
1260.981616306422
 30
0.0
 11
721.9094518940103
 21
1264.552412097853
 31
0.0
  0
LINE
  5
2C6
330
22
100
AcDbEntity
  8
_2-D_ハッチ他
  6
Continuous
 62
     4
100
AcDbLine
 10
721.87419000852
 20
1260.981616306419
 30
0.0
 11
724.5552275327378
 21
1263.662653830636
 31
0.0
  0
LINE
  5
2C7
330
22
100
AcDbEntity
  8
_2-D_ハッチ他
  6
Continuous
 62
     4
100
AcDbLine
 10
728.5552275327388
 20
1264.127119924713
 30
0.0
 11
729.5844124908975
 21
1265.156304882873
 31
0.0
  0
LINE
  5
2C8
330
22
100
AcDbEntity
  8
_2-2_IN_LINE
  6
Continuous
 62
     7
100
AcDbLine
 10
717.6087198342004
 20
1260.981616306419
 30
0.0
 11
724.5552275327378
 21
1260.981616306419
 31
0.0
  0
LINE
  5
2C9
330
22
100
AcDbEntity
  8
_2-2_IN_LINE
  6
Continuous
 62
     7
100
AcDbLine
 10
728.5552275327388
 20
1260.981616306419
 30
0.0
 11
735.5017352312763
 21
1260.981616306419
 31
0.0
  0
LINE
  5
2CA
330
22
100
AcDbEntity
  8
_2-2_IN_LINE
  6
Continuous
 62
     7
100
AcDbLine
 10
680.2802194028738
 20
1256.481616306419
 30
0.0
 11
680.2802194028738
 21
1231.615827588949
 31
0.0
  0
LINE
  5
2CB
330
22
100
AcDbEntity
  8
_2-2_IN_LINE
  6
RAND5
 62
     1
100
AcDbLine
 10
710.2802194028738
 20
1256.481616306419
 30
0.0
 11
685.2802194028738
 21
1256.481616306419
 31
0.0
  0
LINE
  5
2CC
330
22
100
AcDbEntity
  8
_2-D_ハッチ他
  6
Continuous
 62
     4
100
AcDbLine
 10
680.7279482326812
 20
1256.612433375935
 30
0.0
 11
680.8587653021988
 21
1256.481616306418
 31
0.0
  0
LINE
  5
2CD
330
22
100
AcDbEntity
  8
_2-D_ハッチ他
  6
Continuous
 62
     4
100
AcDbLine
 10
681.7294835036824
 20
1257.025111667301
 30
0.0
 11
682.2729788645649
 21
1256.481616306418
 31
0.0
  0
LINE
  5
2CE
330
22
100
AcDbEntity
  8
_2-D_ハッチ他
  6
Continuous
 62
     4
100
AcDbLine
 10
682.6164347676178
 20
1257.55237396574
 30
0.0
 11
683.6871924269389
 21
1256.481616306419
 31
0.0
  0
LINE
  5
2CF
330
22
100
AcDbEntity
  8
_2-D_ハッチ他
  6
Continuous
 62
     4
100
AcDbLine
 10
683.4008433454148
 20
1258.182178950318
 30
0.0
 11
685.1014059893152
 21
1256.481616306418
 31
0.0
  0
LINE
  5
2D0
330
22
100
AcDbEntity
  8
_2-D_ハッチ他
  6
Continuous
 62
     4
100
AcDbLine
 10
684.0873563039695
 20
1258.909879554138
 30
0.0
 11
685.2802194028773
 21
1257.717016455231
 31
0.0
  0
LINE
  5
2D1
330
22
100
AcDbEntity
  8
_2-D_ハッチ他
  6
Continuous
 62
     4
100
AcDbLine
 10
684.674764132123
 20
1259.736685288351
 30
0.0
 11
685.280219402875
 21
1259.131230017599
 31
0.0
  0
LINE
  5
2D2
330
22
100
AcDbEntity
  8
_2-D_ハッチ他
  6
Continuous
 62
     4
100
AcDbLine
 10
685.1556174333581
 20
1260.670045549491
 30
0.0
 11
685.280219402875
 21
1260.545443579974
 31
0.0
  0
LINE
  5
2D3
330
22
100
AcDbEntity
  8
_2-A_MOJI
  6
Continuous
 62
     7
100
AcDbLine
 10
699.3836090008263
 20
1256.481616306419
 30
0.0
 11
735.6494441996159
 21
1319.295885449642
 31
0.0
  0
LINE
  5
2D4
330
22
100
AcDbEntity
  8
_2-A_MOJI
  6
Continuous
 62
     7
100
AcDbLine
 10
778.0273373733844
 20
1319.295885449642
 30
0.0
 11
719.8804193028905
 21
1319.295885449642
 31
0.0
  0
LINE
  5
2D5
330
22
100
AcDbEntity
  8
_2-A_MOJI
  6
Continuous
 62
     7
100
AcDbLine
 10
684.6696119898849
 20
1258.308978207998
 30
0.0
 11
719.8804193028905
 21
1319.295885449642
 31
0.0
  0
TEXT
  5
2D6
330
22
100
AcDbEntity
  8
_2-A_MOJI
 62
     7
100
AcDbText
 10
788.0273373733843
 20
1286.795885449642
 30
0.0
 40
15.0
  1
Ｋ－１０（ホルダー内、ロンシーラントＬ充填）
100
AcDbText
  0
TEXT
  5
2D7
330
22
100
AcDbEntity
  8
_2-A_MOJI
 62
     7
100
AcDbText
 10
788.0273373733843
 20
1311.795885449642
 30
0.0
 40
15.0
  1
ロンシーラントＬ
100
AcDbText
  0
LINE
  5
2D8
330
22
100
AcDbEntity
  8
_2-2_IN_LINE
  6
Continuous
 62
     7
100
AcDbLine
 10
820.2802194028745
 20
1256.481616306419
 30
0.0
 11
710.2802194028738
 21
1256.481616306419
 31
0.0
  0
LINE
  5
2D9
330
22
100
AcDbEntity
  8
_2-4_OUT_LINE
  6
Continuous
 62
     2
100
AcDbLine
 10
680.2802194028743
 20
1231.615827588949
 30
0.0
 11
680.2802194028743
 21
906.481616306419
 31
0.0
  0
LINE
  5
2DA
330
22
100
AcDbEntity
  8
_2-7_ビス
  6
Continuous
 62
     7
100
AcDbLine
 10
729.5552275327393
 20
1252.386131133507
 30
0.0
 11
729.5552275327393
 21
1256.481616306419
 31
0.0
  0
LINE
  5
2DB
330
22
100
AcDbEntity
  8
_2-7_ビス
  6
Continuous
 62
     7
100
AcDbLine
 10
729.5552275327393
 20
1256.481616306419
 30
0.0
 11
726.5552275327382
 21
1256.481616306419
 31
0.0
  0
LINE
  5
2DC
330
22
100
AcDbEntity
  8
_2-7_ビス
  6
Continuous
 62
     7
100
AcDbLine
 10
729.5552275327393
 20
1252.386131133507
 30
0.0
 11
730.3052275327383
 21
1251.561570213303
 31
0.0
  0
LINE
  5
2DD
330
22
100
AcDbEntity
  8
_2-7_ビス
  6
Continuous
 62
     7
100
AcDbLine
 10
730.3052275327383
 20
1251.561570213303
 30
0.0
 11
730.3052275327383
 21
1249.462964486188
 31
0.0
  0
LINE
  5
2DE
330
22
100
AcDbEntity
  8
_2-7_ビス
  6
Continuous
 62
     7
100
AcDbLine
 10
730.3052275327383
 20
1249.462964486188
 30
0.0
 11
729.7570082827377
 21
1245.345371172939
 31
0.0
  0
LINE
  5
2DF
330
22
100
AcDbEntity
  8
_2-7_ビス
  6
Continuous
 62
     7
100
AcDbLine
 10
729.7570082827377
 20
1245.345371172939
 30
0.0
 11
729.515084532738
 21
1244.937756664418
 31
0.0
  0
LINE
  5
2E0
330
22
100
AcDbEntity
  8
_2-7_ビス
  6
Continuous
 62
     7
100
AcDbLine
 10
729.515084532738
 20
1244.937756664418
 30
0.0
 11
729.5552275327393
 21
1244.937756664418
 31
0.0
  0
LINE
  5
2E1
330
22
100
AcDbEntity
  8
_2-7_ビス
  6
Continuous
 62
     7
100
AcDbLine
 10
729.5552275327393
 20
1244.937756664418
 30
0.0
 11
729.5552275327393
 21
1243.123721577819
 31
0.0
  0
LINE
  5
2E2
330
22
100
AcDbEntity
  8
_2-7_ビス
  6
Continuous
 62
     7
100
AcDbLine
 10
729.5552275327393
 20
1243.123721577819
 30
0.0
 11
729.122214972171
 21
1242.299160174819
 31
0.0
  0
LINE
  5
2E3
330
22
100
AcDbEntity
  8
_2-7_ビス
  6
Continuous
 62
     7
100
AcDbLine
 10
729.2521187827385
 20
1242.051791753918
 30
0.0
 11
730.2302275327378
 21
1242.051791753918
 31
0.0
  0
LINE
  5
2E4
330
22
100
AcDbEntity
  8
_2-7_ビス
  6
Continuous
 62
     7
100
AcDbLine
 10
730.2302275327378
 20
1242.051791753918
 30
0.0
 11
730.2302275327378
 21
1237.818401160039
 31
0.0
  0
LINE
  5
2E5
330
22
100
AcDbEntity
  8
_2-7_ビス
  6
Continuous
 62
     7
100
AcDbLine
 10
730.2302275327378
 20
1237.818401160039
 30
0.0
 11
729.7287580327378
 21
1236.857054915018
 31
0.0
  0
LINE
  5
2E6
330
22
100
AcDbEntity
  8
_2-7_ビス
  6
Continuous
 62
     7
100
AcDbLine
 10
729.7287580327378
 20
1236.857054915018
 30
0.0
 11
729.7239775327382
 21
1236.857054915018
 31
0.0
  0
LINE
  5
2E7
330
22
100
AcDbEntity
  8
_2-7_ビス
  6
Continuous
 62
     7
100
AcDbLine
 10
729.7239733594534
 20
1236.857055268801
 30
0.0
 11
729.7239775327382
 21
1236.857054915018
 31
0.0
  0
LINE
  5
2E8
330
22
100
AcDbEntity
  8
_2-7_ビス
  6
Continuous
 62
     7
100
AcDbLine
 10
729.7239733594534
 20
1236.857055268801
 30
0.0
 11
729.7239775327382
 21
1236.857054915018
 31
0.0
  0
LINE
  5
2E9
330
22
100
AcDbEntity
  8
_2-7_ビス
  6
Continuous
 62
     7
100
AcDbLine
 10
729.6913862827381
 20
1235.785125091119
 30
0.0
 11
730.2302275327378
 21
1235.785125091119
 31
0.0
  0
LINE
  5
2EA
330
22
100
AcDbEntity
  8
_2-7_ビス
  6
Continuous
 62
     7
100
AcDbLine
 10
730.2302275327378
 20
1235.785125091119
 30
0.0
 11
730.2302275327378
 21
1229.987891954345
 31
0.0
  0
LINE
  5
2EB
330
22
100
AcDbEntity
  8
_2-7_ビス
  6
Continuous
 62
     7
100
AcDbLine
 10
730.2302275327378
 20
1229.987891954345
 30
0.0
 11
729.723980345678
 21
1229.02374058458
 31
0.0
  0
LINE
  5
2EC
330
22
100
AcDbEntity
  8
_2-7_ビス
  6
Continuous
 62
     7
100
AcDbLine
 10
729.7239775327382
 20
1229.023721586518
 30
0.0
 11
729.7203859023825
 21
1229.501172983759
 31
0.0
  0
LINE
  5
2ED
330
22
100
AcDbEntity
  8
_2-7_ビス
  6
Continuous
 62
     7
100
AcDbLine
 10
729.7203859023825
 20
1229.501172983759
 30
0.0
 11
729.3997058947588
 21
1229.518458428319
 31
0.0
  0
LINE
  5
2EE
330
22
100
AcDbEntity
  8
_2-7_ビス
  6
Continuous
 62
     7
100
AcDbLine
 10
729.241043854591
 20
1229.765826849218
 30
0.0
 11
729.6913862827381
 21
1230.590388252218
 31
0.0
  0
LINE
  5
2EF
330
22
100
AcDbEntity
  8
_2-7_ビス
  6
Continuous
 62
     7
100
AcDbLine
 10
729.6913862827381
 20
1230.590388252218
 30
0.0
 11
729.6913864348614
 21
1231.067839721213
 31
0.0
  0
LINE
  5
2F0
330
22
100
AcDbEntity
  8
_2-7_ビス
  6
Continuous
 62
     7
100
AcDbLine
 10
729.6913864348614
 20
1231.067839721213
 30
0.0
 11
729.3433540327389
 21
1231.085125094019
 31
0.0
  0
LINE
  5
2F1
330
22
100
AcDbEntity
  8
_2-7_ビス
  6
Continuous
 62
     7
100
AcDbLine
 10
729.1837642830176
 20
1231.332493514918
 30
0.0
 11
729.6913862827381
 21
1232.157054917918
 31
0.0
  0
LINE
  5
2F2
330
22
100
AcDbEntity
  8
_2-7_ビス
  6
Continuous
 62
     7
100
AcDbLine
 10
729.6913862827381
 20
1232.157054917918
 30
0.0
 11
729.6913862827381
 21
1232.634506479027
 31
0.0
  0
LINE
  5
2F3
330
22
100
AcDbEntity
  8
_2-7_ビス
  6
Continuous
 62
     7
100
AcDbLine
 10
729.6913862827381
 20
1232.634506479027
 30
0.0
 11
729.3433540327389
 21
1232.651791759719
 31
0.0
  0
LINE
  5
2F4
330
22
100
AcDbEntity
  8
_2-7_ビス
  6
Continuous
 62
     7
100
AcDbLine
 10
729.1837642830176
 20
1232.899160180618
 30
0.0
 11
729.6913862827381
 21
1233.723721583618
 31
0.0
  0
LINE
  5
2F5
330
22
100
AcDbEntity
  8
_2-7_ビス
  6
Continuous
 62
     7
100
AcDbLine
 10
729.6913862827381
 20
1233.723721583618
 30
0.0
 11
729.6913862827381
 21
1234.201173144727
 31
0.0
  0
LINE
  5
2F6
330
22
100
AcDbEntity
  8
_2-7_ビス
  6
Continuous
 62
     7
100
AcDbLine
 10
729.6913862827381
 20
1234.201173144727
 30
0.0
 11
729.3433540327389
 21
1234.218458425418
 31
0.0
  0
LINE
  5
2F7
330
22
100
AcDbEntity
  8
_2-7_ビス
  6
Continuous
 62
     7
100
AcDbLine
 10
729.1837642830176
 20
1234.465826846318
 30
0.0
 11
729.6913864348614
 21
1235.290388249318
 31
0.0
  0
LINE
  5
2F8
330
22
100
AcDbEntity
  8
_2-7_ビス
  6
Continuous
 62
     7
100
AcDbLine
 10
729.6913864348614
 20
1235.290388249318
 30
0.0
 11
729.6913862827381
 21
1235.785125091119
 31
0.0
  0
LINE
  5
2F9
330
22
100
AcDbEntity
  8
_2-7_ビス
  6
Continuous
 62
     7
100
AcDbLine
 10
729.7239733594534
 20
1236.857055268801
 30
0.0
 11
729.7202881582083
 21
1237.334506737794
 31
0.0
  0
LINE
  5
2FA
330
22
100
AcDbEntity
  8
_2-7_ビス
  6
Continuous
 62
     7
100
AcDbLine
 10
729.7202881582083
 20
1237.334506737794
 30
0.0
 11
729.4028432827388
 21
1237.351791756819
 31
0.0
  0
LINE
  5
2FB
330
22
100
AcDbEntity
  8
_2-7_ビス
  6
Continuous
 62
     7
100
AcDbLine
 10
729.2407511424181
 20
1237.599160177719
 30
0.0
 11
729.6913864348614
 21
1238.423721580719
 31
0.0
  0
LINE
  5
2FC
330
22
100
AcDbEntity
  8
_2-7_ビス
  6
Continuous
 62
     7
100
AcDbLine
 10
729.6913864348614
 20
1238.423721580719
 30
0.0
 11
729.6913864348614
 21
1238.901173049712
 31
0.0
  0
LINE
  5
2FD
330
22
100
AcDbEntity
  8
_2-7_ビス
  6
Continuous
 62
     7
100
AcDbLine
 10
729.6913864348614
 20
1238.901173049712
 30
0.0
 11
729.3433540327389
 21
1238.918458422519
 31
0.0
  0
LINE
  5
2FE
330
22
100
AcDbEntity
  8
_2-7_ビス
  6
Continuous
 62
     7
100
AcDbLine
 10
729.1837642830176
 20
1239.165826843418
 30
0.0
 11
729.6913862827381
 21
1239.990388246418
 31
0.0
  0
LINE
  5
2FF
330
22
100
AcDbEntity
  8
_2-7_ビス
  6
Continuous
 62
     7
100
AcDbLine
 10
729.6913862827381
 20
1239.990388246418
 30
0.0
 11
729.6913864348614
 21
1240.467839715412
 31
0.0
  0
LINE
  5
300
330
22
100
AcDbEntity
  8
_2-7_ビス
  6
Continuous
 62
     7
100
AcDbLine
 10
729.6913864348614
 20
1240.467839715412
 30
0.0
 11
729.3424679402501
 21
1240.485356669378
 31
0.0
  0
LINE
  5
301
330
22
100
AcDbEntity
  8
_2-7_ビス
  6
Continuous
 62
     7
100
AcDbLine
 10
729.1837642830176
 20
1240.732493509119
 30
0.0
 11
729.6913864348614
 21
1241.557054912118
 31
0.0
  0
LINE
  5
302
330
22
100
AcDbEntity
  8
_2-7_ビス
  6
Continuous
 62
     7
100
AcDbLine
 10
729.6913864348614
 20
1241.557054912118
 30
0.0
 11
729.6913862772314
 21
1242.051791753918
 31
0.0
  0
LINE
  5
303
330
22
100
AcDbEntity
  8
_2-7_ビス
  6
Continuous
 62
     7
100
AcDbLine
 10
729.6913862827381
 20
1227.951791762619
 30
0.0
 11
730.2302275327378
 21
1227.951791762619
 31
0.0
  0
LINE
  5
304
330
22
100
AcDbEntity
  8
_2-7_ビス
  6
Continuous
 62
     7
100
AcDbLine
 10
730.2302275327378
 20
1227.951791762619
 30
0.0
 11
730.2302275327378
 21
1224.703550027781
 31
0.0
  0
LINE
  5
305
330
22
100
AcDbEntity
  8
_2-7_ビス
  6
Continuous
 62
     7
100
AcDbLine
 10
730.2302275327378
 20
1224.703550027781
 30
0.0
 11
729.7244417827388
 21
1221.190388258018
 31
0.0
  0
LINE
  5
306
330
22
100
AcDbEntity
  8
_2-7_ビス
  6
Continuous
 62
     7
100
AcDbLine
 10
729.7244417827388
 20
1221.190388258018
 30
0.0
 11
729.7237072650744
 21
1221.667839342159
 31
0.0
  0
LINE
  5
307
330
22
100
AcDbEntity
  8
_2-7_ビス
  6
Continuous
 62
     7
100
AcDbLine
 10
729.7237072650744
 20
1221.667839342159
 30
0.0
 11
729.4150187827376
 21
1221.685125099818
 31
0.0
  0
LINE
  5
308
330
22
100
AcDbEntity
  8
_2-7_ビス
  6
Continuous
 62
     7
100
AcDbLine
 10
729.7244417827388
 20
1221.190388258018
 30
0.0
 11
729.2909649721713
 21
1220.365826855018
 31
0.0
  0
LINE
  5
309
330
22
100
AcDbEntity
  8
_2-7_ビス
  6
Continuous
 62
     7
100
AcDbLine
 10
729.2704622179502
 20
1221.932493520718
 30
0.0
 11
729.7210645514105
 21
1222.757054923718
 31
0.0
  0
LINE
  5
30A
330
22
100
AcDbEntity
  8
_2-7_ビス
  6
Continuous
 62
     7
100
AcDbLine
 10
729.7210645514105
 20
1222.757054923718
 30
0.0
 11
729.7189796471485
 21
1223.234506007858
 31
0.0
  0
LINE
  5
30B
330
22
100
AcDbEntity
  8
_2-7_ビス
  6
Continuous
 62
     7
100
AcDbLine
 10
729.7189796471485
 20
1223.234506007858
 30
0.0
 11
729.3966527827381
 21
1223.251791765518
 31
0.0
  0
LINE
  5
30C
330
22
100
AcDbEntity
  8
_2-7_ビス
  6
Continuous
 62
     7
100
AcDbLine
 10
729.2481472869208
 20
1223.499160186418
 30
0.0
 11
729.7120151462441
 21
1224.323721204564
 31
0.0
  0
LINE
  5
30D
330
22
100
AcDbEntity
  8
_2-7_ビス
  6
Continuous
 62
     7
100
AcDbLine
 10
729.7120151462441
 20
1224.323721204564
 30
0.0
 11
729.7079523055474
 21
1224.80117267356
 31
0.0
  0
LINE
  5
30E
330
22
100
AcDbEntity
  8
_2-7_ビス
  6
Continuous
 62
     7
100
AcDbLine
 10
729.7079523055474
 20
1224.80117267356
 30
0.0
 11
729.3732989502798
 21
1224.818458431218
 31
0.0
  0
LINE
  5
30F
330
22
100
AcDbEntity
  8
_2-7_ビス
  6
Continuous
 62
     7
100
AcDbLine
 10
729.2160443341112
 20
1225.065826852118
 30
0.0
 11
729.6962469583168
 21
1225.890387870264
 31
0.0
  0
LINE
  5
310
330
22
100
AcDbEntity
  8
_2-7_ビス
  6
Continuous
 62
     7
100
AcDbLine
 10
729.6962469583168
 20
1225.890387870264
 30
0.0
 11
729.6913862827381
 21
1226.367839816227
 31
0.0
  0
LINE
  5
311
330
22
100
AcDbEntity
  8
_2-7_ビス
  6
Continuous
 62
     7
100
AcDbLine
 10
729.6913862827381
 20
1226.367839816227
 30
0.0
 11
729.3433540327389
 21
1226.385125096919
 31
0.0
  0
LINE
  5
312
330
22
100
AcDbEntity
  8
_2-7_ビス
  6
Continuous
 62
     7
100
AcDbLine
 10
729.1837642830176
 20
1226.632493517818
 30
0.0
 11
729.6913864348614
 21
1227.457054920818
 31
0.0
  0
LINE
  5
313
330
22
100
AcDbEntity
  8
_2-7_ビス
  6
Continuous
 62
     7
100
AcDbLine
 10
729.6913864348614
 20
1227.457054920818
 30
0.0
 11
729.6913862827381
 21
1227.951791762619
 31
0.0
  0
LINE
  5
314
330
22
100
AcDbEntity
  8
_2-7_ビス
  6
Continuous
 62
     7
100
AcDbLine
 10
729.4208687827375
 20
1220.118458434118
 30
0.0
 11
729.5552275327393
 21
1220.118458434118
 31
0.0
  0
LINE
  5
315
330
22
100
AcDbEntity
  8
_2-7_ビス
  6
Continuous
 62
     7
100
AcDbLine
 10
729.5552275327393
 20
1220.118458434118
 30
0.0
 11
729.5552275327393
 21
1219.335125101268
 31
0.0
  0
LINE
  5
316
330
22
100
AcDbEntity
  8
_2-7_ビス
  6
Continuous
 62
     7
100
AcDbLine
 10
729.5552275327393
 20
1219.335125101268
 30
0.0
 11
729.4052275327378
 21
1219.335125101268
 31
0.0
  0
LINE
  5
317
330
22
100
AcDbEntity
  8
_2-7_ビス
  6
Continuous
 62
     7
100
AcDbLine
 10
729.4052275327378
 20
1219.335125101268
 30
0.0
 11
729.4052275327378
 21
1217.727230365418
 31
0.0
  0
LINE
  5
318
330
22
100
AcDbEntity
  8
_2-7_ビス
  6
Continuous
 62
     7
100
AcDbLine
 10
729.4052275327378
 20
1217.727230365418
 30
0.0
 11
729.3987607219373
 21
1217.727230365418
 31
0.0
  0
LINE
  5
319
330
22
100
AcDbEntity
  8
_2-7_ビス
  6
Continuous
 62
     7
100
AcDbLine
 10
729.3484855327387
 20
1217.397405804219
 30
0.0
 11
729.3484853862
 21
1211.446964211399
 31
0.0
  0
LINE
  5
31A
330
22
100
AcDbEntity
  8
_2-7_ビス
  6
Continuous
 62
     7
100
AcDbLine
 10
729.3484853862
 20
1211.446964211399
 30
0.0
 11
728.9080480327385
 21
1210.795543387239
 31
0.0
  0
LINE
  5
31B
330
22
100
AcDbEntity
  8
_2-7_ビス
  6
Continuous
 62
     7
100
AcDbLine
 10
728.9080480327385
 20
1210.795543387239
 30
0.0
 11
727.9052275327382
 21
1209.481616335418
 31
0.0
  0
LINE
  5
31C
330
22
100
AcDbEntity
  8
_2-7_ビス
  6
Continuous
 62
     7
100
AcDbLine
 10
727.9052275327382
 20
1209.481616335418
 30
0.0
 11
727.7558490532435
 21
1209.481616335418
 31
0.0
  0
LINE
  5
31D
330
22
100
AcDbEntity
  8
_2-7_ビス
  6
Continuous
 62
     7
100
AcDbLine
 10
727.7558490532435
 20
1209.481616335418
 30
0.0
 11
728.8409431625582
 21
1211.446964211399
 31
0.0
  0
LINE
  5
31E
330
22
100
AcDbEntity
  8
_2-7_ビス
  6
Continuous
 62
     7
100
AcDbLine
 10
728.8409431625582
 20
1211.446964211399
 30
0.0
 11
728.8409432827387
 21
1215.418458437018
 31
0.0
  0
LINE
  5
31F
330
22
100
AcDbEntity
  8
_2-7_ビス
  6
Continuous
 62
     7
100
AcDbLine
 10
728.2575797827388
 20
1215.418458437018
 30
0.0
 11
728.2575800561704
 21
1211.446964364097
 31
0.0
  0
LINE
  5
320
330
22
100
AcDbEntity
  8
_2-7_ビス
  6
Continuous
 62
     7
100
AcDbLine
 10
728.2575800561704
 20
1211.446964364097
 30
0.0
 11
727.1724856909378
 21
1209.481616335418
 31
0.0
  0
LINE
  5
321
330
22
100
AcDbEntity
  8
_2-7_ビス
  6
Continuous
 62
     7
100
AcDbLine
 10
727.1724856909378
 20
1209.481616335418
 30
0.0
 11
726.5552275327382
 21
1209.481616335418
 31
0.0
  0
LINE
  5
322
330
22
100
AcDbEntity
  8
_2-7_ビス
  6
Continuous
 62
     7
100
AcDbLine
 10
729.1329276378214
 20
1242.319559587484
 30
0.0
 11
729.1329276378214
 21
1242.319559587484
 31
0.0
  0
LINE
  5
323
330
22
100
AcDbEntity
  8
_2-7_ビス
  6
Continuous
 62
     7
100
AcDbLine
 10
729.1329276378214
 20
1242.319559587484
 30
0.0
 11
729.1197295124667
 21
1242.293300232107
 31
0.0
  0
LINE
  5
324
330
22
100
AcDbEntity
  8
_2-7_ビス
  6
Continuous
 62
     7
100
AcDbLine
 10
729.1197295124667
 20
1242.293300232107
 30
0.0
 11
729.1108794550951
 21
1242.264920142138
 31
0.0
  0
LINE
  5
325
330
22
100
AcDbEntity
  8
_2-7_ビス
  6
Continuous
 62
     7
100
AcDbLine
 10
729.1108794550951
 20
1242.264920142138
 30
0.0
 11
729.1066463702222
 21
1242.23528163225
 31
0.0
  0
LINE
  5
326
330
22
100
AcDbEntity
  8
_2-7_ビス
  6
Continuous
 62
     7
100
AcDbLine
 10
729.1066463702222
 20
1242.23528163225
 30
0.0
 11
729.1071588779894
 21
1242.205285253567
 31
0.0
  0
LINE
  5
327
330
22
100
AcDbEntity
  8
_2-7_ビス
  6
Continuous
 62
     7
100
AcDbLine
 10
729.1071588779894
 20
1242.205285253567
 30
0.0
 11
729.1124014061074
 21
1242.175842430877
 31
0.0
  0
LINE
  5
328
330
22
100
AcDbEntity
  8
_2-7_ビス
  6
Continuous
 62
     7
100
AcDbLine
 10
729.1124014061074
 20
1242.175842430877
 30
0.0
 11
729.1222146630126
 21
1242.147847769449
 31
0.0
  0
LINE
  5
329
330
22
100
AcDbEntity
  8
_2-7_ビス
  6
Continuous
 62
     7
100
AcDbLine
 10
729.1222146630126
 20
1242.147847769449
 30
0.0
 11
729.1363004778595
 21
1242.122151872903
 31
0.0
  0
LINE
  5
32A
330
22
100
AcDbEntity
  8
_2-7_ビス
  6
Continuous
 62
     7
100
AcDbLine
 10
729.1363004778595
 20
1242.122151872903
 30
0.0
 11
729.1542308602919
 21
1242.099535498055
 31
0.0
  0
LINE
  5
32B
330
22
100
AcDbEntity
  8
_2-7_ビス
  6
Continuous
 62
     7
100
AcDbLine
 10
729.1542308602919
 20
1242.099535498055
 30
0.0
 11
729.1754610047123
 21
1242.080685832009
 31
0.0
  0
LINE
  5
32C
330
22
100
AcDbEntity
  8
_2-7_ビス
  6
Continuous
 62
     7
100
AcDbLine
 10
729.1754610047123
 20
1242.080685832009
 30
0.0
 11
729.199345843926
 21
1242.066175612329
 31
0.0
  0
LINE
  5
32D
330
22
100
AcDbEntity
  8
_2-7_ビス
  6
Continuous
 62
     7
100
AcDbLine
 10
729.199345843926
 20
1242.066175612329
 30
0.0
 11
729.2251596491796
 21
1242.056445724699
 31
0.0
  0
LINE
  5
32E
330
22
100
AcDbEntity
  8
_2-7_ビス
  6
Continuous
 62
     7
100
AcDbLine
 10
729.2251596491796
 20
1242.056445724699
 30
0.0
 11
729.2521180810629
 21
1242.05179180683
 31
0.0
  0
LINE
  5
32F
330
22
100
AcDbEntity
  8
_2-7_ビス
  6
Continuous
 62
     7
100
AcDbLine
 10
729.2521180810629
 20
1242.05179180683
 30
0.0
 11
729.2521187827385
 21
1242.051791753918
 31
0.0
  0
LINE
  5
330
330
22
100
AcDbEntity
  8
_2-7_ビス
  6
Continuous
 62
     7
100
AcDbLine
 10
729.1837642830171
 20
1240.732493509118
 30
0.0
 11
729.1837642830171
 21
1240.732493509118
 31
0.0
  0
LINE
  5
331
330
22
100
AcDbEntity
  8
_2-7_ビス
  6
Continuous
 62
     7
100
AcDbLine
 10
729.1837642830171
 20
1240.732493509118
 30
0.0
 11
729.1830931774301
 21
1240.69253535513
 31
0.0
  0
LINE
  5
332
330
22
100
AcDbEntity
  8
_2-7_ビス
  6
Continuous
 62
     7
100
AcDbLine
 10
729.1830931774301
 20
1240.69253535513
 30
0.0
 11
729.188743495994
 21
1240.653056133548
 31
0.0
  0
LINE
  5
333
330
22
100
AcDbEntity
  8
_2-7_ビス
  6
Continuous
 62
     7
100
AcDbLine
 10
729.188743495994
 20
1240.653056133548
 30
0.0
 11
729.2005435566387
 21
1240.615255400542
 31
0.0
  0
LINE
  5
334
330
22
100
AcDbEntity
  8
_2-7_ビス
  6
Continuous
 62
     7
100
AcDbLine
 10
729.2005435566387
 20
1240.615255400542
 30
0.0
 11
729.2181348204925
 21
1240.580281712256
 31
0.0
  0
LINE
  5
335
330
22
100
AcDbEntity
  8
_2-7_ビス
  6
Continuous
 62
     7
100
AcDbLine
 10
729.2181348204925
 20
1240.580281712256
 30
0.0
 11
729.2409827859053
 21
1240.549197726513
 31
0.0
  0
LINE
  5
336
330
22
100
AcDbEntity
  8
_2-7_ビス
  6
Continuous
 62
     7
100
AcDbLine
 10
729.2409827859053
 20
1240.549197726513
 30
0.0
 11
729.2683932290091
 21
1240.522947914489
 31
0.0
  0
LINE
  5
337
330
22
100
AcDbEntity
  8
_2-7_ビス
  6
Continuous
 62
     7
100
AcDbLine
 10
729.2683932290091
 20
1240.522947914489
 30
0.0
 11
729.2995332973605
 21
1240.502329863439
 31
0.0
  0
LINE
  5
338
330
22
100
AcDbEntity
  8
_2-7_ビス
  6
Continuous
 62
     7
100
AcDbLine
 10
729.2995332973605
 20
1240.502329863439
 30
0.0
 11
729.3334568157406
 21
1240.487970042412
 31
0.0
  0
LINE
  5
339
330
22
100
AcDbEntity
  8
_2-7_ビス
  6
Continuous
 62
     7
100
AcDbLine
 10
729.3334568157406
 20
1240.487970042412
 30
0.0
 11
729.3433540327376
 21
1240.485125088218
 31
0.0
  0
LINE
  5
33A
330
22
100
AcDbEntity
  8
_2-7_ビス
  6
Continuous
 62
     7
100
AcDbLine
 10
729.1837642830171
 20
1239.165826843418
 30
0.0
 11
729.1837642830171
 21
1239.165826843418
 31
0.0
  0
LINE
  5
33B
330
22
100
AcDbEntity
  8
_2-7_ビス
  6
Continuous
 62
     7
100
AcDbLine
 10
729.1837642830171
 20
1239.165826843418
 30
0.0
 11
729.1830931774301
 21
1239.12586868943
 31
0.0
  0
LINE
  5
33C
330
22
100
AcDbEntity
  8
_2-7_ビス
  6
Continuous
 62
     7
100
AcDbLine
 10
729.1830931774301
 20
1239.12586868943
 30
0.0
 11
729.188743495994
 21
1239.086389467848
 31
0.0
  0
LINE
  5
33D
330
22
100
AcDbEntity
  8
_2-7_ビス
  6
Continuous
 62
     7
100
AcDbLine
 10
729.188743495994
 20
1239.086389467848
 30
0.0
 11
729.2005435566387
 21
1239.048588734842
 31
0.0
  0
LINE
  5
33E
330
22
100
AcDbEntity
  8
_2-7_ビス
  6
Continuous
 62
     7
100
AcDbLine
 10
729.2005435566387
 20
1239.048588734842
 30
0.0
 11
729.2181348204925
 21
1239.013615046556
 31
0.0
  0
LINE
  5
33F
330
22
100
AcDbEntity
  8
_2-7_ビス
  6
Continuous
 62
     7
100
AcDbLine
 10
729.2181348204925
 20
1239.013615046556
 30
0.0
 11
729.2409827859053
 21
1238.982531060813
 31
0.0
  0
LINE
  5
340
330
22
100
AcDbEntity
  8
_2-7_ビス
  6
Continuous
 62
     7
100
AcDbLine
 10
729.2409827859053
 20
1238.982531060813
 30
0.0
 11
729.2683932290091
 21
1238.956281248789
 31
0.0
  0
LINE
  5
341
330
22
100
AcDbEntity
  8
_2-7_ビス
  6
Continuous
 62
     7
100
AcDbLine
 10
729.2683932290091
 20
1238.956281248789
 30
0.0
 11
729.2995332973605
 21
1238.935663197739
 31
0.0
  0
LINE
  5
342
330
22
100
AcDbEntity
  8
_2-7_ビス
  6
Continuous
 62
     7
100
AcDbLine
 10
729.2995332973605
 20
1238.935663197739
 30
0.0
 11
729.3334568157406
 21
1238.921303376712
 31
0.0
  0
LINE
  5
343
330
22
100
AcDbEntity
  8
_2-7_ビス
  6
Continuous
 62
     7
100
AcDbLine
 10
729.3334568157406
 20
1238.921303376712
 30
0.0
 11
729.3433540327376
 21
1238.918458422518
 31
0.0
  0
LINE
  5
344
330
22
100
AcDbEntity
  8
_2-7_ビス
  6
Continuous
 62
     7
100
AcDbLine
 10
729.2407511424188
 20
1237.599160177718
 30
0.0
 11
729.2407511424188
 21
1237.599160177718
 31
0.0
  0
LINE
  5
345
330
22
100
AcDbEntity
  8
_2-7_ビス
  6
Continuous
 62
     7
100
AcDbLine
 10
729.2407511424188
 20
1237.599160177718
 30
0.0
 11
729.2400800368316
 21
1237.55920202373
 31
0.0
  0
LINE
  5
346
330
22
100
AcDbEntity
  8
_2-7_ビス
  6
Continuous
 62
     7
100
AcDbLine
 10
729.2400800368316
 20
1237.55920202373
 30
0.0
 11
729.2457303553955
 21
1237.519722802147
 31
0.0
  0
LINE
  5
347
330
22
100
AcDbEntity
  8
_2-7_ビス
  6
Continuous
 62
     7
100
AcDbLine
 10
729.2457303553955
 20
1237.519722802147
 30
0.0
 11
729.2575304160403
 21
1237.481922069142
 31
0.0
  0
LINE
  5
348
330
22
100
AcDbEntity
  8
_2-7_ビス
  6
Continuous
 62
     7
100
AcDbLine
 10
729.2575304160403
 20
1237.481922069142
 30
0.0
 11
729.2751216798942
 21
1237.446948380856
 31
0.0
  0
LINE
  5
349
330
22
100
AcDbEntity
  8
_2-7_ビス
  6
Continuous
 62
     7
100
AcDbLine
 10
729.2751216798942
 20
1237.446948380856
 30
0.0
 11
729.2979696453068
 21
1237.415864395113
 31
0.0
  0
LINE
  5
34A
330
22
100
AcDbEntity
  8
_2-7_ビス
  6
Continuous
 62
     7
100
AcDbLine
 10
729.2979696453068
 20
1237.415864395113
 30
0.0
 11
729.3253800884108
 21
1237.389614583088
 31
0.0
  0
LINE
  5
34B
330
22
100
AcDbEntity
  8
_2-7_ビス
  6
Continuous
 62
     7
100
AcDbLine
 10
729.3253800884108
 20
1237.389614583088
 30
0.0
 11
729.356520156762
 21
1237.368996532039
 31
0.0
  0
LINE
  5
34C
330
22
100
AcDbEntity
  8
_2-7_ビス
  6
Continuous
 62
     7
100
AcDbLine
 10
729.356520156762
 20
1237.368996532039
 30
0.0
 11
729.3904436751422
 21
1237.354636711012
 31
0.0
  0
LINE
  5
34D
330
22
100
AcDbEntity
  8
_2-7_ビス
  6
Continuous
 62
     7
100
AcDbLine
 10
729.3904436751422
 20
1237.354636711012
 30
0.0
 11
729.4003408921394
 21
1237.351791756818
 31
0.0
  0
LINE
  5
34E
330
22
100
AcDbEntity
  8
_2-7_ビス
  6
Continuous
 62
     7
100
AcDbLine
 10
729.1837642830171
 20
1234.465826846318
 30
0.0
 11
729.1837642830171
 21
1234.465826846318
 31
0.0
  0
LINE
  5
34F
330
22
100
AcDbEntity
  8
_2-7_ビス
  6
Continuous
 62
     7
100
AcDbLine
 10
729.1837642830171
 20
1234.465826846318
 30
0.0
 11
729.1830931774301
 21
1234.42586869233
 31
0.0
  0
LINE
  5
350
330
22
100
AcDbEntity
  8
_2-7_ビス
  6
Continuous
 62
     7
100
AcDbLine
 10
729.1830931774301
 20
1234.42586869233
 30
0.0
 11
729.188743495994
 21
1234.386389470747
 31
0.0
  0
LINE
  5
351
330
22
100
AcDbEntity
  8
_2-7_ビス
  6
Continuous
 62
     7
100
AcDbLine
 10
729.188743495994
 20
1234.386389470747
 30
0.0
 11
729.2005435566387
 21
1234.348588737742
 31
0.0
  0
LINE
  5
352
330
22
100
AcDbEntity
  8
_2-7_ビス
  6
Continuous
 62
     7
100
AcDbLine
 10
729.2005435566387
 20
1234.348588737742
 30
0.0
 11
729.2181348204925
 21
1234.313615049456
 31
0.0
  0
LINE
  5
353
330
22
100
AcDbEntity
  8
_2-7_ビス
  6
Continuous
 62
     7
100
AcDbLine
 10
729.2181348204925
 20
1234.313615049456
 30
0.0
 11
729.2409827859053
 21
1234.282531063713
 31
0.0
  0
LINE
  5
354
330
22
100
AcDbEntity
  8
_2-7_ビス
  6
Continuous
 62
     7
100
AcDbLine
 10
729.2409827859053
 20
1234.282531063713
 30
0.0
 11
729.2683932290091
 21
1234.256281251689
 31
0.0
  0
LINE
  5
355
330
22
100
AcDbEntity
  8
_2-7_ビス
  6
Continuous
 62
     7
100
AcDbLine
 10
729.2683932290091
 20
1234.256281251689
 30
0.0
 11
729.2995332973605
 21
1234.235663200639
 31
0.0
  0
LINE
  5
356
330
22
100
AcDbEntity
  8
_2-7_ビス
  6
Continuous
 62
     7
100
AcDbLine
 10
729.2995332973605
 20
1234.235663200639
 30
0.0
 11
729.3334568157406
 21
1234.221303379612
 31
0.0
  0
LINE
  5
357
330
22
100
AcDbEntity
  8
_2-7_ビス
  6
Continuous
 62
     7
100
AcDbLine
 10
729.3334568157406
 20
1234.221303379612
 30
0.0
 11
729.3433540327376
 21
1234.218458425418
 31
0.0
  0
LINE
  5
358
330
22
100
AcDbEntity
  8
_2-7_ビス
  6
Continuous
 62
     7
100
AcDbLine
 10
729.1837642830171
 20
1232.899160180618
 30
0.0
 11
729.1837642830171
 21
1232.899160180618
 31
0.0
  0
LINE
  5
359
330
22
100
AcDbEntity
  8
_2-7_ビス
  6
Continuous
 62
     7
100
AcDbLine
 10
729.1837642830171
 20
1232.899160180618
 30
0.0
 11
729.1830931774301
 21
1232.85920202663
 31
0.0
  0
LINE
  5
35A
330
22
100
AcDbEntity
  8
_2-7_ビス
  6
Continuous
 62
     7
100
AcDbLine
 10
729.1830931774301
 20
1232.85920202663
 30
0.0
 11
729.188743495994
 21
1232.819722805047
 31
0.0
  0
LINE
  5
35B
330
22
100
AcDbEntity
  8
_2-7_ビス
  6
Continuous
 62
     7
100
AcDbLine
 10
729.188743495994
 20
1232.819722805047
 30
0.0
 11
729.2005435566387
 21
1232.781922072042
 31
0.0
  0
LINE
  5
35C
330
22
100
AcDbEntity
  8
_2-7_ビス
  6
Continuous
 62
     7
100
AcDbLine
 10
729.2005435566387
 20
1232.781922072042
 30
0.0
 11
729.2181348204925
 21
1232.746948383756
 31
0.0
  0
LINE
  5
35D
330
22
100
AcDbEntity
  8
_2-7_ビス
  6
Continuous
 62
     7
100
AcDbLine
 10
729.2181348204925
 20
1232.746948383756
 30
0.0
 11
729.2409827859053
 21
1232.715864398013
 31
0.0
  0
LINE
  5
35E
330
22
100
AcDbEntity
  8
_2-7_ビス
  6
Continuous
 62
     7
100
AcDbLine
 10
729.2409827859053
 20
1232.715864398013
 30
0.0
 11
729.2683932290091
 21
1232.689614585989
 31
0.0
  0
LINE
  5
35F
330
22
100
AcDbEntity
  8
_2-7_ビス
  6
Continuous
 62
     7
100
AcDbLine
 10
729.2683932290091
 20
1232.689614585989
 30
0.0
 11
729.2995332973605
 21
1232.668996534939
 31
0.0
  0
LINE
  5
360
330
22
100
AcDbEntity
  8
_2-7_ビス
  6
Continuous
 62
     7
100
AcDbLine
 10
729.2995332973605
 20
1232.668996534939
 30
0.0
 11
729.3334568157406
 21
1232.654636713912
 31
0.0
  0
LINE
  5
361
330
22
100
AcDbEntity
  8
_2-7_ビス
  6
Continuous
 62
     7
100
AcDbLine
 10
729.3334568157406
 20
1232.654636713912
 30
0.0
 11
729.3433540327376
 21
1232.651791759718
 31
0.0
  0
LINE
  5
362
330
22
100
AcDbEntity
  8
_2-7_ビス
  6
Continuous
 62
     7
100
AcDbLine
 10
729.1837642830171
 20
1231.332493514918
 30
0.0
 11
729.1837642830171
 21
1231.332493514918
 31
0.0
  0
LINE
  5
363
330
22
100
AcDbEntity
  8
_2-7_ビス
  6
Continuous
 62
     7
100
AcDbLine
 10
729.1837642830171
 20
1231.332493514918
 30
0.0
 11
729.1830931774301
 21
1231.292535360929
 31
0.0
  0
LINE
  5
364
330
22
100
AcDbEntity
  8
_2-7_ビス
  6
Continuous
 62
     7
100
AcDbLine
 10
729.1830931774301
 20
1231.292535360929
 30
0.0
 11
729.188743495994
 21
1231.253056139347
 31
0.0
  0
LINE
  5
365
330
22
100
AcDbEntity
  8
_2-7_ビス
  6
Continuous
 62
     7
100
AcDbLine
 10
729.188743495994
 20
1231.253056139347
 30
0.0
 11
729.2005435566387
 21
1231.215255406342
 31
0.0
  0
LINE
  5
366
330
22
100
AcDbEntity
  8
_2-7_ビス
  6
Continuous
 62
     7
100
AcDbLine
 10
729.2005435566387
 20
1231.215255406342
 30
0.0
 11
729.2181348204925
 21
1231.180281718056
 31
0.0
  0
LINE
  5
367
330
22
100
AcDbEntity
  8
_2-7_ビス
  6
Continuous
 62
     7
100
AcDbLine
 10
729.2181348204925
 20
1231.180281718056
 30
0.0
 11
729.2409827859053
 21
1231.149197732313
 31
0.0
  0
LINE
  5
368
330
22
100
AcDbEntity
  8
_2-7_ビス
  6
Continuous
 62
     7
100
AcDbLine
 10
729.2409827859053
 20
1231.149197732313
 30
0.0
 11
729.2683932290091
 21
1231.122947920288
 31
0.0
  0
LINE
  5
369
330
22
100
AcDbEntity
  8
_2-7_ビス
  6
Continuous
 62
     7
100
AcDbLine
 10
729.2683932290091
 20
1231.122947920288
 30
0.0
 11
729.2995332973605
 21
1231.102329869238
 31
0.0
  0
LINE
  5
36A
330
22
100
AcDbEntity
  8
_2-7_ビス
  6
Continuous
 62
     7
100
AcDbLine
 10
729.2995332973605
 20
1231.102329869238
 30
0.0
 11
729.3334568157406
 21
1231.087970048212
 31
0.0
  0
LINE
  5
36B
330
22
100
AcDbEntity
  8
_2-7_ビス
  6
Continuous
 62
     7
100
AcDbLine
 10
729.3334568157406
 20
1231.087970048212
 30
0.0
 11
729.3433540327376
 21
1231.085125094018
 31
0.0
  0
LINE
  5
36C
330
22
100
AcDbEntity
  8
_2-7_ビス
  6
Continuous
 62
     7
100
AcDbLine
 10
729.2410438545913
 20
1229.765826849218
 30
0.0
 11
729.2410438545913
 21
1229.765826849218
 31
0.0
  0
LINE
  5
36D
330
22
100
AcDbEntity
  8
_2-7_ビス
  6
Continuous
 62
     7
100
AcDbLine
 10
729.2410438545913
 20
1229.765826849218
 30
0.0
 11
729.2403727490043
 21
1229.72586869523
 31
0.0
  0
LINE
  5
36E
330
22
100
AcDbEntity
  8
_2-7_ビス
  6
Continuous
 62
     7
100
AcDbLine
 10
729.2403727490043
 20
1229.72586869523
 30
0.0
 11
729.2460230675683
 21
1229.686389473647
 31
0.0
  0
LINE
  5
36F
330
22
100
AcDbEntity
  8
_2-7_ビス
  6
Continuous
 62
     7
100
AcDbLine
 10
729.2460230675683
 20
1229.686389473647
 30
0.0
 11
729.2578231282131
 21
1229.648588740642
 31
0.0
  0
LINE
  5
370
330
22
100
AcDbEntity
  8
_2-7_ビス
  6
Continuous
 62
     7
100
AcDbLine
 10
729.2578231282131
 20
1229.648588740642
 30
0.0
 11
729.2754143920672
 21
1229.613615052356
 31
0.0
  0
LINE
  5
371
330
22
100
AcDbEntity
  8
_2-7_ビス
  6
Continuous
 62
     7
100
AcDbLine
 10
729.2754143920672
 20
1229.613615052356
 30
0.0
 11
729.2982623574795
 21
1229.582531066613
 31
0.0
  0
LINE
  5
372
330
22
100
AcDbEntity
  8
_2-7_ビス
  6
Continuous
 62
     7
100
AcDbLine
 10
729.2982623574795
 20
1229.582531066613
 30
0.0
 11
729.3256728005833
 21
1229.556281254588
 31
0.0
  0
LINE
  5
373
330
22
100
AcDbEntity
  8
_2-7_ビス
  6
Continuous
 62
     7
100
AcDbLine
 10
729.3256728005833
 20
1229.556281254588
 30
0.0
 11
729.3568128689347
 21
1229.535663203539
 31
0.0
  0
LINE
  5
374
330
22
100
AcDbEntity
  8
_2-7_ビス
  6
Continuous
 62
     7
100
AcDbLine
 10
729.3568128689347
 20
1229.535663203539
 30
0.0
 11
729.3907363873148
 21
1229.521303382512
 31
0.0
  0
LINE
  5
375
330
22
100
AcDbEntity
  8
_2-7_ビス
  6
Continuous
 62
     7
100
AcDbLine
 10
729.3907363873148
 20
1229.521303382512
 30
0.0
 11
729.4006336043121
 21
1229.518458428318
 31
0.0
  0
LINE
  5
376
330
22
100
AcDbEntity
  8
_2-7_ビス
  6
Continuous
 62
     7
100
AcDbLine
 10
729.1837642830171
 20
1226.632493517818
 30
0.0
 11
729.1837642830171
 21
1226.632493517818
 31
0.0
  0
LINE
  5
377
330
22
100
AcDbEntity
  8
_2-7_ビス
  6
Continuous
 62
     7
100
AcDbLine
 10
729.1837642830171
 20
1226.632493517818
 30
0.0
 11
729.1830931774301
 21
1226.592535363829
 31
0.0
  0
LINE
  5
378
330
22
100
AcDbEntity
  8
_2-7_ビス
  6
Continuous
 62
     7
100
AcDbLine
 10
729.1830931774301
 20
1226.592535363829
 30
0.0
 11
729.188743495994
 21
1226.553056142247
 31
0.0
  0
LINE
  5
379
330
22
100
AcDbEntity
  8
_2-7_ビス
  6
Continuous
 62
     7
100
AcDbLine
 10
729.188743495994
 20
1226.553056142247
 30
0.0
 11
729.2005435566387
 21
1226.515255409241
 31
0.0
  0
LINE
  5
37A
330
22
100
AcDbEntity
  8
_2-7_ビス
  6
Continuous
 62
     7
100
AcDbLine
 10
729.2005435566387
 20
1226.515255409241
 30
0.0
 11
729.2181348204925
 21
1226.480281720956
 31
0.0
  0
LINE
  5
37B
330
22
100
AcDbEntity
  8
_2-7_ビス
  6
Continuous
 62
     7
100
AcDbLine
 10
729.2181348204925
 20
1226.480281720956
 30
0.0
 11
729.2409827859053
 21
1226.449197735212
 31
0.0
  0
LINE
  5
37C
330
22
100
AcDbEntity
  8
_2-7_ビス
  6
Continuous
 62
     7
100
AcDbLine
 10
729.2409827859053
 20
1226.449197735212
 30
0.0
 11
729.2683932290091
 21
1226.422947923188
 31
0.0
  0
LINE
  5
37D
330
22
100
AcDbEntity
  8
_2-7_ビス
  6
Continuous
 62
     7
100
AcDbLine
 10
729.2683932290091
 20
1226.422947923188
 30
0.0
 11
729.2995332973605
 21
1226.402329872139
 31
0.0
  0
LINE
  5
37E
330
22
100
AcDbEntity
  8
_2-7_ビス
  6
Continuous
 62
     7
100
AcDbLine
 10
729.2995332973605
 20
1226.402329872139
 30
0.0
 11
729.3334568157406
 21
1226.387970051112
 31
0.0
  0
LINE
  5
37F
330
22
100
AcDbEntity
  8
_2-7_ビス
  6
Continuous
 62
     7
100
AcDbLine
 10
729.3334568157406
 20
1226.387970051112
 30
0.0
 11
729.3433540327376
 21
1226.385125096918
 31
0.0
  0
LINE
  5
380
330
22
100
AcDbEntity
  8
_2-7_ビス
  6
Continuous
 62
     7
100
AcDbLine
 10
729.2160443341116
 20
1225.065826852118
 30
0.0
 11
729.2160443341116
 21
1225.065826852118
 31
0.0
  0
LINE
  5
381
330
22
100
AcDbEntity
  8
_2-7_ビス
  6
Continuous
 62
     7
100
AcDbLine
 10
729.2160443341116
 20
1225.065826852118
 30
0.0
 11
729.2153732285246
 21
1225.025868698129
 31
0.0
  0
LINE
  5
382
330
22
100
AcDbEntity
  8
_2-7_ビス
  6
Continuous
 62
     7
100
AcDbLine
 10
729.2153732285246
 20
1225.025868698129
 30
0.0
 11
729.2210235470886
 21
1224.986389476548
 31
0.0
  0
LINE
  5
383
330
22
100
AcDbEntity
  8
_2-7_ビス
  6
Continuous
 62
     7
100
AcDbLine
 10
729.2210235470886
 20
1224.986389476548
 30
0.0
 11
729.2328236077334
 21
1224.948588743542
 31
0.0
  0
LINE
  5
384
330
22
100
AcDbEntity
  8
_2-7_ビス
  6
Continuous
 62
     7
100
AcDbLine
 10
729.2328236077334
 20
1224.948588743542
 30
0.0
 11
729.2504148715874
 21
1224.913615055256
 31
0.0
  0
LINE
  5
385
330
22
100
AcDbEntity
  8
_2-7_ビス
  6
Continuous
 62
     7
100
AcDbLine
 10
729.2504148715874
 20
1224.913615055256
 30
0.0
 11
729.2732628369998
 21
1224.882531069513
 31
0.0
  0
LINE
  5
386
330
22
100
AcDbEntity
  8
_2-7_ビス
  6
Continuous
 62
     7
100
AcDbLine
 10
729.2732628369998
 20
1224.882531069513
 30
0.0
 11
729.3006732801036
 21
1224.856281257488
 31
0.0
  0
LINE
  5
387
330
22
100
AcDbEntity
  8
_2-7_ビス
  6
Continuous
 62
     7
100
AcDbLine
 10
729.3006732801036
 20
1224.856281257488
 30
0.0
 11
729.331813348455
 21
1224.835663206438
 31
0.0
  0
LINE
  5
388
330
22
100
AcDbEntity
  8
_2-7_ビス
  6
Continuous
 62
     7
100
AcDbLine
 10
729.331813348455
 20
1224.835663206438
 30
0.0
 11
729.3657368668351
 21
1224.821303385411
 31
0.0
  0
LINE
  5
389
330
22
100
AcDbEntity
  8
_2-7_ビス
  6
Continuous
 62
     7
100
AcDbLine
 10
729.3657368668351
 20
1224.821303385411
 30
0.0
 11
729.3756340838324
 21
1224.818458431218
 31
0.0
  0
LINE
  5
38A
330
22
100
AcDbEntity
  8
_2-7_ビス
  6
Continuous
 62
     7
100
AcDbLine
 10
729.2481472869201
 20
1223.499160186418
 30
0.0
 11
729.2481472869201
 21
1223.499160186418
 31
0.0
  0
LINE
  5
38B
330
22
100
AcDbEntity
  8
_2-7_ビス
  6
Continuous
 62
     7
100
AcDbLine
 10
729.2481472869201
 20
1223.499160186418
 30
0.0
 11
729.247476181333
 21
1223.459202032429
 31
0.0
  0
LINE
  5
38C
330
22
100
AcDbEntity
  8
_2-7_ビス
  6
Continuous
 62
     7
100
AcDbLine
 10
729.247476181333
 20
1223.459202032429
 30
0.0
 11
729.2531264998971
 21
1223.419722810847
 31
0.0
  0
LINE
  5
38D
330
22
100
AcDbEntity
  8
_2-7_ビス
  6
Continuous
 62
     7
100
AcDbLine
 10
729.2531264998971
 20
1223.419722810847
 30
0.0
 11
729.2649265605416
 21
1223.381922077841
 31
0.0
  0
LINE
  5
38E
330
22
100
AcDbEntity
  8
_2-7_ビス
  6
Continuous
 62
     7
100
AcDbLine
 10
729.2649265605416
 20
1223.381922077841
 30
0.0
 11
729.2825178243957
 21
1223.346948389556
 31
0.0
  0
LINE
  5
38F
330
22
100
AcDbEntity
  8
_2-7_ビス
  6
Continuous
 62
     7
100
AcDbLine
 10
729.2825178243957
 20
1223.346948389556
 30
0.0
 11
729.3053657898083
 21
1223.315864403813
 31
0.0
  0
LINE
  5
390
330
22
100
AcDbEntity
  8
_2-7_ビス
  6
Continuous
 62
     7
100
AcDbLine
 10
729.3053657898083
 20
1223.315864403813
 30
0.0
 11
729.3327762329121
 21
1223.289614591788
 31
0.0
  0
LINE
  5
391
330
22
100
AcDbEntity
  8
_2-7_ビス
  6
Continuous
 62
     7
100
AcDbLine
 10
729.3327762329121
 20
1223.289614591788
 30
0.0
 11
729.3639163012634
 21
1223.268996540739
 31
0.0
  0
LINE
  5
392
330
22
100
AcDbEntity
  8
_2-7_ビス
  6
Continuous
 62
     7
100
AcDbLine
 10
729.3639163012634
 20
1223.268996540739
 30
0.0
 11
729.3978398196435
 21
1223.254636719711
 31
0.0
  0
LINE
  5
393
330
22
100
AcDbEntity
  8
_2-7_ビス
  6
Continuous
 62
     7
100
AcDbLine
 10
729.3978398196435
 20
1223.254636719711
 30
0.0
 11
729.4077370366408
 21
1223.251791765518
 31
0.0
  0
LINE
  5
394
330
22
100
AcDbEntity
  8
_2-7_ビス
  6
Continuous
 62
     7
100
AcDbLine
 10
729.2704622179496
 20
1221.932493520719
 30
0.0
 11
729.2704622179496
 21
1221.932493520719
 31
0.0
  0
LINE
  5
395
330
22
100
AcDbEntity
  8
_2-7_ビス
  6
Continuous
 62
     7
100
AcDbLine
 10
729.2704622179496
 20
1221.932493520719
 30
0.0
 11
729.2697911123625
 21
1221.892535366731
 31
0.0
  0
LINE
  5
396
330
22
100
AcDbEntity
  8
_2-7_ビス
  6
Continuous
 62
     7
100
AcDbLine
 10
729.2697911123625
 20
1221.892535366731
 30
0.0
 11
729.2754414309265
 21
1221.853056145148
 31
0.0
  0
LINE
  5
397
330
22
100
AcDbEntity
  8
_2-7_ビス
  6
Continuous
 62
     7
100
AcDbLine
 10
729.2754414309265
 20
1221.853056145148
 30
0.0
 11
729.2872414915713
 21
1221.815255412143
 31
0.0
  0
LINE
  5
398
330
22
100
AcDbEntity
  8
_2-7_ビス
  6
Continuous
 62
     7
100
AcDbLine
 10
729.2872414915713
 20
1221.815255412143
 30
0.0
 11
729.3048327554252
 21
1221.780281723857
 31
0.0
  0
LINE
  5
399
330
22
100
AcDbEntity
  8
_2-7_ビス
  6
Continuous
 62
     7
100
AcDbLine
 10
729.3048327554252
 20
1221.780281723857
 30
0.0
 11
729.3276807208378
 21
1221.749197738114
 31
0.0
  0
LINE
  5
39A
330
22
100
AcDbEntity
  8
_2-7_ビス
  6
Continuous
 62
     7
100
AcDbLine
 10
729.3276807208378
 20
1221.749197738114
 30
0.0
 11
729.3550911639417
 21
1221.722947926089
 31
0.0
  0
LINE
  5
39B
330
22
100
AcDbEntity
  8
_2-7_ビス
  6
Continuous
 62
     7
100
AcDbLine
 10
729.3550911639417
 20
1221.722947926089
 30
0.0
 11
729.386231232293
 21
1221.70232987504
 31
0.0
  0
LINE
  5
39C
330
22
100
AcDbEntity
  8
_2-7_ビス
  6
Continuous
 62
     7
100
AcDbLine
 10
729.386231232293
 20
1221.70232987504
 30
0.0
 11
729.4201547506731
 21
1221.687970054013
 31
0.0
  0
LINE
  5
39D
330
22
100
AcDbEntity
  8
_2-7_ビス
  6
Continuous
 62
     7
100
AcDbLine
 10
729.4201547506731
 20
1221.687970054013
 30
0.0
 11
729.4300519676702
 21
1221.685125099819
 31
0.0
  0
LINE
  5
39E
330
22
100
AcDbEntity
  8
_2-7_ビス
  6
Continuous
 62
     7
100
AcDbLine
 10
729.3039647968843
 20
1220.390555175989
 30
0.0
 11
729.3039647968843
 21
1220.390555175989
 31
0.0
  0
LINE
  5
39F
330
22
100
AcDbEntity
  8
_2-7_ビス
  6
Continuous
 62
     7
100
AcDbLine
 10
729.3039647968843
 20
1220.390555175989
 30
0.0
 11
729.2903026451341
 21
1220.364267174011
 31
0.0
  0
LINE
  5
3A0
330
22
100
AcDbEntity
  8
_2-7_ビス
  6
Continuous
 62
     7
100
AcDbLine
 10
729.2903026451341
 20
1220.364267174011
 30
0.0
 11
729.2810001355858
 21
1220.335770284697
 31
0.0
  0
LINE
  5
3A1
330
22
100
AcDbEntity
  8
_2-7_ビス
  6
Continuous
 62
     7
100
AcDbLine
 10
729.2810001355858
 20
1220.335770284697
 30
0.0
 11
729.2763399202841
 21
1220.305930371609
 31
0.0
  0
LINE
  5
3A2
330
22
100
AcDbEntity
  8
_2-7_ビス
  6
Continuous
 62
     7
100
AcDbLine
 10
729.2763399202841
 20
1220.305930371609
 30
0.0
 11
729.2764635975133
 21
1220.275654105405
 31
0.0
  0
LINE
  5
3A3
330
22
100
AcDbEntity
  8
_2-7_ビス
  6
Continuous
 62
     7
100
AcDbLine
 10
729.2764635975133
 20
1220.275654105405
 30
0.0
 11
729.2813674094034
 21
1220.245861415115
 31
0.0
  0
LINE
  5
3A4
330
22
100
AcDbEntity
  8
_2-7_ビス
  6
Continuous
 62
     7
100
AcDbLine
 10
729.2813674094034
 20
1220.245861415115
 30
0.0
 11
729.290902356111
 21
1220.217457536555
 31
0.0
  0
LINE
  5
3A5
330
22
100
AcDbEntity
  8
_2-7_ビス
  6
Continuous
 62
     7
100
AcDbLine
 10
729.290902356111
 20
1220.217457536555
 30
0.0
 11
729.3047787231057
 21
1220.191305507204
 31
0.0
  0
LINE
  5
3A6
330
22
100
AcDbEntity
  8
_2-7_ビス
  6
Continuous
 62
     7
100
AcDbLine
 10
729.3047787231057
 20
1220.191305507204
 30
0.0
 11
729.322574883998
 21
1220.16819994324
 31
0.0
  0
LINE
  5
3A7
330
22
100
AcDbEntity
  8
_2-7_ビス
  6
Continuous
 62
     7
100
AcDbLine
 10
729.322574883998
 20
1220.16819994324
 30
0.0
 11
729.3437501114446
 21
1220.148842895531
 31
0.0
  0
LINE
  5
3A8
330
22
100
AcDbEntity
  8
_2-7_ビス
  6
Continuous
 62
     7
100
AcDbLine
 10
729.3437501114446
 20
1220.148842895531
 30
0.0
 11
729.3676610068748
 21
1220.133822518178
 31
0.0
  0
LINE
  5
3A9
330
22
100
AcDbEntity
  8
_2-7_ビス
  6
Continuous
 62
     7
100
AcDbLine
 10
729.3676610068748
 20
1220.133822518178
 30
0.0
 11
729.3935810498303
 21
1220.123595197745
 31
0.0
  0
LINE
  5
3AA
330
22
100
AcDbEntity
  8
_2-7_ビス
  6
Continuous
 62
     7
100
AcDbLine
 10
729.3935810498303
 20
1220.123595197745
 30
0.0
 11
729.420722672922
 21
1220.118471686189
 31
0.0
  0
LINE
  5
3AB
330
22
100
AcDbEntity
  8
_2-7_ビス
  6
Continuous
 62
     7
100
AcDbLine
 10
729.420722672922
 20
1220.118471686189
 30
0.0
 11
729.4208687827382
 21
1220.118458434119
 31
0.0
  0
LINE
  5
3AC
330
22
100
AcDbEntity
  8
_2-7_ビス
  6
Continuous
 62
     7
100
AcDbLine
 10
729.7239775327389
 20
1229.023721586518
 30
0.0
 11
729.7239775327389
 21
1229.023721586518
 31
0.0
  0
LINE
  5
3AD
330
22
100
AcDbEntity
  8
_2-7_ビス
  6
Continuous
 62
     7
100
AcDbLine
 10
729.7239775327389
 20
1229.023721586518
 30
0.0
 11
729.6396517019452
 21
1229.011461629871
 31
0.0
  0
LINE
  5
3AE
330
22
100
AcDbEntity
  8
_2-7_ビス
  6
Continuous
 62
     7
100
AcDbLine
 10
729.6396517019452
 20
1229.011461629871
 30
0.0
 11
729.5585433804872
 21
1228.983289163164
 31
0.0
  0
LINE
  5
3AF
330
22
100
AcDbEntity
  8
_2-7_ビス
  6
Continuous
 62
     7
100
AcDbLine
 10
729.5585433804872
 20
1228.983289163164
 30
0.0
 11
729.4831170036689
 21
1228.940060192542
 31
0.0
  0
LINE
  5
3B0
330
22
100
AcDbEntity
  8
_2-7_ビス
  6
Continuous
 62
     7
100
AcDbLine
 10
729.4831170036689
 20
1228.940060192542
 30
0.0
 11
729.4156643637832
 21
1228.883088208403
 31
0.0
  0
LINE
  5
3B1
330
22
100
AcDbEntity
  8
_2-7_ビス
  6
Continuous
 62
     7
100
AcDbLine
 10
729.4156643637832
 20
1228.883088208403
 30
0.0
 11
729.3582349751599
 21
1228.814104275657
 31
0.0
  0
LINE
  5
3B2
330
22
100
AcDbEntity
  8
_2-7_ビス
  6
Continuous
 62
     7
100
AcDbLine
 10
729.3582349751599
 20
1228.814104275657
 30
0.0
 11
729.3125738007113
 21
1228.735204436191
 31
0.0
  0
LINE
  5
3B3
330
22
100
AcDbEntity
  8
_2-7_ビス
  6
Continuous
 62
     7
100
AcDbLine
 10
729.3125738007113
 20
1228.735204436191
 30
0.0
 11
729.2800682321182
 21
1228.648786021703
 31
0.0
  0
LINE
  5
3B4
330
22
100
AcDbEntity
  8
_2-7_ビス
  6
Continuous
 62
     7
100
AcDbLine
 10
729.2800682321182
 20
1228.648786021703
 30
0.0
 11
729.2617059346331
 21
1228.557474811986
 31
0.0
  0
LINE
  5
3B5
330
22
100
AcDbEntity
  8
_2-7_ビス
  6
Continuous
 62
     7
100
AcDbLine
 10
729.2617059346331
 20
1228.557474811986
 30
0.0
 11
729.2580448373735
 21
1228.464045251944
 31
0.0
  0
LINE
  5
3B6
330
22
100
AcDbEntity
  8
_2-7_ビス
  6
Continuous
 62
     7
100
AcDbLine
 10
729.2580448373735
 20
1228.464045251944
 30
0.0
 11
729.269196180927
 21
1228.371336151479
 31
0.0
  0
LINE
  5
3B7
330
22
100
AcDbEntity
  8
_2-7_ビス
  6
Continuous
 62
     7
100
AcDbLine
 10
729.269196180927
 20
1228.371336151479
 30
0.0
 11
729.2948211373625
 21
1228.282164429697
 31
0.0
  0
LINE
  5
3B8
330
22
100
AcDbEntity
  8
_2-7_ビス
  6
Continuous
 62
     7
100
AcDbLine
 10
729.2948211373625
 20
1228.282164429697
 30
0.0
 11
729.3341411053456
 21
1228.199239524241
 31
0.0
  0
LINE
  5
3B9
330
22
100
AcDbEntity
  8
_2-7_ビス
  6
Continuous
 62
     7
100
AcDbLine
 10
729.3341411053456
 20
1228.199239524241
 30
0.0
 11
729.3859613675461
 21
1228.1250810664
 31
0.0
  0
LINE
  5
3BA
330
22
100
AcDbEntity
  8
_2-7_ビス
  6
Continuous
 62
     7
100
AcDbLine
 10
729.3859613675461
 20
1228.1250810664
 30
0.0
 11
729.4487073915193
 21
1228.061942323391
 31
0.0
  0
LINE
  5
3BB
330
22
100
AcDbEntity
  8
_2-7_ビス
  6
Continuous
 62
     7
100
AcDbLine
 10
729.4487073915193
 20
1228.061942323391
 30
0.0
 11
729.5204726710782
 21
1228.011741733971
 31
0.0
  0
LINE
  5
3BC
330
22
100
AcDbEntity
  8
_2-7_ビス
  6
Continuous
 62
     7
100
AcDbLine
 10
729.5204726710782
 20
1228.011741733971
 30
0.0
 11
729.599076654517
 21
1227.976004617644
 31
0.0
  0
LINE
  5
3BD
330
22
100
AcDbEntity
  8
_2-7_ビス
  6
Continuous
 62
     7
100
AcDbLine
 10
729.599076654517
 20
1227.976004617644
 30
0.0
 11
729.6821309995764
 21
1227.955816828609
 31
0.0
  0
LINE
  5
3BE
330
22
100
AcDbEntity
  8
_2-7_ビス
  6
Continuous
 62
     7
100
AcDbLine
 10
729.6821309995764
 20
1227.955816828609
 30
0.0
 11
729.7239775327389
 21
1227.951791762618
 31
0.0
  0
LINE
  5
3BF
330
22
100
AcDbEntity
  8
_2-7_ビス
  6
Continuous
 62
     7
100
AcDbLine
 10
729.7239775327389
 20
1236.857054915019
 30
0.0
 11
729.7239775327389
 21
1236.857054915019
 31
0.0
  0
LINE
  5
3C0
330
22
100
AcDbEntity
  8
_2-7_ビス
  6
Continuous
 62
     7
100
AcDbLine
 10
729.7239775327389
 20
1236.857054915019
 30
0.0
 11
729.6396517019452
 21
1236.844794958371
 31
0.0
  0
LINE
  5
3C1
330
22
100
AcDbEntity
  8
_2-7_ビス
  6
Continuous
 62
     7
100
AcDbLine
 10
729.6396517019452
 20
1236.844794958371
 30
0.0
 11
729.5585433804872
 21
1236.816622491664
 31
0.0
  0
LINE
  5
3C2
330
22
100
AcDbEntity
  8
_2-7_ビス
  6
Continuous
 62
     7
100
AcDbLine
 10
729.5585433804872
 20
1236.816622491664
 30
0.0
 11
729.4831170036689
 21
1236.773393521042
 31
0.0
  0
LINE
  5
3C3
330
22
100
AcDbEntity
  8
_2-7_ビス
  6
Continuous
 62
     7
100
AcDbLine
 10
729.4831170036689
 20
1236.773393521042
 30
0.0
 11
729.4156643637832
 21
1236.716421536904
 31
0.0
  0
LINE
  5
3C4
330
22
100
AcDbEntity
  8
_2-7_ビス
  6
Continuous
 62
     7
100
AcDbLine
 10
729.4156643637832
 20
1236.716421536904
 30
0.0
 11
729.3582349751599
 21
1236.647437604157
 31
0.0
  0
LINE
  5
3C5
330
22
100
AcDbEntity
  8
_2-7_ビス
  6
Continuous
 62
     7
100
AcDbLine
 10
729.3582349751599
 20
1236.647437604157
 30
0.0
 11
729.3125738007113
 21
1236.568537764691
 31
0.0
  0
LINE
  5
3C6
330
22
100
AcDbEntity
  8
_2-7_ビス
  6
Continuous
 62
     7
100
AcDbLine
 10
729.3125738007113
 20
1236.568537764691
 30
0.0
 11
729.2800682321182
 21
1236.482119350203
 31
0.0
  0
LINE
  5
3C7
330
22
100
AcDbEntity
  8
_2-7_ビス
  6
Continuous
 62
     7
100
AcDbLine
 10
729.2800682321182
 20
1236.482119350203
 30
0.0
 11
729.2617059346331
 21
1236.390808140487
 31
0.0
  0
LINE
  5
3C8
330
22
100
AcDbEntity
  8
_2-7_ビス
  6
Continuous
 62
     7
100
AcDbLine
 10
729.2617059346331
 20
1236.390808140487
 30
0.0
 11
729.2580448373735
 21
1236.297378580444
 31
0.0
  0
LINE
  5
3C9
330
22
100
AcDbEntity
  8
_2-7_ビス
  6
Continuous
 62
     7
100
AcDbLine
 10
729.2580448373735
 20
1236.297378580444
 30
0.0
 11
729.269196180927
 21
1236.20466947998
 31
0.0
  0
LINE
  5
3CA
330
22
100
AcDbEntity
  8
_2-7_ビス
  6
Continuous
 62
     7
100
AcDbLine
 10
729.269196180927
 20
1236.20466947998
 30
0.0
 11
729.2948211373625
 21
1236.115497758198
 31
0.0
  0
LINE
  5
3CB
330
22
100
AcDbEntity
  8
_2-7_ビス
  6
Continuous
 62
     7
100
AcDbLine
 10
729.2948211373625
 20
1236.115497758198
 30
0.0
 11
729.3341411053456
 21
1236.032572852741
 31
0.0
  0
LINE
  5
3CC
330
22
100
AcDbEntity
  8
_2-7_ビス
  6
Continuous
 62
     7
100
AcDbLine
 10
729.3341411053456
 20
1236.032572852741
 30
0.0
 11
729.3859613675461
 21
1235.9584143949
 31
0.0
  0
LINE
  5
3CD
330
22
100
AcDbEntity
  8
_2-7_ビス
  6
Continuous
 62
     7
100
AcDbLine
 10
729.3859613675461
 20
1235.9584143949
 30
0.0
 11
729.4487073915193
 21
1235.895275651891
 31
0.0
  0
LINE
  5
3CE
330
22
100
AcDbEntity
  8
_2-7_ビス
  6
Continuous
 62
     7
100
AcDbLine
 10
729.4487073915193
 20
1235.895275651891
 30
0.0
 11
729.5204726710782
 21
1235.84507506247
 31
0.0
  0
LINE
  5
3CF
330
22
100
AcDbEntity
  8
_2-7_ビス
  6
Continuous
 62
     7
100
AcDbLine
 10
729.5204726710782
 20
1235.84507506247
 30
0.0
 11
729.599076654517
 21
1235.809337946145
 31
0.0
  0
LINE
  5
3D0
330
22
100
AcDbEntity
  8
_2-7_ビス
  6
Continuous
 62
     7
100
AcDbLine
 10
729.599076654517
 20
1235.809337946145
 30
0.0
 11
729.6821309995764
 21
1235.789150157109
 31
0.0
  0
LINE
  5
3D1
330
22
100
AcDbEntity
  8
_2-7_ビス
  6
Continuous
 62
     7
100
AcDbLine
 10
729.6821309995764
 20
1235.789150157109
 30
0.0
 11
729.7239775327389
 21
1235.785125091118
 31
0.0
  0
LINE
  5
3D2
330
22
100
AcDbEntity
  8
_2-7_ビス
  6
Continuous
 62
     7
100
AcDbLine
 10
729.3987607219368
 20
1217.727230365418
 30
0.0
 11
729.3987607219368
 21
1217.727230365418
 31
0.0
  0
LINE
  5
3D3
330
22
100
AcDbEntity
  8
_2-7_ビス
  6
Continuous
 62
     7
100
AcDbLine
 10
729.3987607219368
 20
1217.727230365418
 30
0.0
 11
729.3625755080348
 21
1217.593646038651
 31
0.0
  0
LINE
  5
3D4
330
22
100
AcDbEntity
  8
_2-7_ビス
  6
Continuous
 62
     7
100
AcDbLine
 10
729.3625755080348
 20
1217.593646038651
 30
0.0
 11
729.3480391320936
 21
1217.455182986435
 31
0.0
  0
LINE
  5
3D5
330
22
100
AcDbEntity
  8
_2-7_ビス
  6
Continuous
 62
     7
100
AcDbLine
 10
729.3480391320936
 20
1217.455182986435
 30
0.0
 11
729.3484853888485
 21
1217.397405804218
 31
0.0
  0
LINE
  5
3D6
330
22
100
AcDbEntity
  8
_2-7_ビス
  6
Continuous
 62
     7
100
AcDbLine
 10
728.8409432827387
 20
1215.418458437018
 30
0.0
 11
728.8409432827387
 21
1215.418458437018
 31
0.0
  0
LINE
  5
3D7
330
22
100
AcDbEntity
  8
_2-7_ビス
  6
Continuous
 62
     7
100
AcDbLine
 10
728.8409432827387
 20
1215.418458437018
 30
0.0
 11
728.834902505196
 21
1215.473989012196
 31
0.0
  0
LINE
  5
3D8
330
22
100
AcDbEntity
  8
_2-7_ビス
  6
Continuous
 62
     7
100
AcDbLine
 10
728.834902505196
 20
1215.473989012196
 30
0.0
 11
728.8201826712461
 21
1215.52752269958
 31
0.0
  0
LINE
  5
3D9
330
22
100
AcDbEntity
  8
_2-7_ビス
  6
Continuous
 62
     7
100
AcDbLine
 10
728.8201826712461
 20
1215.52752269958
 30
0.0
 11
728.7972310355958
 21
1215.57743290517
 31
0.0
  0
LINE
  5
3DA
330
22
100
AcDbEntity
  8
_2-7_ビス
  6
Continuous
 62
     7
100
AcDbLine
 10
728.7972310355958
 20
1215.57743290517
 30
0.0
 11
728.7667449720796
 21
1215.622203132624
 31
0.0
  0
LINE
  5
3DB
330
22
100
AcDbEntity
  8
_2-7_ビス
  6
Continuous
 62
     7
100
AcDbLine
 10
728.7667449720796
 20
1215.622203132624
 30
0.0
 11
728.729650784311
 21
1215.660473061234
 31
0.0
  0
LINE
  5
3DC
330
22
100
AcDbEntity
  8
_2-7_ビス
  6
Continuous
 62
     7
100
AcDbLine
 10
728.729650784311
 20
1215.660473061234
 30
0.0
 11
728.6870755604147
 21
1215.691079878587
 31
0.0
  0
LINE
  5
3DD
330
22
100
AcDbEntity
  8
_2-7_ビス
  6
Continuous
 62
     7
100
AcDbLine
 10
728.6870755604147
 20
1215.691079878587
 30
0.0
 11
728.6403129270246
 21
1215.713093612025
 31
0.0
  0
LINE
  5
3DE
330
22
100
AcDbEntity
  8
_2-7_ビス
  6
Continuous
 62
     7
100
AcDbLine
 10
728.6403129270246
 20
1215.713093612025
 30
0.0
 11
728.5907837430935
 21
1215.725845385397
 31
0.0
  0
LINE
  5
3DF
330
22
100
AcDbEntity
  8
_2-7_ビス
  6
Continuous
 62
     7
100
AcDbLine
 10
728.5907837430935
 20
1215.725845385397
 30
0.0
 11
728.5399929278122
 21
1215.728947742521
 31
0.0
  0
LINE
  5
3E0
330
22
100
AcDbEntity
  8
_2-7_ビス
  6
Continuous
 62
     7
100
AcDbLine
 10
728.5399929278122
 20
1215.728947742521
 30
0.0
 11
728.4894837344012
 21
1215.722306419847
 31
0.0
  0
LINE
  5
3E1
330
22
100
AcDbEntity
  8
_2-7_ビス
  6
Continuous
 62
     7
100
AcDbLine
 10
728.4894837344012
 20
1215.722306419847
 30
0.0
 11
728.4407908591438
 21
1215.706123210602
 31
0.0
  0
LINE
  5
3E2
330
22
100
AcDbEntity
  8
_2-7_ビス
  6
Continuous
 62
     7
100
AcDbLine
 10
728.4407908591438
 20
1215.706123210602
 30
0.0
 11
728.3953938104147
 21
1215.680889833411
 31
0.0
  0
LINE
  5
3E3
330
22
100
AcDbEntity
  8
_2-7_ビス
  6
Continuous
 62
     7
100
AcDbLine
 10
728.3953938104147
 20
1215.680889833411
 30
0.0
 11
728.3546719545675
 21
1215.647372991672
 31
0.0
  0
LINE
  5
3E4
330
22
100
AcDbEntity
  8
_2-7_ビス
  6
Continuous
 62
     7
100
AcDbLine
 10
728.3546719545675
 20
1215.647372991672
 30
0.0
 11
728.3198626045861
 21
1215.606591077659
 31
0.0
  0
LINE
  5
3E5
330
22
100
AcDbEntity
  8
_2-7_ビス
  6
Continuous
 62
     7
100
AcDbLine
 10
728.3198626045861
 20
1215.606591077659
 30
0.0
 11
728.2920234249553
 21
1215.559783229193
 31
0.0
  0
LINE
  5
3E6
330
22
100
AcDbEntity
  8
_2-7_ビス
  6
Continuous
 62
     7
100
AcDbLine
 10
728.2920234249553
 20
1215.559783229193
 30
0.0
 11
728.2720002950604
 21
1215.508371679065
 31
0.0
  0
LINE
  5
3E7
330
22
100
AcDbEntity
  8
_2-7_ビス
  6
Continuous
 62
     7
100
AcDbLine
 10
728.2720002950604
 20
1215.508371679065
 30
0.0
 11
728.2604016075715
 21
1215.45391854121
 31
0.0
  0
LINE
  5
3E8
330
22
100
AcDbEntity
  8
_2-7_ビス
  6
Continuous
 62
     7
100
AcDbLine
 10
728.2604016075715
 20
1215.45391854121
 30
0.0
 11
728.2575797827388
 21
1215.398078346666
 31
0.0
  0
LINE
  5
3E9
330
22
100
AcDbEntity
  8
_2-7_ビス
  6
Continuous
 62
     7
100
AcDbLine
 10
728.2575797827388
 20
1215.398078346666
 30
0.0
 11
728.2575797827388
 21
1215.398078346666
 31
0.0
  0
LINE
  5
3EA
330
22
100
AcDbEntity
  8
_2-7_ビス
  6
Continuous
 62
     7
100
AcDbLine
 10
723.5552275327377
 20
1252.386131133507
 30
0.0
 11
723.5552275327377
 21
1256.481616306419
 31
0.0
  0
LINE
  5
3EB
330
22
100
AcDbEntity
  8
_2-7_ビス
  6
Continuous
 62
     7
100
AcDbLine
 10
723.5552275327377
 20
1256.481616306419
 30
0.0
 11
726.5552275327382
 21
1256.481616306419
 31
0.0
  0
LINE
  5
3EC
330
22
100
AcDbEntity
  8
_2-7_ビス
  6
Continuous
 62
     7
100
AcDbLine
 10
723.5552275327377
 20
1252.386131133507
 30
0.0
 11
722.8052275327383
 21
1251.561570213303
 31
0.0
  0
LINE
  5
3ED
330
22
100
AcDbEntity
  8
_2-7_ビス
  6
Continuous
 62
     7
100
AcDbLine
 10
722.8052275327383
 20
1251.561570213303
 30
0.0
 11
722.8052275327383
 21
1249.462964486188
 31
0.0
  0
LINE
  5
3EE
330
22
100
AcDbEntity
  8
_2-7_ビス
  6
Continuous
 62
     7
100
AcDbLine
 10
722.8052275327383
 20
1249.462964486188
 30
0.0
 11
723.3534467827388
 21
1245.345371172939
 31
0.0
  0
LINE
  5
3EF
330
22
100
AcDbEntity
  8
_2-7_ビス
  6
Continuous
 62
     7
100
AcDbLine
 10
723.3534467827388
 20
1245.345371172939
 30
0.0
 11
723.5953705327387
 21
1244.937756664418
 31
0.0
  0
LINE
  5
3F0
330
22
100
AcDbEntity
  8
_2-7_ビス
  6
Continuous
 62
     7
100
AcDbLine
 10
723.5953705327387
 20
1244.937756664418
 30
0.0
 11
723.5552275327377
 21
1244.937756664418
 31
0.0
  0
LINE
  5
3F1
330
22
100
AcDbEntity
  8
_2-7_ビス
  6
Continuous
 62
     7
100
AcDbLine
 10
723.5552275327377
 20
1244.937756664418
 30
0.0
 11
723.5552275327377
 21
1243.123721577819
 31
0.0
  0
LINE
  5
3F2
330
22
100
AcDbEntity
  8
_2-7_ビス
  6
Continuous
 62
     7
100
AcDbLine
 10
723.5552275327377
 20
1243.123721577819
 30
0.0
 11
723.9882400933056
 21
1242.299160174819
 31
0.0
  0
LINE
  5
3F3
330
22
100
AcDbEntity
  8
_2-7_ビス
  6
Continuous
 62
     7
100
AcDbLine
 10
723.8583362827381
 20
1242.051791753918
 30
0.0
 11
722.8802275327388
 21
1242.051791753918
 31
0.0
  0
LINE
  5
3F4
330
22
100
AcDbEntity
  8
_2-7_ビス
  6
Continuous
 62
     7
100
AcDbLine
 10
722.8802275327388
 20
1242.051791753918
 30
0.0
 11
722.8802275327388
 21
1237.818401160039
 31
0.0
  0
LINE
  5
3F5
330
22
100
AcDbEntity
  8
_2-7_ビス
  6
Continuous
 62
     7
100
AcDbLine
 10
722.8802275327388
 20
1237.818401160039
 30
0.0
 11
723.3816970327388
 21
1236.857054915018
 31
0.0
  0
LINE
  5
3F6
330
22
100
AcDbEntity
  8
_2-7_ビス
  6
Continuous
 62
     7
100
AcDbLine
 10
723.3816970327388
 20
1236.857054915018
 30
0.0
 11
723.3864775327385
 21
1236.857054915018
 31
0.0
  0
LINE
  5
3F7
330
22
100
AcDbEntity
  8
_2-7_ビス
  6
Continuous
 62
     7
100
AcDbLine
 10
723.3864817060232
 20
1236.857055268801
 30
0.0
 11
723.3864775327385
 21
1236.857054915018
 31
0.0
  0
LINE
  5
3F8
330
22
100
AcDbEntity
  8
_2-7_ビス
  6
Continuous
 62
     7
100
AcDbLine
 10
723.3864817060232
 20
1236.857055268801
 30
0.0
 11
723.3864775327385
 21
1236.857054915018
 31
0.0
  0
LINE
  5
3F9
330
22
100
AcDbEntity
  8
_2-7_ビス
  6
Continuous
 62
     7
100
AcDbLine
 10
723.4190687827385
 20
1235.785125091119
 30
0.0
 11
722.8802275327388
 21
1235.785125091119
 31
0.0
  0
LINE
  5
3FA
330
22
100
AcDbEntity
  8
_2-7_ビス
  6
Continuous
 62
     7
100
AcDbLine
 10
722.8802275327388
 20
1235.785125091119
 30
0.0
 11
722.8802275327388
 21
1229.987891954345
 31
0.0
  0
LINE
  5
3FB
330
22
100
AcDbEntity
  8
_2-7_ビス
  6
Continuous
 62
     7
100
AcDbLine
 10
722.8802275327388
 20
1229.987891954345
 30
0.0
 11
723.3864747197998
 21
1229.02374058458
 31
0.0
  0
LINE
  5
3FC
330
22
100
AcDbEntity
  8
_2-7_ビス
  6
Continuous
 62
     7
100
AcDbLine
 10
723.3864775327385
 20
1229.023721586518
 30
0.0
 11
723.3900691630942
 21
1229.501172983759
 31
0.0
  0
LINE
  5
3FD
330
22
100
AcDbEntity
  8
_2-7_ビス
  6
Continuous
 62
     7
100
AcDbLine
 10
723.3900691630942
 20
1229.501172983759
 30
0.0
 11
723.7107491707178
 21
1229.518458428319
 31
0.0
  0
LINE
  5
3FE
330
22
100
AcDbEntity
  8
_2-7_ビス
  6
Continuous
 62
     7
100
AcDbLine
 10
723.8694112108857
 20
1229.765826849218
 30
0.0
 11
723.4190687827385
 21
1230.590388252218
 31
0.0
  0
LINE
  5
3FF
330
22
100
AcDbEntity
  8
_2-7_ビス
  6
Continuous
 62
     7
100
AcDbLine
 10
723.4190687827385
 20
1230.590388252218
 30
0.0
 11
723.4190686306154
 21
1231.067839721213
 31
0.0
  0
LINE
  5
400
330
22
100
AcDbEntity
  8
_2-7_ビス
  6
Continuous
 62
     7
100
AcDbLine
 10
723.4190686306154
 20
1231.067839721213
 30
0.0
 11
723.7671010327387
 21
1231.085125094019
 31
0.0
  0
LINE
  5
401
330
22
100
AcDbEntity
  8
_2-7_ビス
  6
Continuous
 62
     7
100
AcDbLine
 10
723.926690782459
 20
1231.332493514918
 30
0.0
 11
723.4190687827385
 21
1232.157054917918
 31
0.0
  0
LINE
  5
402
330
22
100
AcDbEntity
  8
_2-7_ビス
  6
Continuous
 62
     7
100
AcDbLine
 10
723.4190687827385
 20
1232.157054917918
 30
0.0
 11
723.4190687827385
 21
1232.634506479027
 31
0.0
  0
LINE
  5
403
330
22
100
AcDbEntity
  8
_2-7_ビス
  6
Continuous
 62
     7
100
AcDbLine
 10
723.4190687827385
 20
1232.634506479027
 30
0.0
 11
723.7671010327387
 21
1232.651791759719
 31
0.0
  0
LINE
  5
404
330
22
100
AcDbEntity
  8
_2-7_ビス
  6
Continuous
 62
     7
100
AcDbLine
 10
723.926690782459
 20
1232.899160180618
 30
0.0
 11
723.4190687827385
 21
1233.723721583618
 31
0.0
  0
LINE
  5
405
330
22
100
AcDbEntity
  8
_2-7_ビス
  6
Continuous
 62
     7
100
AcDbLine
 10
723.4190687827385
 20
1233.723721583618
 30
0.0
 11
723.4190687827385
 21
1234.201173144727
 31
0.0
  0
LINE
  5
406
330
22
100
AcDbEntity
  8
_2-7_ビス
  6
Continuous
 62
     7
100
AcDbLine
 10
723.4190687827385
 20
1234.201173144727
 30
0.0
 11
723.7671010327387
 21
1234.218458425418
 31
0.0
  0
LINE
  5
407
330
22
100
AcDbEntity
  8
_2-7_ビス
  6
Continuous
 62
     7
100
AcDbLine
 10
723.926690782459
 20
1234.465826846318
 30
0.0
 11
723.4190686306154
 21
1235.290388249318
 31
0.0
  0
LINE
  5
408
330
22
100
AcDbEntity
  8
_2-7_ビス
  6
Continuous
 62
     7
100
AcDbLine
 10
723.4190686306154
 20
1235.290388249318
 30
0.0
 11
723.4190687827385
 21
1235.785125091119
 31
0.0
  0
LINE
  5
409
330
22
100
AcDbEntity
  8
_2-7_ビス
  6
Continuous
 62
     7
100
AcDbLine
 10
723.3864817060232
 20
1236.857055268801
 30
0.0
 11
723.3901669072686
 21
1237.334506737794
 31
0.0
  0
LINE
  5
40A
330
22
100
AcDbEntity
  8
_2-7_ビス
  6
Continuous
 62
     7
100
AcDbLine
 10
723.3901669072686
 20
1237.334506737794
 30
0.0
 11
723.7076117827379
 21
1237.351791756819
 31
0.0
  0
LINE
  5
40B
330
22
100
AcDbEntity
  8
_2-7_ビス
  6
Continuous
 62
     7
100
AcDbLine
 10
723.8697039230595
 20
1237.599160177719
 30
0.0
 11
723.4190686306154
 21
1238.423721580719
 31
0.0
  0
LINE
  5
40C
330
22
100
AcDbEntity
  8
_2-7_ビス
  6
Continuous
 62
     7
100
AcDbLine
 10
723.4190686306154
 20
1238.423721580719
 30
0.0
 11
723.4190686306154
 21
1238.901173049712
 31
0.0
  0
LINE
  5
40D
330
22
100
AcDbEntity
  8
_2-7_ビス
  6
Continuous
 62
     7
100
AcDbLine
 10
723.4190686306154
 20
1238.901173049712
 30
0.0
 11
723.7671010327387
 21
1238.918458422519
 31
0.0
  0
LINE
  5
40E
330
22
100
AcDbEntity
  8
_2-7_ビス
  6
Continuous
 62
     7
100
AcDbLine
 10
723.926690782459
 20
1239.165826843418
 30
0.0
 11
723.4190687827385
 21
1239.990388246418
 31
0.0
  0
LINE
  5
40F
330
22
100
AcDbEntity
  8
_2-7_ビス
  6
Continuous
 62
     7
100
AcDbLine
 10
723.4190687827385
 20
1239.990388246418
 30
0.0
 11
723.4190686306154
 21
1240.467839715412
 31
0.0
  0
LINE
  5
410
330
22
100
AcDbEntity
  8
_2-7_ビス
  6
Continuous
 62
     7
100
AcDbLine
 10
723.4190686306154
 20
1240.467839715412
 30
0.0
 11
723.7679871252264
 21
1240.485356669378
 31
0.0
  0
LINE
  5
411
330
22
100
AcDbEntity
  8
_2-7_ビス
  6
Continuous
 62
     7
100
AcDbLine
 10
723.926690782459
 20
1240.732493509119
 30
0.0
 11
723.4190686306154
 21
1241.557054912118
 31
0.0
  0
LINE
  5
412
330
22
100
AcDbEntity
  8
_2-7_ビス
  6
Continuous
 62
     7
100
AcDbLine
 10
723.4190686306154
 20
1241.557054912118
 30
0.0
 11
723.4190687882455
 21
1242.051791753918
 31
0.0
  0
LINE
  5
413
330
22
100
AcDbEntity
  8
_2-7_ビス
  6
Continuous
 62
     7
100
AcDbLine
 10
723.4190687827385
 20
1227.951791762619
 30
0.0
 11
722.8802275327388
 21
1227.951791762619
 31
0.0
  0
LINE
  5
414
330
22
100
AcDbEntity
  8
_2-7_ビス
  6
Continuous
 62
     7
100
AcDbLine
 10
722.8802275327388
 20
1227.951791762619
 30
0.0
 11
722.8802275327388
 21
1224.703550027781
 31
0.0
  0
LINE
  5
415
330
22
100
AcDbEntity
  8
_2-7_ビス
  6
Continuous
 62
     7
100
AcDbLine
 10
722.8802275327388
 20
1224.703550027781
 30
0.0
 11
723.3860132827378
 21
1221.190388258018
 31
0.0
  0
LINE
  5
416
330
22
100
AcDbEntity
  8
_2-7_ビス
  6
Continuous
 62
     7
100
AcDbLine
 10
723.3860132827378
 20
1221.190388258018
 30
0.0
 11
723.3867478004022
 21
1221.667839342159
 31
0.0
  0
LINE
  5
417
330
22
100
AcDbEntity
  8
_2-7_ビス
  6
Continuous
 62
     7
100
AcDbLine
 10
723.3867478004022
 20
1221.667839342159
 30
0.0
 11
723.6954362827389
 21
1221.685125099818
 31
0.0
  0
LINE
  5
418
330
22
100
AcDbEntity
  8
_2-7_ビス
  6
Continuous
 62
     7
100
AcDbLine
 10
723.3860132827378
 20
1221.190388258018
 30
0.0
 11
723.8194900933052
 21
1220.365826855018
 31
0.0
  0
LINE
  5
419
330
22
100
AcDbEntity
  8
_2-7_ビス
  6
Continuous
 62
     7
100
AcDbLine
 10
723.8399928475264
 20
1221.932493520718
 30
0.0
 11
723.3893905140663
 21
1222.757054923718
 31
0.0
  0
LINE
  5
41A
330
22
100
AcDbEntity
  8
_2-7_ビス
  6
Continuous
 62
     7
100
AcDbLine
 10
723.3893905140663
 20
1222.757054923718
 30
0.0
 11
723.3914754183281
 21
1223.234506007858
 31
0.0
  0
LINE
  5
41B
330
22
100
AcDbEntity
  8
_2-7_ビス
  6
Continuous
 62
     7
100
AcDbLine
 10
723.3914754183281
 20
1223.234506007858
 30
0.0
 11
723.7138022827383
 21
1223.251791765518
 31
0.0
  0
LINE
  5
41C
330
22
100
AcDbEntity
  8
_2-7_ビス
  6
Continuous
 62
     7
100
AcDbLine
 10
723.8623077785571
 20
1223.499160186418
 30
0.0
 11
723.3984399192325
 21
1224.323721204564
 31
0.0
  0
LINE
  5
41D
330
22
100
AcDbEntity
  8
_2-7_ビス
  6
Continuous
 62
     7
100
AcDbLine
 10
723.3984399192325
 20
1224.323721204564
 30
0.0
 11
723.4025027599292
 21
1224.80117267356
 31
0.0
  0
LINE
  5
41E
330
22
100
AcDbEntity
  8
_2-7_ビス
  6
Continuous
 62
     7
100
AcDbLine
 10
723.4025027599292
 20
1224.80117267356
 30
0.0
 11
723.7371561151981
 21
1224.818458431218
 31
0.0
  0
LINE
  5
41F
330
22
100
AcDbEntity
  8
_2-7_ビス
  6
Continuous
 62
     7
100
AcDbLine
 10
723.8944107313654
 20
1225.065826852118
 30
0.0
 11
723.41420810716
 21
1225.890387870264
 31
0.0
  0
LINE
  5
420
330
22
100
AcDbEntity
  8
_2-7_ビス
  6
Continuous
 62
     7
100
AcDbLine
 10
723.41420810716
 20
1225.890387870264
 30
0.0
 11
723.4190687827385
 21
1226.367839816227
 31
0.0
  0
LINE
  5
421
330
22
100
AcDbEntity
  8
_2-7_ビス
  6
Continuous
 62
     7
100
AcDbLine
 10
723.4190687827385
 20
1226.367839816227
 30
0.0
 11
723.7671010327387
 21
1226.385125096919
 31
0.0
  0
LINE
  5
422
330
22
100
AcDbEntity
  8
_2-7_ビス
  6
Continuous
 62
     7
100
AcDbLine
 10
723.926690782459
 20
1226.632493517818
 30
0.0
 11
723.4190686306154
 21
1227.457054920818
 31
0.0
  0
LINE
  5
423
330
22
100
AcDbEntity
  8
_2-7_ビス
  6
Continuous
 62
     7
100
AcDbLine
 10
723.4190686306154
 20
1227.457054920818
 30
0.0
 11
723.4190687827385
 21
1227.951791762619
 31
0.0
  0
LINE
  5
424
330
22
100
AcDbEntity
  8
_2-7_ビス
  6
Continuous
 62
     7
100
AcDbLine
 10
723.6895862827388
 20
1220.118458434118
 30
0.0
 11
723.5552275327377
 21
1220.118458434118
 31
0.0
  0
LINE
  5
425
330
22
100
AcDbEntity
  8
_2-7_ビス
  6
Continuous
 62
     7
100
AcDbLine
 10
723.5552275327377
 20
1220.118458434118
 30
0.0
 11
723.5552275327377
 21
1219.335125101268
 31
0.0
  0
LINE
  5
426
330
22
100
AcDbEntity
  8
_2-7_ビス
  6
Continuous
 62
     7
100
AcDbLine
 10
723.5552275327377
 20
1219.335125101268
 30
0.0
 11
723.7052275327388
 21
1219.335125101268
 31
0.0
  0
LINE
  5
427
330
22
100
AcDbEntity
  8
_2-7_ビス
  6
Continuous
 62
     7
100
AcDbLine
 10
723.7052275327388
 20
1219.335125101268
 30
0.0
 11
723.7052275327388
 21
1217.727230365418
 31
0.0
  0
LINE
  5
428
330
22
100
AcDbEntity
  8
_2-7_ビス
  6
Continuous
 62
     7
100
AcDbLine
 10
723.7052275327388
 20
1217.727230365418
 30
0.0
 11
723.7116943435394
 21
1217.727230365418
 31
0.0
  0
LINE
  5
429
330
22
100
AcDbEntity
  8
_2-7_ビス
  6
Continuous
 62
     7
100
AcDbLine
 10
723.7619695327379
 20
1217.397405804219
 30
0.0
 11
723.761969679277
 21
1211.446964211399
 31
0.0
  0
LINE
  5
42A
330
22
100
AcDbEntity
  8
_2-7_ビス
  6
Continuous
 62
     7
100
AcDbLine
 10
723.761969679277
 20
1211.446964211399
 30
0.0
 11
724.2024070327381
 21
1210.795543387239
 31
0.0
  0
LINE
  5
42B
330
22
100
AcDbEntity
  8
_2-7_ビス
  6
Continuous
 62
     7
100
AcDbLine
 10
724.2024070327381
 20
1210.795543387239
 30
0.0
 11
725.2052275327384
 21
1209.481616335418
 31
0.0
  0
LINE
  5
42C
330
22
100
AcDbEntity
  8
_2-7_ビス
  6
Continuous
 62
     7
100
AcDbLine
 10
725.2052275327384
 20
1209.481616335418
 30
0.0
 11
725.3546060122329
 21
1209.481616335418
 31
0.0
  0
LINE
  5
42D
330
22
100
AcDbEntity
  8
_2-7_ビス
  6
Continuous
 62
     7
100
AcDbLine
 10
725.3546060122329
 20
1209.481616335418
 30
0.0
 11
724.2695119029185
 21
1211.446964211399
 31
0.0
  0
LINE
  5
42E
330
22
100
AcDbEntity
  8
_2-7_ビス
  6
Continuous
 62
     7
100
AcDbLine
 10
724.2695119029185
 20
1211.446964211399
 30
0.0
 11
724.2695117827379
 21
1215.418458437018
 31
0.0
  0
LINE
  5
42F
330
22
100
AcDbEntity
  8
_2-7_ビス
  6
Continuous
 62
     7
100
AcDbLine
 10
724.8528752827377
 20
1215.418458437018
 30
0.0
 11
724.8528750093062
 21
1211.446964364097
 31
0.0
  0
LINE
  5
430
330
22
100
AcDbEntity
  8
_2-7_ビス
  6
Continuous
 62
     7
100
AcDbLine
 10
724.8528750093062
 20
1211.446964364097
 30
0.0
 11
725.9379693745399
 21
1209.481616335418
 31
0.0
  0
LINE
  5
431
330
22
100
AcDbEntity
  8
_2-7_ビス
  6
Continuous
 62
     7
100
AcDbLine
 10
725.9379693745399
 20
1209.481616335418
 30
0.0
 11
726.5552275327382
 21
1209.481616335418
 31
0.0
  0
LINE
  5
432
330
22
100
AcDbEntity
  8
_2-7_ビス
  6
Continuous
 62
     7
100
AcDbLine
 10
723.8583362827381
 20
1242.051791753918
 30
0.0
 11
723.8583362827381
 21
1242.051791753918
 31
0.0
  0
LINE
  5
433
330
22
100
AcDbEntity
  8
_2-7_ビス
  6
Continuous
 62
     7
100
AcDbLine
 10
723.8583362827381
 20
1242.051791753918
 30
0.0
 11
723.8852947336387
 21
1242.056445538633
 31
0.0
  0
LINE
  5
434
330
22
100
AcDbEntity
  8
_2-7_ビス
  6
Continuous
 62
     7
100
AcDbLine
 10
723.8852947336387
 20
1242.056445538633
 30
0.0
 11
723.9111085786519
 21
1242.066175298763
 31
0.0
  0
LINE
  5
435
330
22
100
AcDbEntity
  8
_2-7_ビス
  6
Continuous
 62
     7
100
AcDbLine
 10
723.9111085786519
 20
1242.066175298763
 30
0.0
 11
723.9349934771594
 21
1242.080685400469
 31
0.0
  0
LINE
  5
436
330
22
100
AcDbEntity
  8
_2-7_ビス
  6
Continuous
 62
     7
100
AcDbLine
 10
723.9349934771594
 20
1242.080685400469
 30
0.0
 11
723.9562236986061
 21
1242.099534961655
 31
0.0
  0
LINE
  5
437
330
22
100
AcDbEntity
  8
_2-7_ビス
  6
Continuous
 62
     7
100
AcDbLine
 10
723.9562236986061
 20
1242.099534961655
 30
0.0
 11
723.9741541734566
 21
1242.12215124794
 31
0.0
  0
LINE
  5
438
330
22
100
AcDbEntity
  8
_2-7_ビス
  6
Continuous
 62
     7
100
AcDbLine
 10
723.9741541734566
 20
1242.12215124794
 30
0.0
 11
723.9882400933061
 21
1242.147847074912
 31
0.0
  0
LINE
  5
439
330
22
100
AcDbEntity
  8
_2-7_ビス
  6
Continuous
 62
     7
100
AcDbLine
 10
723.9882400933061
 20
1242.147847074912
 30
0.0
 11
723.9980534646072
 21
1242.175841687871
 31
0.0
  0
LINE
  5
43A
330
22
100
AcDbEntity
  8
_2-7_ビス
  6
Continuous
 62
     7
100
AcDbLine
 10
723.9980534646072
 20
1242.175841687871
 30
0.0
 11
724.0032961130388
 21
1242.205284484666
 31
0.0
  0
LINE
  5
43B
330
22
100
AcDbEntity
  8
_2-7_ビス
  6
Continuous
 62
     7
100
AcDbLine
 10
724.0032961130388
 20
1242.205284484666
 30
0.0
 11
724.0038087433821
 21
1242.235280860817
 31
0.0
  0
LINE
  5
43C
330
22
100
AcDbEntity
  8
_2-7_ビス
  6
Continuous
 62
     7
100
AcDbLine
 10
724.0038087433821
 20
1242.235280860817
 30
0.0
 11
723.9995757796225
 21
1242.264919391614
 31
0.0
  0
LINE
  5
43D
330
22
100
AcDbEntity
  8
_2-7_ビス
  6
Continuous
 62
     7
100
AcDbLine
 10
723.9995757796225
 20
1242.264919391614
 30
0.0
 11
723.9907258382221
 21
1242.293299525295
 31
0.0
  0
LINE
  5
43E
330
22
100
AcDbEntity
  8
_2-7_ビス
  6
Continuous
 62
     7
100
AcDbLine
 10
723.9907258382221
 20
1242.293299525295
 30
0.0
 11
723.9775278201724
 21
1242.31955894586
 31
0.0
  0
LINE
  5
43F
330
22
100
AcDbEntity
  8
_2-7_ビス
  6
Continuous
 62
     7
100
AcDbLine
 10
723.9775278201724
 20
1242.31955894586
 30
0.0
 11
723.9775274276552
 21
1242.319559587484
 31
0.0
  0
LINE
  5
440
330
22
100
AcDbEntity
  8
_2-7_ビス
  6
Continuous
 62
     7
100
AcDbLine
 10
723.767101032739
 20
1240.485125088218
 30
0.0
 11
723.767101032739
 21
1240.485125088218
 31
0.0
  0
LINE
  5
441
330
22
100
AcDbEntity
  8
_2-7_ビス
  6
Continuous
 62
     7
100
AcDbLine
 10
723.767101032739
 20
1240.485125088218
 30
0.0
 11
723.8016242610739
 21
1240.497638638477
 31
0.0
  0
LINE
  5
442
330
22
100
AcDbEntity
  8
_2-7_ビス
  6
Continuous
 62
     7
100
AcDbLine
 10
723.8016242610739
 20
1240.497638638477
 30
0.0
 11
723.833646539427
 21
1240.516552959255
 31
0.0
  0
LINE
  5
443
330
22
100
AcDbEntity
  8
_2-7_ビス
  6
Continuous
 62
     7
100
AcDbLine
 10
723.833646539427
 20
1240.516552959255
 30
0.0
 11
723.8621948870744
 21
1240.541293348487
 31
0.0
  0
LINE
  5
444
330
22
100
AcDbEntity
  8
_2-7_ビス
  6
Continuous
 62
     7
100
AcDbLine
 10
723.8621948870744
 20
1240.541293348487
 30
0.0
 11
723.8864018769195
 21
1240.571108081964
 31
0.0
  0
LINE
  5
445
330
22
100
AcDbEntity
  8
_2-7_ビス
  6
Continuous
 62
     7
100
AcDbLine
 10
723.8864018769195
 20
1240.571108081964
 30
0.0
 11
723.9055319918245
 21
1240.605091254097
 31
0.0
  0
LINE
  5
446
330
22
100
AcDbEntity
  8
_2-7_ビス
  6
Continuous
 62
     7
100
AcDbLine
 10
723.9055319918245
 20
1240.605091254097
 30
0.0
 11
723.9190039729286
 21
1240.642210303398
 31
0.0
  0
LINE
  5
447
330
22
100
AcDbEntity
  8
_2-7_ビス
  6
Continuous
 62
     7
100
AcDbLine
 10
723.9190039729286
 20
1240.642210303398
 30
0.0
 11
723.9264084809033
 21
1240.681337386335
 31
0.0
  0
LINE
  5
448
330
22
100
AcDbEntity
  8
_2-7_ビス
  6
Continuous
 62
     7
100
AcDbLine
 10
723.9264084809033
 20
1240.681337386335
 30
0.0
 11
723.9275205335204
 21
1240.721283646294
 31
0.0
  0
LINE
  5
449
330
22
100
AcDbEntity
  8
_2-7_ビス
  6
Continuous
 62
     7
100
AcDbLine
 10
723.9275205335204
 20
1240.721283646294
 30
0.0
 11
723.9266907824595
 21
1240.732493509118
 31
0.0
  0
LINE
  5
44A
330
22
100
AcDbEntity
  8
_2-7_ビス
  6
Continuous
 62
     7
100
AcDbLine
 10
723.767101032739
 20
1238.918458422518
 30
0.0
 11
723.767101032739
 21
1238.918458422518
 31
0.0
  0
LINE
  5
44B
330
22
100
AcDbEntity
  8
_2-7_ビス
  6
Continuous
 62
     7
100
AcDbLine
 10
723.767101032739
 20
1238.918458422518
 30
0.0
 11
723.8016242610739
 21
1238.930971972777
 31
0.0
  0
LINE
  5
44C
330
22
100
AcDbEntity
  8
_2-7_ビス
  6
Continuous
 62
     7
100
AcDbLine
 10
723.8016242610739
 20
1238.930971972777
 30
0.0
 11
723.833646539427
 21
1238.949886293555
 31
0.0
  0
LINE
  5
44D
330
22
100
AcDbEntity
  8
_2-7_ビス
  6
Continuous
 62
     7
100
AcDbLine
 10
723.833646539427
 20
1238.949886293555
 30
0.0
 11
723.8621948870744
 21
1238.974626682787
 31
0.0
  0
LINE
  5
44E
330
22
100
AcDbEntity
  8
_2-7_ビス
  6
Continuous
 62
     7
100
AcDbLine
 10
723.8621948870744
 20
1238.974626682787
 30
0.0
 11
723.8864018769195
 21
1239.004441416264
 31
0.0
  0
LINE
  5
44F
330
22
100
AcDbEntity
  8
_2-7_ビス
  6
Continuous
 62
     7
100
AcDbLine
 10
723.8864018769195
 20
1239.004441416264
 30
0.0
 11
723.9055319918245
 21
1239.038424588397
 31
0.0
  0
LINE
  5
450
330
22
100
AcDbEntity
  8
_2-7_ビス
  6
Continuous
 62
     7
100
AcDbLine
 10
723.9055319918245
 20
1239.038424588397
 30
0.0
 11
723.9190039729286
 21
1239.075543637698
 31
0.0
  0
LINE
  5
451
330
22
100
AcDbEntity
  8
_2-7_ビス
  6
Continuous
 62
     7
100
AcDbLine
 10
723.9190039729286
 20
1239.075543637698
 30
0.0
 11
723.9264084809033
 21
1239.114670720635
 31
0.0
  0
LINE
  5
452
330
22
100
AcDbEntity
  8
_2-7_ビス
  6
Continuous
 62
     7
100
AcDbLine
 10
723.9264084809033
 20
1239.114670720635
 30
0.0
 11
723.9275205335204
 21
1239.154616980594
 31
0.0
  0
LINE
  5
453
330
22
100
AcDbEntity
  8
_2-7_ビス
  6
Continuous
 62
     7
100
AcDbLine
 10
723.9275205335204
 20
1239.154616980594
 30
0.0
 11
723.9266907824595
 21
1239.165826843418
 31
0.0
  0
LINE
  5
454
330
22
100
AcDbEntity
  8
_2-7_ビス
  6
Continuous
 62
     7
100
AcDbLine
 10
723.7101141733375
 20
1237.351791756818
 30
0.0
 11
723.7101141733375
 21
1237.351791756818
 31
0.0
  0
LINE
  5
455
330
22
100
AcDbEntity
  8
_2-7_ビス
  6
Continuous
 62
     7
100
AcDbLine
 10
723.7101141733375
 20
1237.351791756818
 30
0.0
 11
723.7446374016723
 21
1237.364305307077
 31
0.0
  0
LINE
  5
456
330
22
100
AcDbEntity
  8
_2-7_ビス
  6
Continuous
 62
     7
100
AcDbLine
 10
723.7446374016723
 20
1237.364305307077
 30
0.0
 11
723.7766596800254
 21
1237.383219627856
 31
0.0
  0
LINE
  5
457
330
22
100
AcDbEntity
  8
_2-7_ビス
  6
Continuous
 62
     7
100
AcDbLine
 10
723.7766596800254
 20
1237.383219627856
 30
0.0
 11
723.805208027673
 21
1237.407960017087
 31
0.0
  0
LINE
  5
458
330
22
100
AcDbEntity
  8
_2-7_ビス
  6
Continuous
 62
     7
100
AcDbLine
 10
723.805208027673
 20
1237.407960017087
 30
0.0
 11
723.8294150175178
 21
1237.437774750564
 31
0.0
  0
LINE
  5
459
330
22
100
AcDbEntity
  8
_2-7_ビス
  6
Continuous
 62
     7
100
AcDbLine
 10
723.8294150175178
 20
1237.437774750564
 30
0.0
 11
723.8485451324229
 21
1237.471757922697
 31
0.0
  0
LINE
  5
45A
330
22
100
AcDbEntity
  8
_2-7_ビス
  6
Continuous
 62
     7
100
AcDbLine
 10
723.8485451324229
 20
1237.471757922697
 30
0.0
 11
723.862017113527
 21
1237.508876971998
 31
0.0
  0
LINE
  5
45B
330
22
100
AcDbEntity
  8
_2-7_ビス
  6
Continuous
 62
     7
100
AcDbLine
 10
723.862017113527
 20
1237.508876971998
 30
0.0
 11
723.8694216215017
 21
1237.548004054935
 31
0.0
  0
LINE
  5
45C
330
22
100
AcDbEntity
  8
_2-7_ビス
  6
Continuous
 62
     7
100
AcDbLine
 10
723.8694216215017
 20
1237.548004054935
 30
0.0
 11
723.8705336741189
 21
1237.587950314894
 31
0.0
  0
LINE
  5
45D
330
22
100
AcDbEntity
  8
_2-7_ビス
  6
Continuous
 62
     7
100
AcDbLine
 10
723.8705336741189
 20
1237.587950314894
 30
0.0
 11
723.8697039230578
 21
1237.599160177718
 31
0.0
  0
LINE
  5
45E
330
22
100
AcDbEntity
  8
_2-7_ビス
  6
Continuous
 62
     7
100
AcDbLine
 10
723.767101032739
 20
1234.218458425418
 30
0.0
 11
723.767101032739
 21
1234.218458425418
 31
0.0
  0
LINE
  5
45F
330
22
100
AcDbEntity
  8
_2-7_ビス
  6
Continuous
 62
     7
100
AcDbLine
 10
723.767101032739
 20
1234.218458425418
 30
0.0
 11
723.8016242610739
 21
1234.230971975677
 31
0.0
  0
LINE
  5
460
330
22
100
AcDbEntity
  8
_2-7_ビス
  6
Continuous
 62
     7
100
AcDbLine
 10
723.8016242610739
 20
1234.230971975677
 30
0.0
 11
723.833646539427
 21
1234.249886296455
 31
0.0
  0
LINE
  5
461
330
22
100
AcDbEntity
  8
_2-7_ビス
  6
Continuous
 62
     7
100
AcDbLine
 10
723.833646539427
 20
1234.249886296455
 30
0.0
 11
723.8621948870744
 21
1234.274626685687
 31
0.0
  0
LINE
  5
462
330
22
100
AcDbEntity
  8
_2-7_ビス
  6
Continuous
 62
     7
100
AcDbLine
 10
723.8621948870744
 20
1234.274626685687
 30
0.0
 11
723.8864018769195
 21
1234.304441419164
 31
0.0
  0
LINE
  5
463
330
22
100
AcDbEntity
  8
_2-7_ビス
  6
Continuous
 62
     7
100
AcDbLine
 10
723.8864018769195
 20
1234.304441419164
 30
0.0
 11
723.9055319918245
 21
1234.338424591297
 31
0.0
  0
LINE
  5
464
330
22
100
AcDbEntity
  8
_2-7_ビス
  6
Continuous
 62
     7
100
AcDbLine
 10
723.9055319918245
 20
1234.338424591297
 30
0.0
 11
723.9190039729286
 21
1234.375543640597
 31
0.0
  0
LINE
  5
465
330
22
100
AcDbEntity
  8
_2-7_ビス
  6
Continuous
 62
     7
100
AcDbLine
 10
723.9190039729286
 20
1234.375543640597
 30
0.0
 11
723.9264084809033
 21
1234.414670723535
 31
0.0
  0
LINE
  5
466
330
22
100
AcDbEntity
  8
_2-7_ビス
  6
Continuous
 62
     7
100
AcDbLine
 10
723.9264084809033
 20
1234.414670723535
 30
0.0
 11
723.9275205335204
 21
1234.454616983494
 31
0.0
  0
LINE
  5
467
330
22
100
AcDbEntity
  8
_2-7_ビス
  6
Continuous
 62
     7
100
AcDbLine
 10
723.9275205335204
 20
1234.454616983494
 30
0.0
 11
723.9266907824595
 21
1234.465826846318
 31
0.0
  0
LINE
  5
468
330
22
100
AcDbEntity
  8
_2-7_ビス
  6
Continuous
 62
     7
100
AcDbLine
 10
723.767101032739
 20
1232.651791759718
 30
0.0
 11
723.767101032739
 21
1232.651791759718
 31
0.0
  0
LINE
  5
469
330
22
100
AcDbEntity
  8
_2-7_ビス
  6
Continuous
 62
     7
100
AcDbLine
 10
723.767101032739
 20
1232.651791759718
 30
0.0
 11
723.8016242610739
 21
1232.664305309977
 31
0.0
  0
LINE
  5
46A
330
22
100
AcDbEntity
  8
_2-7_ビス
  6
Continuous
 62
     7
100
AcDbLine
 10
723.8016242610739
 20
1232.664305309977
 30
0.0
 11
723.833646539427
 21
1232.683219630755
 31
0.0
  0
LINE
  5
46B
330
22
100
AcDbEntity
  8
_2-7_ビス
  6
Continuous
 62
     7
100
AcDbLine
 10
723.833646539427
 20
1232.683219630755
 30
0.0
 11
723.8621948870744
 21
1232.707960019987
 31
0.0
  0
LINE
  5
46C
330
22
100
AcDbEntity
  8
_2-7_ビス
  6
Continuous
 62
     7
100
AcDbLine
 10
723.8621948870744
 20
1232.707960019987
 30
0.0
 11
723.8864018769195
 21
1232.737774753464
 31
0.0
  0
LINE
  5
46D
330
22
100
AcDbEntity
  8
_2-7_ビス
  6
Continuous
 62
     7
100
AcDbLine
 10
723.8864018769195
 20
1232.737774753464
 30
0.0
 11
723.9055319918245
 21
1232.771757925597
 31
0.0
  0
LINE
  5
46E
330
22
100
AcDbEntity
  8
_2-7_ビス
  6
Continuous
 62
     7
100
AcDbLine
 10
723.9055319918245
 20
1232.771757925597
 30
0.0
 11
723.9190039729286
 21
1232.808876974897
 31
0.0
  0
LINE
  5
46F
330
22
100
AcDbEntity
  8
_2-7_ビス
  6
Continuous
 62
     7
100
AcDbLine
 10
723.9190039729286
 20
1232.808876974897
 30
0.0
 11
723.9264084809033
 21
1232.848004057835
 31
0.0
  0
LINE
  5
470
330
22
100
AcDbEntity
  8
_2-7_ビス
  6
Continuous
 62
     7
100
AcDbLine
 10
723.9264084809033
 20
1232.848004057835
 30
0.0
 11
723.9275205335204
 21
1232.887950317794
 31
0.0
  0
LINE
  5
471
330
22
100
AcDbEntity
  8
_2-7_ビス
  6
Continuous
 62
     7
100
AcDbLine
 10
723.9275205335204
 20
1232.887950317794
 30
0.0
 11
723.9266907824595
 21
1232.899160180618
 31
0.0
  0
LINE
  5
472
330
22
100
AcDbEntity
  8
_2-7_ビス
  6
Continuous
 62
     7
100
AcDbLine
 10
723.767101032739
 20
1231.085125094018
 30
0.0
 11
723.767101032739
 21
1231.085125094018
 31
0.0
  0
LINE
  5
473
330
22
100
AcDbEntity
  8
_2-7_ビス
  6
Continuous
 62
     7
100
AcDbLine
 10
723.767101032739
 20
1231.085125094018
 30
0.0
 11
723.8016242610739
 21
1231.097638644278
 31
0.0
  0
LINE
  5
474
330
22
100
AcDbEntity
  8
_2-7_ビス
  6
Continuous
 62
     7
100
AcDbLine
 10
723.8016242610739
 20
1231.097638644278
 30
0.0
 11
723.833646539427
 21
1231.116552965055
 31
0.0
  0
LINE
  5
475
330
22
100
AcDbEntity
  8
_2-7_ビス
  6
Continuous
 62
     7
100
AcDbLine
 10
723.833646539427
 20
1231.116552965055
 30
0.0
 11
723.8621948870744
 21
1231.141293354287
 31
0.0
  0
LINE
  5
476
330
22
100
AcDbEntity
  8
_2-7_ビス
  6
Continuous
 62
     7
100
AcDbLine
 10
723.8621948870744
 20
1231.141293354287
 30
0.0
 11
723.8864018769195
 21
1231.171108087764
 31
0.0
  0
LINE
  5
477
330
22
100
AcDbEntity
  8
_2-7_ビス
  6
Continuous
 62
     7
100
AcDbLine
 10
723.8864018769195
 20
1231.171108087764
 30
0.0
 11
723.9055319918245
 21
1231.205091259897
 31
0.0
  0
LINE
  5
478
330
22
100
AcDbEntity
  8
_2-7_ビス
  6
Continuous
 62
     7
100
AcDbLine
 10
723.9055319918245
 20
1231.205091259897
 30
0.0
 11
723.9190039729286
 21
1231.242210309197
 31
0.0
  0
LINE
  5
479
330
22
100
AcDbEntity
  8
_2-7_ビス
  6
Continuous
 62
     7
100
AcDbLine
 10
723.9190039729286
 20
1231.242210309197
 30
0.0
 11
723.9264084809033
 21
1231.281337392135
 31
0.0
  0
LINE
  5
47A
330
22
100
AcDbEntity
  8
_2-7_ビス
  6
Continuous
 62
     7
100
AcDbLine
 10
723.9264084809033
 20
1231.281337392135
 30
0.0
 11
723.9275205335204
 21
1231.321283652094
 31
0.0
  0
LINE
  5
47B
330
22
100
AcDbEntity
  8
_2-7_ビス
  6
Continuous
 62
     7
100
AcDbLine
 10
723.9275205335204
 20
1231.321283652094
 30
0.0
 11
723.9266907824595
 21
1231.332493514918
 31
0.0
  0
LINE
  5
47C
330
22
100
AcDbEntity
  8
_2-7_ビス
  6
Continuous
 62
     7
100
AcDbLine
 10
723.7098214611645
 20
1229.518458428318
 30
0.0
 11
723.7098214611645
 21
1229.518458428318
 31
0.0
  0
LINE
  5
47D
330
22
100
AcDbEntity
  8
_2-7_ビス
  6
Continuous
 62
     7
100
AcDbLine
 10
723.7098214611645
 20
1229.518458428318
 30
0.0
 11
723.7443446894997
 21
1229.530971978577
 31
0.0
  0
LINE
  5
47E
330
22
100
AcDbEntity
  8
_2-7_ビス
  6
Continuous
 62
     7
100
AcDbLine
 10
723.7443446894997
 20
1229.530971978577
 30
0.0
 11
723.7763669678528
 21
1229.549886299355
 31
0.0
  0
LINE
  5
47F
330
22
100
AcDbEntity
  8
_2-7_ビス
  6
Continuous
 62
     7
100
AcDbLine
 10
723.7763669678528
 20
1229.549886299355
 30
0.0
 11
723.8049153155003
 21
1229.574626688586
 31
0.0
  0
LINE
  5
480
330
22
100
AcDbEntity
  8
_2-7_ビス
  6
Continuous
 62
     7
100
AcDbLine
 10
723.8049153155003
 20
1229.574626688586
 30
0.0
 11
723.8291223053453
 21
1229.604441422064
 31
0.0
  0
LINE
  5
481
330
22
100
AcDbEntity
  8
_2-7_ビス
  6
Continuous
 62
     7
100
AcDbLine
 10
723.8291223053453
 20
1229.604441422064
 30
0.0
 11
723.8482524202502
 21
1229.638424594197
 31
0.0
  0
LINE
  5
482
330
22
100
AcDbEntity
  8
_2-7_ビス
  6
Continuous
 62
     7
100
AcDbLine
 10
723.8482524202502
 20
1229.638424594197
 30
0.0
 11
723.8617244013544
 21
1229.675543643497
 31
0.0
  0
LINE
  5
483
330
22
100
AcDbEntity
  8
_2-7_ビス
  6
Continuous
 62
     7
100
AcDbLine
 10
723.8617244013544
 20
1229.675543643497
 30
0.0
 11
723.869128909329
 21
1229.714670726435
 31
0.0
  0
LINE
  5
484
330
22
100
AcDbEntity
  8
_2-7_ビス
  6
Continuous
 62
     7
100
AcDbLine
 10
723.869128909329
 20
1229.714670726435
 30
0.0
 11
723.8702409619461
 21
1229.754616986394
 31
0.0
  0
LINE
  5
485
330
22
100
AcDbEntity
  8
_2-7_ビス
  6
Continuous
 62
     7
100
AcDbLine
 10
723.8702409619461
 20
1229.754616986394
 30
0.0
 11
723.8694112108853
 21
1229.765826849218
 31
0.0
  0
LINE
  5
486
330
22
100
AcDbEntity
  8
_2-7_ビス
  6
Continuous
 62
     7
100
AcDbLine
 10
723.767101032739
 20
1226.385125096918
 30
0.0
 11
723.767101032739
 21
1226.385125096918
 31
0.0
  0
LINE
  5
487
330
22
100
AcDbEntity
  8
_2-7_ビス
  6
Continuous
 62
     7
100
AcDbLine
 10
723.767101032739
 20
1226.385125096918
 30
0.0
 11
723.8016242610739
 21
1226.397638647177
 31
0.0
  0
LINE
  5
488
330
22
100
AcDbEntity
  8
_2-7_ビス
  6
Continuous
 62
     7
100
AcDbLine
 10
723.8016242610739
 20
1226.397638647177
 30
0.0
 11
723.833646539427
 21
1226.416552967955
 31
0.0
  0
LINE
  5
489
330
22
100
AcDbEntity
  8
_2-7_ビス
  6
Continuous
 62
     7
100
AcDbLine
 10
723.833646539427
 20
1226.416552967955
 30
0.0
 11
723.8621948870744
 21
1226.441293357186
 31
0.0
  0
LINE
  5
48A
330
22
100
AcDbEntity
  8
_2-7_ビス
  6
Continuous
 62
     7
100
AcDbLine
 10
723.8621948870744
 20
1226.441293357186
 30
0.0
 11
723.8864018769195
 21
1226.471108090664
 31
0.0
  0
LINE
  5
48B
330
22
100
AcDbEntity
  8
_2-7_ビス
  6
Continuous
 62
     7
100
AcDbLine
 10
723.8864018769195
 20
1226.471108090664
 30
0.0
 11
723.9055319918245
 21
1226.505091262797
 31
0.0
  0
LINE
  5
48C
330
22
100
AcDbEntity
  8
_2-7_ビス
  6
Continuous
 62
     7
100
AcDbLine
 10
723.9055319918245
 20
1226.505091262797
 30
0.0
 11
723.9190039729286
 21
1226.542210312097
 31
0.0
  0
LINE
  5
48D
330
22
100
AcDbEntity
  8
_2-7_ビス
  6
Continuous
 62
     7
100
AcDbLine
 10
723.9190039729286
 20
1226.542210312097
 30
0.0
 11
723.9264084809033
 21
1226.581337395035
 31
0.0
  0
LINE
  5
48E
330
22
100
AcDbEntity
  8
_2-7_ビス
  6
Continuous
 62
     7
100
AcDbLine
 10
723.9264084809033
 20
1226.581337395035
 30
0.0
 11
723.9275205335204
 21
1226.621283654994
 31
0.0
  0
LINE
  5
48F
330
22
100
AcDbEntity
  8
_2-7_ビス
  6
Continuous
 62
     7
100
AcDbLine
 10
723.9275205335204
 20
1226.621283654994
 30
0.0
 11
723.9266907824595
 21
1226.632493517818
 31
0.0
  0
LINE
  5
490
330
22
100
AcDbEntity
  8
_2-7_ビス
  6
Continuous
 62
     7
100
AcDbLine
 10
723.7348209816444
 20
1224.818458431218
 30
0.0
 11
723.7348209816444
 21
1224.818458431218
 31
0.0
  0
LINE
  5
491
330
22
100
AcDbEntity
  8
_2-7_ビス
  6
Continuous
 62
     7
100
AcDbLine
 10
723.7348209816444
 20
1224.818458431218
 30
0.0
 11
723.7693442099794
 21
1224.830971981477
 31
0.0
  0
LINE
  5
492
330
22
100
AcDbEntity
  8
_2-7_ビス
  6
Continuous
 62
     7
100
AcDbLine
 10
723.7693442099794
 20
1224.830971981477
 30
0.0
 11
723.8013664883325
 21
1224.849886302255
 31
0.0
  0
LINE
  5
493
330
22
100
AcDbEntity
  8
_2-7_ビス
  6
Continuous
 62
     7
100
AcDbLine
 10
723.8013664883325
 20
1224.849886302255
 30
0.0
 11
723.82991483598
 21
1224.874626691486
 31
0.0
  0
LINE
  5
494
330
22
100
AcDbEntity
  8
_2-7_ビス
  6
Continuous
 62
     7
100
AcDbLine
 10
723.82991483598
 20
1224.874626691486
 30
0.0
 11
723.8541218258249
 21
1224.904441424963
 31
0.0
  0
LINE
  5
495
330
22
100
AcDbEntity
  8
_2-7_ビス
  6
Continuous
 62
     7
100
AcDbLine
 10
723.8541218258249
 20
1224.904441424963
 30
0.0
 11
723.8732519407298
 21
1224.938424597097
 31
0.0
  0
LINE
  5
496
330
22
100
AcDbEntity
  8
_2-7_ビス
  6
Continuous
 62
     7
100
AcDbLine
 10
723.8732519407298
 20
1224.938424597097
 30
0.0
 11
723.8867239218341
 21
1224.975543646397
 31
0.0
  0
LINE
  5
497
330
22
100
AcDbEntity
  8
_2-7_ビス
  6
Continuous
 62
     7
100
AcDbLine
 10
723.8867239218341
 20
1224.975543646397
 30
0.0
 11
723.8941284298087
 21
1225.014670729335
 31
0.0
  0
LINE
  5
498
330
22
100
AcDbEntity
  8
_2-7_ビス
  6
Continuous
 62
     7
100
AcDbLine
 10
723.8941284298087
 20
1225.014670729335
 30
0.0
 11
723.8952404824257
 21
1225.054616989294
 31
0.0
  0
LINE
  5
499
330
22
100
AcDbEntity
  8
_2-7_ビス
  6
Continuous
 62
     7
100
AcDbLine
 10
723.8952404824257
 20
1225.054616989294
 30
0.0
 11
723.894410731365
 21
1225.065826852118
 31
0.0
  0
LINE
  5
49A
330
22
100
AcDbEntity
  8
_2-7_ビス
  6
Continuous
 62
     7
100
AcDbLine
 10
723.7027180288361
 20
1223.251791765518
 30
0.0
 11
723.7027180288361
 21
1223.251791765518
 31
0.0
  0
LINE
  5
49B
330
22
100
AcDbEntity
  8
_2-7_ビス
  6
Continuous
 62
     7
100
AcDbLine
 10
723.7027180288361
 20
1223.251791765518
 30
0.0
 11
723.737241257171
 21
1223.264305315777
 31
0.0
  0
LINE
  5
49C
330
22
100
AcDbEntity
  8
_2-7_ビス
  6
Continuous
 62
     7
100
AcDbLine
 10
723.737241257171
 20
1223.264305315777
 30
0.0
 11
723.7692635355241
 21
1223.283219636555
 31
0.0
  0
LINE
  5
49D
330
22
100
AcDbEntity
  8
_2-7_ビス
  6
Continuous
 62
     7
100
AcDbLine
 10
723.7692635355241
 20
1223.283219636555
 30
0.0
 11
723.7978118831716
 21
1223.307960025787
 31
0.0
  0
LINE
  5
49E
330
22
100
AcDbEntity
  8
_2-7_ビス
  6
Continuous
 62
     7
100
AcDbLine
 10
723.7978118831716
 20
1223.307960025787
 30
0.0
 11
723.8220188730165
 21
1223.337774759263
 31
0.0
  0
LINE
  5
49F
330
22
100
AcDbEntity
  8
_2-7_ビス
  6
Continuous
 62
     7
100
AcDbLine
 10
723.8220188730165
 20
1223.337774759263
 30
0.0
 11
723.8411489879214
 21
1223.371757931397
 31
0.0
  0
LINE
  5
4A0
330
22
100
AcDbEntity
  8
_2-7_ビス
  6
Continuous
 62
     7
100
AcDbLine
 10
723.8411489879214
 20
1223.371757931397
 30
0.0
 11
723.8546209690257
 21
1223.408876980697
 31
0.0
  0
LINE
  5
4A1
330
22
100
AcDbEntity
  8
_2-7_ビス
  6
Continuous
 62
     7
100
AcDbLine
 10
723.8546209690257
 20
1223.408876980697
 30
0.0
 11
723.8620254770004
 21
1223.448004063635
 31
0.0
  0
LINE
  5
4A2
330
22
100
AcDbEntity
  8
_2-7_ビス
  6
Continuous
 62
     7
100
AcDbLine
 10
723.8620254770004
 20
1223.448004063635
 30
0.0
 11
723.8631375296174
 21
1223.487950323594
 31
0.0
  0
LINE
  5
4A3
330
22
100
AcDbEntity
  8
_2-7_ビス
  6
Continuous
 62
     7
100
AcDbLine
 10
723.8631375296174
 20
1223.487950323594
 30
0.0
 11
723.8623077785566
 21
1223.499160186418
 31
0.0
  0
LINE
  5
4A4
330
22
100
AcDbEntity
  8
_2-7_ビス
  6
Continuous
 62
     7
100
AcDbLine
 10
723.6804030978064
 20
1221.685125099819
 30
0.0
 11
723.6804030978064
 21
1221.685125099819
 31
0.0
  0
LINE
  5
4A5
330
22
100
AcDbEntity
  8
_2-7_ビス
  6
Continuous
 62
     7
100
AcDbLine
 10
723.6804030978064
 20
1221.685125099819
 30
0.0
 11
723.7149263261415
 21
1221.697638650078
 31
0.0
  0
LINE
  5
4A6
330
22
100
AcDbEntity
  8
_2-7_ビス
  6
Continuous
 62
     7
100
AcDbLine
 10
723.7149263261415
 20
1221.697638650078
 30
0.0
 11
723.7469486044944
 21
1221.716552970856
 31
0.0
  0
LINE
  5
4A7
330
22
100
AcDbEntity
  8
_2-7_ビス
  6
Continuous
 62
     7
100
AcDbLine
 10
723.7469486044944
 20
1221.716552970856
 30
0.0
 11
723.7754969521421
 21
1221.741293360087
 31
0.0
  0
LINE
  5
4A8
330
22
100
AcDbEntity
  8
_2-7_ビス
  6
Continuous
 62
     7
100
AcDbLine
 10
723.7754969521421
 20
1221.741293360087
 30
0.0
 11
723.799703941987
 21
1221.771108093565
 31
0.0
  0
LINE
  5
4A9
330
22
100
AcDbEntity
  8
_2-7_ビス
  6
Continuous
 62
     7
100
AcDbLine
 10
723.799703941987
 20
1221.771108093565
 30
0.0
 11
723.8188340568918
 21
1221.805091265698
 31
0.0
  0
LINE
  5
4AA
330
22
100
AcDbEntity
  8
_2-7_ビス
  6
Continuous
 62
     7
100
AcDbLine
 10
723.8188340568918
 20
1221.805091265698
 30
0.0
 11
723.8323060379961
 21
1221.842210314998
 31
0.0
  0
LINE
  5
4AB
330
22
100
AcDbEntity
  8
_2-7_ビス
  6
Continuous
 62
     7
100
AcDbLine
 10
723.8323060379961
 20
1221.842210314998
 30
0.0
 11
723.8397105459711
 21
1221.881337397936
 31
0.0
  0
LINE
  5
4AC
330
22
100
AcDbEntity
  8
_2-7_ビス
  6
Continuous
 62
     7
100
AcDbLine
 10
723.8397105459711
 20
1221.881337397936
 30
0.0
 11
723.8408225985878
 21
1221.921283657895
 31
0.0
  0
LINE
  5
4AD
330
22
100
AcDbEntity
  8
_2-7_ビス
  6
Continuous
 62
     7
100
AcDbLine
 10
723.8408225985878
 20
1221.921283657895
 30
0.0
 11
723.839992847527
 21
1221.932493520719
 31
0.0
  0
LINE
  5
4AE
330
22
100
AcDbEntity
  8
_2-7_ビス
  6
Continuous
 62
     7
100
AcDbLine
 10
723.6895862827383
 20
1220.118458434119
 30
0.0
 11
723.6895862827383
 21
1220.118458434119
 31
0.0
  0
LINE
  5
4AF
330
22
100
AcDbEntity
  8
_2-7_ビス
  6
Continuous
 62
     7
100
AcDbLine
 10
723.6895862827383
 20
1220.118458434119
 30
0.0
 11
723.7167322186775
 21
1220.123554252967
 31
0.0
  0
LINE
  5
4B0
330
22
100
AcDbEntity
  8
_2-7_ビス
  6
Continuous
 62
     7
100
AcDbLine
 10
723.7167322186775
 20
1220.123554252967
 30
0.0
 11
723.742660882909
 21
1220.133755124779
 31
0.0
  0
LINE
  5
4B1
330
22
100
AcDbEntity
  8
_2-7_ビス
  6
Continuous
 62
     7
100
AcDbLine
 10
723.742660882909
 20
1220.133755124779
 30
0.0
 11
723.7665844460914
 21
1220.148751101225
 31
0.0
  0
LINE
  5
4B2
330
22
100
AcDbEntity
  8
_2-7_ビス
  6
Continuous
 62
     7
100
AcDbLine
 10
723.7665844460914
 20
1220.148751101225
 30
0.0
 11
723.7877760028634
 21
1220.168086537151
 31
0.0
  0
LINE
  5
4B3
330
22
100
AcDbEntity
  8
_2-7_ビス
  6
Continuous
 62
     7
100
AcDbLine
 10
723.7877760028634
 20
1220.168086537151
 30
0.0
 11
723.8055916584955
 21
1220.191173935118
 31
0.0
  0
LINE
  5
4B4
330
22
100
AcDbEntity
  8
_2-7_ビス
  6
Continuous
 62
     7
100
AcDbLine
 10
723.8055916584955
 20
1220.191173935118
 30
0.0
 11
723.8194900933064
 21
1220.217311796223
 31
0.0
  0
LINE
  5
4B5
330
22
100
AcDbEntity
  8
_2-7_ビス
  6
Continuous
 62
     7
100
AcDbLine
 10
723.8194900933064
 20
1220.217311796223
 30
0.0
 11
723.8290490103878
 21
1220.245705934783
 31
0.0
  0
LINE
  5
4B6
330
22
100
AcDbEntity
  8
_2-7_ビス
  6
Continuous
 62
     7
100
AcDbLine
 10
723.8290490103878
 20
1220.245705934783
 30
0.0
 11
723.8339779668811
 21
1220.275493609266
 31
0.0
  0
LINE
  5
4B7
330
22
100
AcDbEntity
  8
_2-7_ビス
  6
Continuous
 62
     7
100
AcDbLine
 10
723.8339779668811
 20
1220.275493609266
 30
0.0
 11
723.834127198937
 21
1220.305769736256
 31
0.0
  0
LINE
  5
4B8
330
22
100
AcDbEntity
  8
_2-7_ビス
  6
Continuous
 62
     7
100
AcDbLine
 10
723.834127198937
 20
1220.305769736256
 30
0.0
 11
723.8294921722154
 21
1220.335614390954
 31
0.0
  0
LINE
  5
4B9
330
22
100
AcDbEntity
  8
_2-7_ビス
  6
Continuous
 62
     7
100
AcDbLine
 10
723.8294921722154
 20
1220.335614390954
 30
0.0
 11
723.8202137196575
 21
1220.36412075863
 31
0.0
  0
LINE
  5
4BA
330
22
100
AcDbEntity
  8
_2-7_ビス
  6
Continuous
 62
     7
100
AcDbLine
 10
723.8202137196575
 20
1220.36412075863
 30
0.0
 11
723.8065737623497
 21
1220.390422687726
 31
0.0
  0
LINE
  5
4BB
330
22
100
AcDbEntity
  8
_2-7_ビス
  6
Continuous
 62
     7
100
AcDbLine
 10
723.8065737623497
 20
1220.390422687726
 30
0.0
 11
723.8064902685927
 21
1220.390555175989
 31
0.0
  0
LINE
  5
4BC
330
22
100
AcDbEntity
  8
_2-7_ビス
  6
Continuous
 62
     7
100
AcDbLine
 10
723.3864775327388
 20
1227.951791762618
 30
0.0
 11
723.3864775327388
 21
1227.951791762618
 31
0.0
  0
LINE
  5
4BD
330
22
100
AcDbEntity
  8
_2-7_ビス
  6
Continuous
 62
     7
100
AcDbLine
 10
723.3864775327388
 20
1227.951791762618
 30
0.0
 11
723.4708033635325
 21
1227.964051719266
 31
0.0
  0
LINE
  5
4BE
330
22
100
AcDbEntity
  8
_2-7_ビス
  6
Continuous
 62
     7
100
AcDbLine
 10
723.4708033635325
 20
1227.964051719266
 30
0.0
 11
723.5519116849907
 21
1227.992224185973
 31
0.0
  0
LINE
  5
4BF
330
22
100
AcDbEntity
  8
_2-7_ビス
  6
Continuous
 62
     7
100
AcDbLine
 10
723.5519116849907
 20
1227.992224185973
 30
0.0
 11
723.6273380618089
 21
1228.035453156595
 31
0.0
  0
LINE
  5
4C0
330
22
100
AcDbEntity
  8
_2-7_ビス
  6
Continuous
 62
     7
100
AcDbLine
 10
723.6273380618089
 20
1228.035453156595
 30
0.0
 11
723.6947907016948
 21
1228.092425140733
 31
0.0
  0
LINE
  5
4C1
330
22
100
AcDbEntity
  8
_2-7_ビス
  6
Continuous
 62
     7
100
AcDbLine
 10
723.6947907016948
 20
1228.092425140733
 30
0.0
 11
723.7522200903182
 21
1228.16140907348
 31
0.0
  0
LINE
  5
4C2
330
22
100
AcDbEntity
  8
_2-7_ビス
  6
Continuous
 62
     7
100
AcDbLine
 10
723.7522200903182
 20
1228.16140907348
 30
0.0
 11
723.7978812647664
 21
1228.240308912946
 31
0.0
  0
LINE
  5
4C3
330
22
100
AcDbEntity
  8
_2-7_ビス
  6
Continuous
 62
     7
100
AcDbLine
 10
723.7978812647664
 20
1228.240308912946
 30
0.0
 11
723.8303868333596
 21
1228.326727327434
 31
0.0
  0
LINE
  5
4C4
330
22
100
AcDbEntity
  8
_2-7_ビス
  6
Continuous
 62
     7
100
AcDbLine
 10
723.8303868333596
 20
1228.326727327434
 30
0.0
 11
723.8487491308447
 21
1228.418038537151
 31
0.0
  0
LINE
  5
4C5
330
22
100
AcDbEntity
  8
_2-7_ビス
  6
Continuous
 62
     7
100
AcDbLine
 10
723.8487491308447
 20
1228.418038537151
 30
0.0
 11
723.8524102281044
 21
1228.511468097192
 31
0.0
  0
LINE
  5
4C6
330
22
100
AcDbEntity
  8
_2-7_ビス
  6
Continuous
 62
     7
100
AcDbLine
 10
723.8524102281044
 20
1228.511468097192
 30
0.0
 11
723.8412588845509
 21
1228.604177197657
 31
0.0
  0
LINE
  5
4C7
330
22
100
AcDbEntity
  8
_2-7_ビス
  6
Continuous
 62
     7
100
AcDbLine
 10
723.8412588845509
 20
1228.604177197657
 30
0.0
 11
723.8156339281154
 21
1228.69334891944
 31
0.0
  0
LINE
  5
4C8
330
22
100
AcDbEntity
  8
_2-7_ビス
  6
Continuous
 62
     7
100
AcDbLine
 10
723.8156339281154
 20
1228.69334891944
 30
0.0
 11
723.7763139601321
 21
1228.776273824896
 31
0.0
  0
LINE
  5
4C9
330
22
100
AcDbEntity
  8
_2-7_ビス
  6
Continuous
 62
     7
100
AcDbLine
 10
723.7763139601321
 20
1228.776273824896
 30
0.0
 11
723.7244936979315
 21
1228.850432282736
 31
0.0
  0
LINE
  5
4CA
330
22
100
AcDbEntity
  8
_2-7_ビス
  6
Continuous
 62
     7
100
AcDbLine
 10
723.7244936979315
 20
1228.850432282736
 30
0.0
 11
723.6617476739584
 21
1228.913571025745
 31
0.0
  0
LINE
  5
4CB
330
22
100
AcDbEntity
  8
_2-7_ビス
  6
Continuous
 62
     7
100
AcDbLine
 10
723.6617476739584
 20
1228.913571025745
 30
0.0
 11
723.5899823943998
 21
1228.963771615166
 31
0.0
  0
LINE
  5
4CC
330
22
100
AcDbEntity
  8
_2-7_ビス
  6
Continuous
 62
     7
100
AcDbLine
 10
723.5899823943998
 20
1228.963771615166
 30
0.0
 11
723.5113784109606
 21
1228.999508731492
 31
0.0
  0
LINE
  5
4CD
330
22
100
AcDbEntity
  8
_2-7_ビス
  6
Continuous
 62
     7
100
AcDbLine
 10
723.5113784109606
 20
1228.999508731492
 30
0.0
 11
723.4283240659016
 21
1229.019696520528
 31
0.0
  0
LINE
  5
4CE
330
22
100
AcDbEntity
  8
_2-7_ビス
  6
Continuous
 62
     7
100
AcDbLine
 10
723.4283240659016
 20
1229.019696520528
 30
0.0
 11
723.3864775327388
 21
1229.023721586518
 31
0.0
  0
LINE
  5
4CF
330
22
100
AcDbEntity
  8
_2-7_ビス
  6
Continuous
 62
     7
100
AcDbLine
 10
723.3864775327388
 20
1235.785125091118
 30
0.0
 11
723.3864775327388
 21
1235.785125091118
 31
0.0
  0
LINE
  5
4D0
330
22
100
AcDbEntity
  8
_2-7_ビス
  6
Continuous
 62
     7
100
AcDbLine
 10
723.3864775327388
 20
1235.785125091118
 30
0.0
 11
723.4708033635325
 21
1235.797385047766
 31
0.0
  0
LINE
  5
4D1
330
22
100
AcDbEntity
  8
_2-7_ビス
  6
Continuous
 62
     7
100
AcDbLine
 10
723.4708033635325
 20
1235.797385047766
 30
0.0
 11
723.5519116849907
 21
1235.825557514473
 31
0.0
  0
LINE
  5
4D2
330
22
100
AcDbEntity
  8
_2-7_ビス
  6
Continuous
 62
     7
100
AcDbLine
 10
723.5519116849907
 20
1235.825557514473
 30
0.0
 11
723.6273380618089
 21
1235.868786485095
 31
0.0
  0
LINE
  5
4D3
330
22
100
AcDbEntity
  8
_2-7_ビス
  6
Continuous
 62
     7
100
AcDbLine
 10
723.6273380618089
 20
1235.868786485095
 30
0.0
 11
723.6947907016948
 21
1235.925758469234
 31
0.0
  0
LINE
  5
4D4
330
22
100
AcDbEntity
  8
_2-7_ビス
  6
Continuous
 62
     7
100
AcDbLine
 10
723.6947907016948
 20
1235.925758469234
 30
0.0
 11
723.7522200903182
 21
1235.99474240198
 31
0.0
  0
LINE
  5
4D5
330
22
100
AcDbEntity
  8
_2-7_ビス
  6
Continuous
 62
     7
100
AcDbLine
 10
723.7522200903182
 20
1235.99474240198
 30
0.0
 11
723.7978812647664
 21
1236.073642241446
 31
0.0
  0
LINE
  5
4D6
330
22
100
AcDbEntity
  8
_2-7_ビス
  6
Continuous
 62
     7
100
AcDbLine
 10
723.7978812647664
 20
1236.073642241446
 30
0.0
 11
723.8303868333596
 21
1236.160060655934
 31
0.0
  0
LINE
  5
4D7
330
22
100
AcDbEntity
  8
_2-7_ビス
  6
Continuous
 62
     7
100
AcDbLine
 10
723.8303868333596
 20
1236.160060655934
 30
0.0
 11
723.8487491308447
 21
1236.25137186565
 31
0.0
  0
LINE
  5
4D8
330
22
100
AcDbEntity
  8
_2-7_ビス
  6
Continuous
 62
     7
100
AcDbLine
 10
723.8487491308447
 20
1236.25137186565
 30
0.0
 11
723.8524102281044
 21
1236.344801425693
 31
0.0
  0
LINE
  5
4D9
330
22
100
AcDbEntity
  8
_2-7_ビス
  6
Continuous
 62
     7
100
AcDbLine
 10
723.8524102281044
 20
1236.344801425693
 30
0.0
 11
723.8412588845509
 21
1236.437510526157
 31
0.0
  0
LINE
  5
4DA
330
22
100
AcDbEntity
  8
_2-7_ビス
  6
Continuous
 62
     7
100
AcDbLine
 10
723.8412588845509
 20
1236.437510526157
 30
0.0
 11
723.8156339281154
 21
1236.52668224794
 31
0.0
  0
LINE
  5
4DB
330
22
100
AcDbEntity
  8
_2-7_ビス
  6
Continuous
 62
     7
100
AcDbLine
 10
723.8156339281154
 20
1236.52668224794
 30
0.0
 11
723.7763139601321
 21
1236.609607153396
 31
0.0
  0
LINE
  5
4DC
330
22
100
AcDbEntity
  8
_2-7_ビス
  6
Continuous
 62
     7
100
AcDbLine
 10
723.7763139601321
 20
1236.609607153396
 30
0.0
 11
723.7244936979315
 21
1236.683765611237
 31
0.0
  0
LINE
  5
4DD
330
22
100
AcDbEntity
  8
_2-7_ビス
  6
Continuous
 62
     7
100
AcDbLine
 10
723.7244936979315
 20
1236.683765611237
 30
0.0
 11
723.6617476739584
 21
1236.746904354246
 31
0.0
  0
LINE
  5
4DE
330
22
100
AcDbEntity
  8
_2-7_ビス
  6
Continuous
 62
     7
100
AcDbLine
 10
723.6617476739584
 20
1236.746904354246
 30
0.0
 11
723.5899823943998
 21
1236.797104943667
 31
0.0
  0
LINE
  5
4DF
330
22
100
AcDbEntity
  8
_2-7_ビス
  6
Continuous
 62
     7
100
AcDbLine
 10
723.5899823943998
 20
1236.797104943667
 30
0.0
 11
723.5113784109606
 21
1236.832842059992
 31
0.0
  0
LINE
  5
4E0
330
22
100
AcDbEntity
  8
_2-7_ビス
  6
Continuous
 62
     7
100
AcDbLine
 10
723.5113784109606
 20
1236.832842059992
 30
0.0
 11
723.4283240659016
 21
1236.853029849028
 31
0.0
  0
LINE
  5
4E1
330
22
100
AcDbEntity
  8
_2-7_ビス
  6
Continuous
 62
     7
100
AcDbLine
 10
723.4283240659016
 20
1236.853029849028
 30
0.0
 11
723.3864775327388
 21
1236.857054915019
 31
0.0
  0
LINE
  5
4E2
330
22
100
AcDbEntity
  8
_2-7_ビス
  6
Continuous
 62
     7
100
AcDbLine
 10
723.7619696766281
 20
1217.397405804218
 30
0.0
 11
723.7619696766281
 21
1217.397405804218
 31
0.0
  0
LINE
  5
4E3
330
22
100
AcDbEntity
  8
_2-7_ビス
  6
Continuous
 62
     7
100
AcDbLine
 10
723.7619696766281
 20
1217.397405804218
 30
0.0
 11
723.7565657522018
 21
1217.536661426133
 31
0.0
  0
LINE
  5
4E4
330
22
100
AcDbEntity
  8
_2-7_ビス
  6
Continuous
 62
     7
100
AcDbLine
 10
723.7565657522018
 20
1217.536661426133
 30
0.0
 11
723.7292490641827
 21
1217.672769771216
 31
0.0
  0
LINE
  5
4E5
330
22
100
AcDbEntity
  8
_2-7_ビス
  6
Continuous
 62
     7
100
AcDbLine
 10
723.7292490641827
 20
1217.672769771216
 30
0.0
 11
723.7116943435402
 21
1217.727230365418
 31
0.0
  0
LINE
  5
4E6
330
22
100
AcDbEntity
  8
_2-7_ビス
  6
Continuous
 62
     7
100
AcDbLine
 10
724.8528752827377
 20
1215.398078346666
 30
0.0
 11
724.8528752827377
 21
1215.398078346666
 31
0.0
  0
LINE
  5
4E7
330
22
100
AcDbEntity
  8
_2-7_ビス
  6
Continuous
 62
     7
100
AcDbLine
 10
724.8528752827377
 20
1215.398078346666
 30
0.0
 11
724.8500534579051
 21
1215.45391854121
 31
0.0
  0
LINE
  5
4E8
330
22
100
AcDbEntity
  8
_2-7_ビス
  6
Continuous
 62
     7
100
AcDbLine
 10
724.8500534579051
 20
1215.45391854121
 30
0.0
 11
724.8384547704164
 21
1215.508371679065
 31
0.0
  0
LINE
  5
4E9
330
22
100
AcDbEntity
  8
_2-7_ビス
  6
Continuous
 62
     7
100
AcDbLine
 10
724.8384547704164
 20
1215.508371679065
 30
0.0
 11
724.8184316405215
 21
1215.559783229193
 31
0.0
  0
LINE
  5
4EA
330
22
100
AcDbEntity
  8
_2-7_ビス
  6
Continuous
 62
     7
100
AcDbLine
 10
724.8184316405215
 20
1215.559783229193
 30
0.0
 11
724.7905924608907
 21
1215.606591077659
 31
0.0
  0
LINE
  5
4EB
330
22
100
AcDbEntity
  8
_2-7_ビス
  6
Continuous
 62
     7
100
AcDbLine
 10
724.7905924608907
 20
1215.606591077659
 30
0.0
 11
724.7557831109093
 21
1215.647372991671
 31
0.0
  0
LINE
  5
4EC
330
22
100
AcDbEntity
  8
_2-7_ビス
  6
Continuous
 62
     7
100
AcDbLine
 10
724.7557831109093
 20
1215.647372991671
 30
0.0
 11
724.7150612550621
 21
1215.680889833411
 31
0.0
  0
LINE
  5
4ED
330
22
100
AcDbEntity
  8
_2-7_ビス
  6
Continuous
 62
     7
100
AcDbLine
 10
724.7150612550621
 20
1215.680889833411
 30
0.0
 11
724.6696642063332
 21
1215.706123210602
 31
0.0
  0
LINE
  5
4EE
330
22
100
AcDbEntity
  8
_2-7_ビス
  6
Continuous
 62
     7
100
AcDbLine
 10
724.6696642063332
 20
1215.706123210602
 30
0.0
 11
724.6209713310754
 21
1215.722306419847
 31
0.0
  0
LINE
  5
4EF
330
22
100
AcDbEntity
  8
_2-7_ビス
  6
Continuous
 62
     7
100
AcDbLine
 10
724.6209713310754
 20
1215.722306419847
 30
0.0
 11
724.5704621376646
 21
1215.728947742521
 31
0.0
  0
LINE
  5
4F0
330
22
100
AcDbEntity
  8
_2-7_ビス
  6
Continuous
 62
     7
100
AcDbLine
 10
724.5704621376646
 20
1215.728947742521
 30
0.0
 11
724.5196713223832
 21
1215.725845385397
 31
0.0
  0
LINE
  5
4F1
330
22
100
AcDbEntity
  8
_2-7_ビス
  6
Continuous
 62
     7
100
AcDbLine
 10
724.5196713223832
 20
1215.725845385397
 30
0.0
 11
724.4701421384521
 21
1215.713093612026
 31
0.0
  0
LINE
  5
4F2
330
22
100
AcDbEntity
  8
_2-7_ビス
  6
Continuous
 62
     7
100
AcDbLine
 10
724.4701421384521
 20
1215.713093612026
 30
0.0
 11
724.4233795050621
 21
1215.691079878588
 31
0.0
  0
LINE
  5
4F3
330
22
100
AcDbEntity
  8
_2-7_ビス
  6
Continuous
 62
     7
100
AcDbLine
 10
724.4233795050621
 20
1215.691079878588
 30
0.0
 11
724.3808042811657
 21
1215.660473061235
 31
0.0
  0
LINE
  5
4F4
330
22
100
AcDbEntity
  8
_2-7_ビス
  6
Continuous
 62
     7
100
AcDbLine
 10
724.3808042811657
 20
1215.660473061235
 30
0.0
 11
724.343710093397
 21
1215.622203132624
 31
0.0
  0
LINE
  5
4F5
330
22
100
AcDbEntity
  8
_2-7_ビス
  6
Continuous
 62
     7
100
AcDbLine
 10
724.343710093397
 20
1215.622203132624
 30
0.0
 11
724.313224029881
 21
1215.57743290517
 31
0.0
  0
LINE
  5
4F6
330
22
100
AcDbEntity
  8
_2-7_ビス
  6
Continuous
 62
     7
100
AcDbLine
 10
724.313224029881
 20
1215.57743290517
 30
0.0
 11
724.2902723942303
 21
1215.52752269958
 31
0.0
  0
LINE
  5
4F7
330
22
100
AcDbEntity
  8
_2-7_ビス
  6
Continuous
 62
     7
100
AcDbLine
 10
724.2902723942303
 20
1215.52752269958
 30
0.0
 11
724.2755525602806
 21
1215.473989012196
 31
0.0
  0
LINE
  5
4F8
330
22
100
AcDbEntity
  8
_2-7_ビス
  6
Continuous
 62
     7
100
AcDbLine
 10
724.2755525602806
 20
1215.473989012196
 30
0.0
 11
724.2695117827379
 21
1215.418458437018
 31
0.0
  0
LINE
  5
4F9
330
22
100
AcDbEntity
  8
_2-7_ビス
  6
Continuous
 62
     7
100
AcDbLine
 10
724.2695117827379
 20
1215.418458437018
 30
0.0
 11
724.2695117827379
 21
1215.418458437018
 31
0.0
  0
LINE
  5
4FA
330
22
100
AcDbEntity
  8
_2-7_ビス
  6
Continuous
 62
     7
100
AcDbLine
 10
1156.141799445214
 20
1152.386131133507
 30
0.0
 11
1156.141799445214
 21
1156.481616306419
 31
0.0
  0
LINE
  5
4FB
330
22
100
AcDbEntity
  8
_2-7_ビス
  6
Continuous
 62
     7
100
AcDbLine
 10
1156.141799445214
 20
1156.481616306419
 30
0.0
 11
1153.141799445213
 21
1156.481616306419
 31
0.0
  0
LINE
  5
4FC
330
22
100
AcDbEntity
  8
_2-7_ビス
  6
Continuous
 62
     7
100
AcDbLine
 10
1156.141799445214
 20
1152.386131133507
 30
0.0
 11
1156.891799445213
 21
1151.561570213303
 31
0.0
  0
LINE
  5
4FD
330
22
100
AcDbEntity
  8
_2-7_ビス
  6
Continuous
 62
     7
100
AcDbLine
 10
1156.891799445213
 20
1151.561570213303
 30
0.0
 11
1156.891799445213
 21
1149.462964486188
 31
0.0
  0
LINE
  5
4FE
330
22
100
AcDbEntity
  8
_2-7_ビス
  6
Continuous
 62
     7
100
AcDbLine
 10
1156.891799445213
 20
1149.462964486188
 30
0.0
 11
1156.343580195213
 21
1145.345371172939
 31
0.0
  0
LINE
  5
4FF
330
22
100
AcDbEntity
  8
_2-7_ビス
  6
Continuous
 62
     7
100
AcDbLine
 10
1156.343580195213
 20
1145.345371172939
 30
0.0
 11
1156.101656445213
 21
1144.937756664418
 31
0.0
  0
LINE
  5
500
330
22
100
AcDbEntity
  8
_2-7_ビス
  6
Continuous
 62
     7
100
AcDbLine
 10
1156.101656445213
 20
1144.937756664418
 30
0.0
 11
1156.141799445214
 21
1144.937756664418
 31
0.0
  0
LINE
  5
501
330
22
100
AcDbEntity
  8
_2-7_ビス
  6
Continuous
 62
     7
100
AcDbLine
 10
1156.141799445214
 20
1144.937756664418
 30
0.0
 11
1156.141799445214
 21
1143.123721577818
 31
0.0
  0
LINE
  5
502
330
22
100
AcDbEntity
  8
_2-7_ビス
  6
Continuous
 62
     7
100
AcDbLine
 10
1156.141799445214
 20
1143.123721577818
 30
0.0
 11
1155.708786884646
 21
1142.299160174819
 31
0.0
  0
LINE
  5
503
330
22
100
AcDbEntity
  8
_2-7_ビス
  6
Continuous
 62
     7
100
AcDbLine
 10
1155.838690695214
 20
1142.051791753918
 30
0.0
 11
1156.816799445213
 21
1142.051791753918
 31
0.0
  0
LINE
  5
504
330
22
100
AcDbEntity
  8
_2-7_ビス
  6
Continuous
 62
     7
100
AcDbLine
 10
1156.816799445213
 20
1142.051791753918
 30
0.0
 11
1156.816799445213
 21
1137.818401160039
 31
0.0
  0
LINE
  5
505
330
22
100
AcDbEntity
  8
_2-7_ビス
  6
Continuous
 62
     7
100
AcDbLine
 10
1156.816799445213
 20
1137.818401160039
 30
0.0
 11
1156.315329945213
 21
1136.857054915018
 31
0.0
  0
LINE
  5
506
330
22
100
AcDbEntity
  8
_2-7_ビス
  6
Continuous
 62
     7
100
AcDbLine
 10
1156.315329945213
 20
1136.857054915018
 30
0.0
 11
1156.310549445213
 21
1136.857054915018
 31
0.0
  0
LINE
  5
507
330
22
100
AcDbEntity
  8
_2-7_ビス
  6
Continuous
 62
     7
100
AcDbLine
 10
1156.310545271929
 20
1136.857055268801
 30
0.0
 11
1156.310549445213
 21
1136.857054915018
 31
0.0
  0
LINE
  5
508
330
22
100
AcDbEntity
  8
_2-7_ビス
  6
Continuous
 62
     7
100
AcDbLine
 10
1156.310545271929
 20
1136.857055268801
 30
0.0
 11
1156.310549445213
 21
1136.857054915018
 31
0.0
  0
LINE
  5
509
330
22
100
AcDbEntity
  8
_2-7_ビス
  6
Continuous
 62
     7
100
AcDbLine
 10
1156.277958195213
 20
1135.785125091119
 30
0.0
 11
1156.816799445213
 21
1135.785125091119
 31
0.0
  0
LINE
  5
50A
330
22
100
AcDbEntity
  8
_2-7_ビス
  6
Continuous
 62
     7
100
AcDbLine
 10
1156.816799445213
 20
1135.785125091119
 30
0.0
 11
1156.816799445213
 21
1129.987891954345
 31
0.0
  0
LINE
  5
50B
330
22
100
AcDbEntity
  8
_2-7_ビス
  6
Continuous
 62
     7
100
AcDbLine
 10
1156.816799445213
 20
1129.987891954345
 30
0.0
 11
1156.310552258153
 21
1129.02374058458
 31
0.0
  0
LINE
  5
50C
330
22
100
AcDbEntity
  8
_2-7_ビス
  6
Continuous
 62
     7
100
AcDbLine
 10
1156.310549445213
 20
1129.023721586518
 30
0.0
 11
1156.306957814858
 21
1129.501172983759
 31
0.0
  0
LINE
  5
50D
330
22
100
AcDbEntity
  8
_2-7_ビス
  6
Continuous
 62
     7
100
AcDbLine
 10
1156.306957814858
 20
1129.501172983759
 30
0.0
 11
1155.986277807234
 21
1129.518458428319
 31
0.0
  0
LINE
  5
50E
330
22
100
AcDbEntity
  8
_2-7_ビス
  6
Continuous
 62
     7
100
AcDbLine
 10
1155.827615767066
 20
1129.765826849218
 30
0.0
 11
1156.277958195213
 21
1130.590388252218
 31
0.0
  0
LINE
  5
50F
330
22
100
AcDbEntity
  8
_2-7_ビス
  6
Continuous
 62
     7
100
AcDbLine
 10
1156.277958195213
 20
1130.590388252218
 30
0.0
 11
1156.277958347337
 21
1131.067839721213
 31
0.0
  0
LINE
  5
510
330
22
100
AcDbEntity
  8
_2-7_ビス
  6
Continuous
 62
     7
100
AcDbLine
 10
1156.277958347337
 20
1131.067839721213
 30
0.0
 11
1155.929925945214
 21
1131.085125094019
 31
0.0
  0
LINE
  5
511
330
22
100
AcDbEntity
  8
_2-7_ビス
  6
Continuous
 62
     7
100
AcDbLine
 10
1155.770336195493
 20
1131.332493514918
 30
0.0
 11
1156.277958195213
 21
1132.157054917918
 31
0.0
  0
LINE
  5
512
330
22
100
AcDbEntity
  8
_2-7_ビス
  6
Continuous
 62
     7
100
AcDbLine
 10
1156.277958195213
 20
1132.157054917918
 30
0.0
 11
1156.277958195213
 21
1132.634506479027
 31
0.0
  0
LINE
  5
513
330
22
100
AcDbEntity
  8
_2-7_ビス
  6
Continuous
 62
     7
100
AcDbLine
 10
1156.277958195213
 20
1132.634506479027
 30
0.0
 11
1155.929925945214
 21
1132.651791759719
 31
0.0
  0
LINE
  5
514
330
22
100
AcDbEntity
  8
_2-7_ビス
  6
Continuous
 62
     7
100
AcDbLine
 10
1155.770336195493
 20
1132.899160180618
 30
0.0
 11
1156.277958195213
 21
1133.723721583618
 31
0.0
  0
LINE
  5
515
330
22
100
AcDbEntity
  8
_2-7_ビス
  6
Continuous
 62
     7
100
AcDbLine
 10
1156.277958195213
 20
1133.723721583618
 30
0.0
 11
1156.277958195213
 21
1134.201173144727
 31
0.0
  0
LINE
  5
516
330
22
100
AcDbEntity
  8
_2-7_ビス
  6
Continuous
 62
     7
100
AcDbLine
 10
1156.277958195213
 20
1134.201173144727
 30
0.0
 11
1155.929925945214
 21
1134.218458425419
 31
0.0
  0
LINE
  5
517
330
22
100
AcDbEntity
  8
_2-7_ビス
  6
Continuous
 62
     7
100
AcDbLine
 10
1155.770336195493
 20
1134.465826846319
 30
0.0
 11
1156.277958347337
 21
1135.290388249318
 31
0.0
  0
LINE
  5
518
330
22
100
AcDbEntity
  8
_2-7_ビス
  6
Continuous
 62
     7
100
AcDbLine
 10
1156.277958347337
 20
1135.290388249318
 30
0.0
 11
1156.277958195213
 21
1135.785125091119
 31
0.0
  0
LINE
  5
519
330
22
100
AcDbEntity
  8
_2-7_ビス
  6
Continuous
 62
     7
100
AcDbLine
 10
1156.310545271929
 20
1136.857055268801
 30
0.0
 11
1156.306860070683
 21
1137.334506737794
 31
0.0
  0
LINE
  5
51A
330
22
100
AcDbEntity
  8
_2-7_ビス
  6
Continuous
 62
     7
100
AcDbLine
 10
1156.306860070683
 20
1137.334506737794
 30
0.0
 11
1155.989415195215
 21
1137.351791756819
 31
0.0
  0
LINE
  5
51B
330
22
100
AcDbEntity
  8
_2-7_ビス
  6
Continuous
 62
     7
100
AcDbLine
 10
1155.827323054893
 20
1137.599160177719
 30
0.0
 11
1156.277958347337
 21
1138.423721580718
 31
0.0
  0
LINE
  5
51C
330
22
100
AcDbEntity
  8
_2-7_ビス
  6
Continuous
 62
     7
100
AcDbLine
 10
1156.277958347337
 20
1138.423721580718
 30
0.0
 11
1156.277958347337
 21
1138.901173049712
 31
0.0
  0
LINE
  5
51D
330
22
100
AcDbEntity
  8
_2-7_ビス
  6
Continuous
 62
     7
100
AcDbLine
 10
1156.277958347337
 20
1138.901173049712
 30
0.0
 11
1155.929925945214
 21
1138.918458422519
 31
0.0
  0
LINE
  5
51E
330
22
100
AcDbEntity
  8
_2-7_ビス
  6
Continuous
 62
     7
100
AcDbLine
 10
1155.770336195493
 20
1139.165826843418
 30
0.0
 11
1156.277958195213
 21
1139.990388246419
 31
0.0
  0
LINE
  5
51F
330
22
100
AcDbEntity
  8
_2-7_ビス
  6
Continuous
 62
     7
100
AcDbLine
 10
1156.277958195213
 20
1139.990388246419
 30
0.0
 11
1156.277958347337
 21
1140.467839715412
 31
0.0
  0
LINE
  5
520
330
22
100
AcDbEntity
  8
_2-7_ビス
  6
Continuous
 62
     7
100
AcDbLine
 10
1156.277958347337
 20
1140.467839715412
 30
0.0
 11
1155.929039852725
 21
1140.485356669378
 31
0.0
  0
LINE
  5
521
330
22
100
AcDbEntity
  8
_2-7_ビス
  6
Continuous
 62
     7
100
AcDbLine
 10
1155.770336195493
 20
1140.732493509118
 30
0.0
 11
1156.277958347337
 21
1141.557054912119
 31
0.0
  0
LINE
  5
522
330
22
100
AcDbEntity
  8
_2-7_ビス
  6
Continuous
 62
     7
100
AcDbLine
 10
1156.277958347337
 20
1141.557054912119
 30
0.0
 11
1156.277958189706
 21
1142.051791753918
 31
0.0
  0
LINE
  5
523
330
22
100
AcDbEntity
  8
_2-7_ビス
  6
Continuous
 62
     7
100
AcDbLine
 10
1156.277958195213
 20
1127.951791762619
 30
0.0
 11
1156.816799445213
 21
1127.951791762619
 31
0.0
  0
LINE
  5
524
330
22
100
AcDbEntity
  8
_2-7_ビス
  6
Continuous
 62
     7
100
AcDbLine
 10
1156.816799445213
 20
1127.951791762619
 30
0.0
 11
1156.816799445213
 21
1124.703550027781
 31
0.0
  0
LINE
  5
525
330
22
100
AcDbEntity
  8
_2-7_ビス
  6
Continuous
 62
     7
100
AcDbLine
 10
1156.816799445213
 20
1124.703550027781
 30
0.0
 11
1156.311013695214
 21
1121.190388258018
 31
0.0
  0
LINE
  5
526
330
22
100
AcDbEntity
  8
_2-7_ビス
  6
Continuous
 62
     7
100
AcDbLine
 10
1156.311013695214
 20
1121.190388258018
 30
0.0
 11
1156.31027917755
 21
1121.667839342159
 31
0.0
  0
LINE
  5
527
330
22
100
AcDbEntity
  8
_2-7_ビス
  6
Continuous
 62
     7
100
AcDbLine
 10
1156.31027917755
 20
1121.667839342159
 30
0.0
 11
1156.001590695213
 21
1121.685125099818
 31
0.0
  0
LINE
  5
528
330
22
100
AcDbEntity
  8
_2-7_ビス
  6
Continuous
 62
     7
100
AcDbLine
 10
1156.311013695214
 20
1121.190388258018
 30
0.0
 11
1155.877536884647
 21
1120.365826855018
 31
0.0
  0
LINE
  5
529
330
22
100
AcDbEntity
  8
_2-7_ビス
  6
Continuous
 62
     7
100
AcDbLine
 10
1155.857034130425
 20
1121.932493520718
 30
0.0
 11
1156.307636463886
 21
1122.757054923718
 31
0.0
  0
LINE
  5
52A
330
22
100
AcDbEntity
  8
_2-7_ビス
  6
Continuous
 62
     7
100
AcDbLine
 10
1156.307636463886
 20
1122.757054923718
 30
0.0
 11
1156.305551559624
 21
1123.234506007858
 31
0.0
  0
LINE
  5
52B
330
22
100
AcDbEntity
  8
_2-7_ビス
  6
Continuous
 62
     7
100
AcDbLine
 10
1156.305551559624
 20
1123.234506007858
 30
0.0
 11
1155.983224695213
 21
1123.251791765518
 31
0.0
  0
LINE
  5
52C
330
22
100
AcDbEntity
  8
_2-7_ビス
  6
Continuous
 62
     7
100
AcDbLine
 10
1155.834719199396
 20
1123.499160186418
 30
0.0
 11
1156.298587058719
 21
1124.323721204564
 31
0.0
  0
LINE
  5
52D
330
22
100
AcDbEntity
  8
_2-7_ビス
  6
Continuous
 62
     7
100
AcDbLine
 10
1156.298587058719
 20
1124.323721204564
 30
0.0
 11
1156.294524218023
 21
1124.801172673559
 31
0.0
  0
LINE
  5
52E
330
22
100
AcDbEntity
  8
_2-7_ビス
  6
Continuous
 62
     7
100
AcDbLine
 10
1156.294524218023
 20
1124.801172673559
 30
0.0
 11
1155.959870862755
 21
1124.818458431218
 31
0.0
  0
LINE
  5
52F
330
22
100
AcDbEntity
  8
_2-7_ビス
  6
Continuous
 62
     7
100
AcDbLine
 10
1155.802616246586
 20
1125.065826852118
 30
0.0
 11
1156.282818870792
 21
1125.890387870264
 31
0.0
  0
LINE
  5
530
330
22
100
AcDbEntity
  8
_2-7_ビス
  6
Continuous
 62
     7
100
AcDbLine
 10
1156.282818870792
 20
1125.890387870264
 30
0.0
 11
1156.277958195213
 21
1126.367839816227
 31
0.0
  0
LINE
  5
531
330
22
100
AcDbEntity
  8
_2-7_ビス
  6
Continuous
 62
     7
100
AcDbLine
 10
1156.277958195213
 20
1126.367839816227
 30
0.0
 11
1155.929925945214
 21
1126.385125096919
 31
0.0
  0
LINE
  5
532
330
22
100
AcDbEntity
  8
_2-7_ビス
  6
Continuous
 62
     7
100
AcDbLine
 10
1155.770336195493
 20
1126.632493517818
 30
0.0
 11
1156.277958347337
 21
1127.457054920818
 31
0.0
  0
LINE
  5
533
330
22
100
AcDbEntity
  8
_2-7_ビス
  6
Continuous
 62
     7
100
AcDbLine
 10
1156.277958347337
 20
1127.457054920818
 30
0.0
 11
1156.277958195213
 21
1127.951791762619
 31
0.0
  0
LINE
  5
534
330
22
100
AcDbEntity
  8
_2-7_ビス
  6
Continuous
 62
     7
100
AcDbLine
 10
1156.007440695213
 20
1120.118458434118
 30
0.0
 11
1156.141799445214
 21
1120.118458434118
 31
0.0
  0
LINE
  5
535
330
22
100
AcDbEntity
  8
_2-7_ビス
  6
Continuous
 62
     7
100
AcDbLine
 10
1156.141799445214
 20
1120.118458434118
 30
0.0
 11
1156.141799445214
 21
1119.335125101268
 31
0.0
  0
LINE
  5
536
330
22
100
AcDbEntity
  8
_2-7_ビス
  6
Continuous
 62
     7
100
AcDbLine
 10
1156.141799445214
 20
1119.335125101268
 30
0.0
 11
1155.991799445213
 21
1119.335125101268
 31
0.0
  0
LINE
  5
537
330
22
100
AcDbEntity
  8
_2-7_ビス
  6
Continuous
 62
     7
100
AcDbLine
 10
1155.991799445213
 20
1119.335125101268
 30
0.0
 11
1155.991799445213
 21
1117.727230365419
 31
0.0
  0
LINE
  5
538
330
22
100
AcDbEntity
  8
_2-7_ビス
  6
Continuous
 62
     7
100
AcDbLine
 10
1155.991799445213
 20
1117.727230365419
 30
0.0
 11
1155.985332634412
 21
1117.727230365419
 31
0.0
  0
LINE
  5
539
330
22
100
AcDbEntity
  8
_2-7_ビス
  6
Continuous
 62
     7
100
AcDbLine
 10
1155.935057445214
 20
1117.397405804219
 30
0.0
 11
1155.935057298675
 21
1111.446964211399
 31
0.0
  0
LINE
  5
53A
330
22
100
AcDbEntity
  8
_2-7_ビス
  6
Continuous
 62
     7
100
AcDbLine
 10
1155.935057298675
 20
1111.446964211399
 30
0.0
 11
1155.494619945214
 21
1110.795543387239
 31
0.0
  0
LINE
  5
53B
330
22
100
AcDbEntity
  8
_2-7_ビス
  6
Continuous
 62
     7
100
AcDbLine
 10
1155.494619945214
 20
1110.795543387239
 30
0.0
 11
1154.491799445213
 21
1109.481616335418
 31
0.0
  0
LINE
  5
53C
330
22
100
AcDbEntity
  8
_2-7_ビス
  6
Continuous
 62
     7
100
AcDbLine
 10
1154.491799445213
 20
1109.481616335418
 30
0.0
 11
1154.342420965719
 21
1109.481616335418
 31
0.0
  0
LINE
  5
53D
330
22
100
AcDbEntity
  8
_2-7_ビス
  6
Continuous
 62
     7
100
AcDbLine
 10
1154.342420965719
 20
1109.481616335418
 30
0.0
 11
1155.427515075033
 21
1111.446964211399
 31
0.0
  0
LINE
  5
53E
330
22
100
AcDbEntity
  8
_2-7_ビス
  6
Continuous
 62
     7
100
AcDbLine
 10
1155.427515075033
 20
1111.446964211399
 30
0.0
 11
1155.427515195214
 21
1115.418458437018
 31
0.0
  0
LINE
  5
53F
330
22
100
AcDbEntity
  8
_2-7_ビス
  6
Continuous
 62
     7
100
AcDbLine
 10
1154.844151695214
 20
1115.418458437018
 30
0.0
 11
1154.844151968646
 21
1111.446964364097
 31
0.0
  0
LINE
  5
540
330
22
100
AcDbEntity
  8
_2-7_ビス
  6
Continuous
 62
     7
100
AcDbLine
 10
1154.844151968646
 20
1111.446964364097
 30
0.0
 11
1153.759057603413
 21
1109.481616335418
 31
0.0
  0
LINE
  5
541
330
22
100
AcDbEntity
  8
_2-7_ビス
  6
Continuous
 62
     7
100
AcDbLine
 10
1153.759057603413
 20
1109.481616335418
 30
0.0
 11
1153.141799445213
 21
1109.481616335418
 31
0.0
  0
LINE
  5
542
330
22
100
AcDbEntity
  8
_2-7_ビス
  6
Continuous
 62
     7
100
AcDbLine
 10
1155.719499550297
 20
1142.319559587484
 30
0.0
 11
1155.719499550297
 21
1142.319559587484
 31
0.0
  0
LINE
  5
543
330
22
100
AcDbEntity
  8
_2-7_ビス
  6
Continuous
 62
     7
100
AcDbLine
 10
1155.719499550297
 20
1142.319559587484
 30
0.0
 11
1155.706301424942
 21
1142.293300232108
 31
0.0
  0
LINE
  5
544
330
22
100
AcDbEntity
  8
_2-7_ビス
  6
Continuous
 62
     7
100
AcDbLine
 10
1155.706301424942
 20
1142.293300232108
 30
0.0
 11
1155.69745136757
 21
1142.264920142138
 31
0.0
  0
LINE
  5
545
330
22
100
AcDbEntity
  8
_2-7_ビス
  6
Continuous
 62
     7
100
AcDbLine
 10
1155.69745136757
 20
1142.264920142138
 30
0.0
 11
1155.693218282697
 21
1142.23528163225
 31
0.0
  0
LINE
  5
546
330
22
100
AcDbEntity
  8
_2-7_ビス
  6
Continuous
 62
     7
100
AcDbLine
 10
1155.693218282697
 20
1142.23528163225
 30
0.0
 11
1155.693730790464
 21
1142.205285253568
 31
0.0
  0
LINE
  5
547
330
22
100
AcDbEntity
  8
_2-7_ビス
  6
Continuous
 62
     7
100
AcDbLine
 10
1155.693730790464
 20
1142.205285253568
 30
0.0
 11
1155.698973318583
 21
1142.175842430877
 31
0.0
  0
LINE
  5
548
330
22
100
AcDbEntity
  8
_2-7_ビス
  6
Continuous
 62
     7
100
AcDbLine
 10
1155.698973318583
 20
1142.175842430877
 30
0.0
 11
1155.708786575488
 21
1142.147847769449
 31
0.0
  0
LINE
  5
549
330
22
100
AcDbEntity
  8
_2-7_ビス
  6
Continuous
 62
     7
100
AcDbLine
 10
1155.708786575488
 20
1142.147847769449
 30
0.0
 11
1155.722872390335
 21
1142.122151872903
 31
0.0
  0
LINE
  5
54A
330
22
100
AcDbEntity
  8
_2-7_ビス
  6
Continuous
 62
     7
100
AcDbLine
 10
1155.722872390335
 20
1142.122151872903
 30
0.0
 11
1155.740802772767
 21
1142.099535498055
 31
0.0
  0
LINE
  5
54B
330
22
100
AcDbEntity
  8
_2-7_ビス
  6
Continuous
 62
     7
100
AcDbLine
 10
1155.740802772767
 20
1142.099535498055
 30
0.0
 11
1155.762032917188
 21
1142.080685832009
 31
0.0
  0
LINE
  5
54C
330
22
100
AcDbEntity
  8
_2-7_ビス
  6
Continuous
 62
     7
100
AcDbLine
 10
1155.762032917188
 20
1142.080685832009
 30
0.0
 11
1155.785917756401
 21
1142.066175612329
 31
0.0
  0
LINE
  5
54D
330
22
100
AcDbEntity
  8
_2-7_ビス
  6
Continuous
 62
     7
100
AcDbLine
 10
1155.785917756401
 20
1142.066175612329
 30
0.0
 11
1155.811731561655
 21
1142.056445724699
 31
0.0
  0
LINE
  5
54E
330
22
100
AcDbEntity
  8
_2-7_ビス
  6
Continuous
 62
     7
100
AcDbLine
 10
1155.811731561655
 20
1142.056445724699
 30
0.0
 11
1155.838689993538
 21
1142.05179180683
 31
0.0
  0
LINE
  5
54F
330
22
100
AcDbEntity
  8
_2-7_ビス
  6
Continuous
 62
     7
100
AcDbLine
 10
1155.838689993538
 20
1142.05179180683
 30
0.0
 11
1155.838690695214
 21
1142.051791753918
 31
0.0
  0
LINE
  5
550
330
22
100
AcDbEntity
  8
_2-7_ビス
  6
Continuous
 62
     7
100
AcDbLine
 10
1155.770336195492
 20
1140.732493509118
 30
0.0
 11
1155.770336195492
 21
1140.732493509118
 31
0.0
  0
LINE
  5
551
330
22
100
AcDbEntity
  8
_2-7_ビス
  6
Continuous
 62
     7
100
AcDbLine
 10
1155.770336195492
 20
1140.732493509118
 30
0.0
 11
1155.769665089906
 21
1140.69253535513
 31
0.0
  0
LINE
  5
552
330
22
100
AcDbEntity
  8
_2-7_ビス
  6
Continuous
 62
     7
100
AcDbLine
 10
1155.769665089906
 20
1140.69253535513
 30
0.0
 11
1155.77531540847
 21
1140.653056133547
 31
0.0
  0
LINE
  5
553
330
22
100
AcDbEntity
  8
_2-7_ビス
  6
Continuous
 62
     7
100
AcDbLine
 10
1155.77531540847
 20
1140.653056133547
 30
0.0
 11
1155.787115469114
 21
1140.615255400542
 31
0.0
  0
LINE
  5
554
330
22
100
AcDbEntity
  8
_2-7_ビス
  6
Continuous
 62
     7
100
AcDbLine
 10
1155.787115469114
 20
1140.615255400542
 30
0.0
 11
1155.804706732968
 21
1140.580281712257
 31
0.0
  0
LINE
  5
555
330
22
100
AcDbEntity
  8
_2-7_ビス
  6
Continuous
 62
     7
100
AcDbLine
 10
1155.804706732968
 20
1140.580281712257
 30
0.0
 11
1155.82755469838
 21
1140.549197726513
 31
0.0
  0
LINE
  5
556
330
22
100
AcDbEntity
  8
_2-7_ビス
  6
Continuous
 62
     7
100
AcDbLine
 10
1155.82755469838
 20
1140.549197726513
 30
0.0
 11
1155.854965141484
 21
1140.522947914488
 31
0.0
  0
LINE
  5
557
330
22
100
AcDbEntity
  8
_2-7_ビス
  6
Continuous
 62
     7
100
AcDbLine
 10
1155.854965141484
 20
1140.522947914488
 30
0.0
 11
1155.886105209836
 21
1140.502329863439
 31
0.0
  0
LINE
  5
558
330
22
100
AcDbEntity
  8
_2-7_ビス
  6
Continuous
 62
     7
100
AcDbLine
 10
1155.886105209836
 20
1140.502329863439
 30
0.0
 11
1155.920028728216
 21
1140.487970042412
 31
0.0
  0
LINE
  5
559
330
22
100
AcDbEntity
  8
_2-7_ビス
  6
Continuous
 62
     7
100
AcDbLine
 10
1155.920028728216
 20
1140.487970042412
 30
0.0
 11
1155.929925945213
 21
1140.485125088218
 31
0.0
  0
LINE
  5
55A
330
22
100
AcDbEntity
  8
_2-7_ビス
  6
Continuous
 62
     7
100
AcDbLine
 10
1155.770336195492
 20
1139.165826843418
 30
0.0
 11
1155.770336195492
 21
1139.165826843418
 31
0.0
  0
LINE
  5
55B
330
22
100
AcDbEntity
  8
_2-7_ビス
  6
Continuous
 62
     7
100
AcDbLine
 10
1155.770336195492
 20
1139.165826843418
 30
0.0
 11
1155.769665089906
 21
1139.12586868943
 31
0.0
  0
LINE
  5
55C
330
22
100
AcDbEntity
  8
_2-7_ビス
  6
Continuous
 62
     7
100
AcDbLine
 10
1155.769665089906
 20
1139.12586868943
 30
0.0
 11
1155.77531540847
 21
1139.086389467848
 31
0.0
  0
LINE
  5
55D
330
22
100
AcDbEntity
  8
_2-7_ビス
  6
Continuous
 62
     7
100
AcDbLine
 10
1155.77531540847
 20
1139.086389467848
 30
0.0
 11
1155.787115469114
 21
1139.048588734842
 31
0.0
  0
LINE
  5
55E
330
22
100
AcDbEntity
  8
_2-7_ビス
  6
Continuous
 62
     7
100
AcDbLine
 10
1155.787115469114
 20
1139.048588734842
 30
0.0
 11
1155.804706732968
 21
1139.013615046557
 31
0.0
  0
LINE
  5
55F
330
22
100
AcDbEntity
  8
_2-7_ビス
  6
Continuous
 62
     7
100
AcDbLine
 10
1155.804706732968
 20
1139.013615046557
 30
0.0
 11
1155.82755469838
 21
1138.982531060813
 31
0.0
  0
LINE
  5
560
330
22
100
AcDbEntity
  8
_2-7_ビス
  6
Continuous
 62
     7
100
AcDbLine
 10
1155.82755469838
 20
1138.982531060813
 30
0.0
 11
1155.854965141484
 21
1138.956281248789
 31
0.0
  0
LINE
  5
561
330
22
100
AcDbEntity
  8
_2-7_ビス
  6
Continuous
 62
     7
100
AcDbLine
 10
1155.854965141484
 20
1138.956281248789
 30
0.0
 11
1155.886105209836
 21
1138.935663197739
 31
0.0
  0
LINE
  5
562
330
22
100
AcDbEntity
  8
_2-7_ビス
  6
Continuous
 62
     7
100
AcDbLine
 10
1155.886105209836
 20
1138.935663197739
 30
0.0
 11
1155.920028728216
 21
1138.921303376712
 31
0.0
  0
LINE
  5
563
330
22
100
AcDbEntity
  8
_2-7_ビス
  6
Continuous
 62
     7
100
AcDbLine
 10
1155.920028728216
 20
1138.921303376712
 30
0.0
 11
1155.929925945213
 21
1138.918458422518
 31
0.0
  0
LINE
  5
564
330
22
100
AcDbEntity
  8
_2-7_ビス
  6
Continuous
 62
     7
100
AcDbLine
 10
1155.827323054894
 20
1137.599160177718
 30
0.0
 11
1155.827323054894
 21
1137.599160177718
 31
0.0
  0
LINE
  5
565
330
22
100
AcDbEntity
  8
_2-7_ビス
  6
Continuous
 62
     7
100
AcDbLine
 10
1155.827323054894
 20
1137.599160177718
 30
0.0
 11
1155.826651949307
 21
1137.55920202373
 31
0.0
  0
LINE
  5
566
330
22
100
AcDbEntity
  8
_2-7_ビス
  6
Continuous
 62
     7
100
AcDbLine
 10
1155.826651949307
 20
1137.55920202373
 30
0.0
 11
1155.832302267871
 21
1137.519722802147
 31
0.0
  0
LINE
  5
567
330
22
100
AcDbEntity
  8
_2-7_ビス
  6
Continuous
 62
     7
100
AcDbLine
 10
1155.832302267871
 20
1137.519722802147
 30
0.0
 11
1155.844102328516
 21
1137.481922069142
 31
0.0
  0
LINE
  5
568
330
22
100
AcDbEntity
  8
_2-7_ビス
  6
Continuous
 62
     7
100
AcDbLine
 10
1155.844102328516
 20
1137.481922069142
 30
0.0
 11
1155.86169359237
 21
1137.446948380856
 31
0.0
  0
LINE
  5
569
330
22
100
AcDbEntity
  8
_2-7_ビス
  6
Continuous
 62
     7
100
AcDbLine
 10
1155.86169359237
 20
1137.446948380856
 30
0.0
 11
1155.884541557782
 21
1137.415864395113
 31
0.0
  0
LINE
  5
56A
330
22
100
AcDbEntity
  8
_2-7_ビス
  6
Continuous
 62
     7
100
AcDbLine
 10
1155.884541557782
 20
1137.415864395113
 30
0.0
 11
1155.911952000886
 21
1137.389614583088
 31
0.0
  0
LINE
  5
56B
330
22
100
AcDbEntity
  8
_2-7_ビス
  6
Continuous
 62
     7
100
AcDbLine
 10
1155.911952000886
 20
1137.389614583088
 30
0.0
 11
1155.943092069237
 21
1137.368996532039
 31
0.0
  0
LINE
  5
56C
330
22
100
AcDbEntity
  8
_2-7_ビス
  6
Continuous
 62
     7
100
AcDbLine
 10
1155.943092069237
 20
1137.368996532039
 30
0.0
 11
1155.977015587617
 21
1137.354636711012
 31
0.0
  0
LINE
  5
56D
330
22
100
AcDbEntity
  8
_2-7_ビス
  6
Continuous
 62
     7
100
AcDbLine
 10
1155.977015587617
 20
1137.354636711012
 30
0.0
 11
1155.986912804615
 21
1137.351791756818
 31
0.0
  0
LINE
  5
56E
330
22
100
AcDbEntity
  8
_2-7_ビス
  6
Continuous
 62
     7
100
AcDbLine
 10
1155.770336195492
 20
1134.465826846319
 30
0.0
 11
1155.770336195492
 21
1134.465826846319
 31
0.0
  0
LINE
  5
56F
330
22
100
AcDbEntity
  8
_2-7_ビス
  6
Continuous
 62
     7
100
AcDbLine
 10
1155.770336195492
 20
1134.465826846319
 30
0.0
 11
1155.769665089906
 21
1134.42586869233
 31
0.0
  0
LINE
  5
570
330
22
100
AcDbEntity
  8
_2-7_ビス
  6
Continuous
 62
     7
100
AcDbLine
 10
1155.769665089906
 20
1134.42586869233
 30
0.0
 11
1155.77531540847
 21
1134.386389470747
 31
0.0
  0
LINE
  5
571
330
22
100
AcDbEntity
  8
_2-7_ビス
  6
Continuous
 62
     7
100
AcDbLine
 10
1155.77531540847
 20
1134.386389470747
 30
0.0
 11
1155.787115469114
 21
1134.348588737742
 31
0.0
  0
LINE
  5
572
330
22
100
AcDbEntity
  8
_2-7_ビス
  6
Continuous
 62
     7
100
AcDbLine
 10
1155.787115469114
 20
1134.348588737742
 30
0.0
 11
1155.804706732968
 21
1134.313615049456
 31
0.0
  0
LINE
  5
573
330
22
100
AcDbEntity
  8
_2-7_ビス
  6
Continuous
 62
     7
100
AcDbLine
 10
1155.804706732968
 20
1134.313615049456
 30
0.0
 11
1155.82755469838
 21
1134.282531063713
 31
0.0
  0
LINE
  5
574
330
22
100
AcDbEntity
  8
_2-7_ビス
  6
Continuous
 62
     7
100
AcDbLine
 10
1155.82755469838
 20
1134.282531063713
 30
0.0
 11
1155.854965141484
 21
1134.256281251688
 31
0.0
  0
LINE
  5
575
330
22
100
AcDbEntity
  8
_2-7_ビス
  6
Continuous
 62
     7
100
AcDbLine
 10
1155.854965141484
 20
1134.256281251688
 30
0.0
 11
1155.886105209836
 21
1134.235663200639
 31
0.0
  0
LINE
  5
576
330
22
100
AcDbEntity
  8
_2-7_ビス
  6
Continuous
 62
     7
100
AcDbLine
 10
1155.886105209836
 20
1134.235663200639
 30
0.0
 11
1155.920028728216
 21
1134.221303379612
 31
0.0
  0
LINE
  5
577
330
22
100
AcDbEntity
  8
_2-7_ビス
  6
Continuous
 62
     7
100
AcDbLine
 10
1155.920028728216
 20
1134.221303379612
 30
0.0
 11
1155.929925945213
 21
1134.218458425418
 31
0.0
  0
LINE
  5
578
330
22
100
AcDbEntity
  8
_2-7_ビス
  6
Continuous
 62
     7
100
AcDbLine
 10
1155.770336195492
 20
1132.899160180618
 30
0.0
 11
1155.770336195492
 21
1132.899160180618
 31
0.0
  0
LINE
  5
579
330
22
100
AcDbEntity
  8
_2-7_ビス
  6
Continuous
 62
     7
100
AcDbLine
 10
1155.770336195492
 20
1132.899160180618
 30
0.0
 11
1155.769665089906
 21
1132.85920202663
 31
0.0
  0
LINE
  5
57A
330
22
100
AcDbEntity
  8
_2-7_ビス
  6
Continuous
 62
     7
100
AcDbLine
 10
1155.769665089906
 20
1132.85920202663
 30
0.0
 11
1155.77531540847
 21
1132.819722805047
 31
0.0
  0
LINE
  5
57B
330
22
100
AcDbEntity
  8
_2-7_ビス
  6
Continuous
 62
     7
100
AcDbLine
 10
1155.77531540847
 20
1132.819722805047
 30
0.0
 11
1155.787115469114
 21
1132.781922072042
 31
0.0
  0
LINE
  5
57C
330
22
100
AcDbEntity
  8
_2-7_ビス
  6
Continuous
 62
     7
100
AcDbLine
 10
1155.787115469114
 20
1132.781922072042
 30
0.0
 11
1155.804706732968
 21
1132.746948383756
 31
0.0
  0
LINE
  5
57D
330
22
100
AcDbEntity
  8
_2-7_ビス
  6
Continuous
 62
     7
100
AcDbLine
 10
1155.804706732968
 20
1132.746948383756
 30
0.0
 11
1155.82755469838
 21
1132.715864398013
 31
0.0
  0
LINE
  5
57E
330
22
100
AcDbEntity
  8
_2-7_ビス
  6
Continuous
 62
     7
100
AcDbLine
 10
1155.82755469838
 20
1132.715864398013
 30
0.0
 11
1155.854965141484
 21
1132.689614585989
 31
0.0
  0
LINE
  5
57F
330
22
100
AcDbEntity
  8
_2-7_ビス
  6
Continuous
 62
     7
100
AcDbLine
 10
1155.854965141484
 20
1132.689614585989
 30
0.0
 11
1155.886105209836
 21
1132.668996534939
 31
0.0
  0
LINE
  5
580
330
22
100
AcDbEntity
  8
_2-7_ビス
  6
Continuous
 62
     7
100
AcDbLine
 10
1155.886105209836
 20
1132.668996534939
 30
0.0
 11
1155.920028728216
 21
1132.654636713912
 31
0.0
  0
LINE
  5
581
330
22
100
AcDbEntity
  8
_2-7_ビス
  6
Continuous
 62
     7
100
AcDbLine
 10
1155.920028728216
 20
1132.654636713912
 30
0.0
 11
1155.929925945213
 21
1132.651791759718
 31
0.0
  0
LINE
  5
582
330
22
100
AcDbEntity
  8
_2-7_ビス
  6
Continuous
 62
     7
100
AcDbLine
 10
1155.770336195492
 20
1131.332493514918
 30
0.0
 11
1155.770336195492
 21
1131.332493514918
 31
0.0
  0
LINE
  5
583
330
22
100
AcDbEntity
  8
_2-7_ビス
  6
Continuous
 62
     7
100
AcDbLine
 10
1155.770336195492
 20
1131.332493514918
 30
0.0
 11
1155.769665089906
 21
1131.292535360929
 31
0.0
  0
LINE
  5
584
330
22
100
AcDbEntity
  8
_2-7_ビス
  6
Continuous
 62
     7
100
AcDbLine
 10
1155.769665089906
 20
1131.292535360929
 30
0.0
 11
1155.77531540847
 21
1131.253056139347
 31
0.0
  0
LINE
  5
585
330
22
100
AcDbEntity
  8
_2-7_ビス
  6
Continuous
 62
     7
100
AcDbLine
 10
1155.77531540847
 20
1131.253056139347
 30
0.0
 11
1155.787115469114
 21
1131.215255406341
 31
0.0
  0
LINE
  5
586
330
22
100
AcDbEntity
  8
_2-7_ビス
  6
Continuous
 62
     7
100
AcDbLine
 10
1155.787115469114
 20
1131.215255406341
 30
0.0
 11
1155.804706732968
 21
1131.180281718056
 31
0.0
  0
LINE
  5
587
330
22
100
AcDbEntity
  8
_2-7_ビス
  6
Continuous
 62
     7
100
AcDbLine
 10
1155.804706732968
 20
1131.180281718056
 30
0.0
 11
1155.82755469838
 21
1131.149197732312
 31
0.0
  0
LINE
  5
588
330
22
100
AcDbEntity
  8
_2-7_ビス
  6
Continuous
 62
     7
100
AcDbLine
 10
1155.82755469838
 20
1131.149197732312
 30
0.0
 11
1155.854965141484
 21
1131.122947920288
 31
0.0
  0
LINE
  5
589
330
22
100
AcDbEntity
  8
_2-7_ビス
  6
Continuous
 62
     7
100
AcDbLine
 10
1155.854965141484
 20
1131.122947920288
 30
0.0
 11
1155.886105209836
 21
1131.102329869238
 31
0.0
  0
LINE
  5
58A
330
22
100
AcDbEntity
  8
_2-7_ビス
  6
Continuous
 62
     7
100
AcDbLine
 10
1155.886105209836
 20
1131.102329869238
 30
0.0
 11
1155.920028728216
 21
1131.087970048212
 31
0.0
  0
LINE
  5
58B
330
22
100
AcDbEntity
  8
_2-7_ビス
  6
Continuous
 62
     7
100
AcDbLine
 10
1155.920028728216
 20
1131.087970048212
 30
0.0
 11
1155.929925945213
 21
1131.085125094018
 31
0.0
  0
LINE
  5
58C
330
22
100
AcDbEntity
  8
_2-7_ビス
  6
Continuous
 62
     7
100
AcDbLine
 10
1155.827615767067
 20
1129.765826849218
 30
0.0
 11
1155.827615767067
 21
1129.765826849218
 31
0.0
  0
LINE
  5
58D
330
22
100
AcDbEntity
  8
_2-7_ビス
  6
Continuous
 62
     7
100
AcDbLine
 10
1155.827615767067
 20
1129.765826849218
 30
0.0
 11
1155.826944661479
 21
1129.72586869523
 31
0.0
  0
LINE
  5
58E
330
22
100
AcDbEntity
  8
_2-7_ビス
  6
Continuous
 62
     7
100
AcDbLine
 10
1155.826944661479
 20
1129.72586869523
 30
0.0
 11
1155.832594980043
 21
1129.686389473647
 31
0.0
  0
LINE
  5
58F
330
22
100
AcDbEntity
  8
_2-7_ビス
  6
Continuous
 62
     7
100
AcDbLine
 10
1155.832594980043
 20
1129.686389473647
 30
0.0
 11
1155.844395040688
 21
1129.648588740642
 31
0.0
  0
LINE
  5
590
330
22
100
AcDbEntity
  8
_2-7_ビス
  6
Continuous
 62
     7
100
AcDbLine
 10
1155.844395040688
 20
1129.648588740642
 30
0.0
 11
1155.861986304542
 21
1129.613615052356
 31
0.0
  0
LINE
  5
591
330
22
100
AcDbEntity
  8
_2-7_ビス
  6
Continuous
 62
     7
100
AcDbLine
 10
1155.861986304542
 20
1129.613615052356
 30
0.0
 11
1155.884834269955
 21
1129.582531066613
 31
0.0
  0
LINE
  5
592
330
22
100
AcDbEntity
  8
_2-7_ビス
  6
Continuous
 62
     7
100
AcDbLine
 10
1155.884834269955
 20
1129.582531066613
 30
0.0
 11
1155.912244713058
 21
1129.556281254588
 31
0.0
  0
LINE
  5
593
330
22
100
AcDbEntity
  8
_2-7_ビス
  6
Continuous
 62
     7
100
AcDbLine
 10
1155.912244713058
 20
1129.556281254588
 30
0.0
 11
1155.94338478141
 21
1129.535663203539
 31
0.0
  0
LINE
  5
594
330
22
100
AcDbEntity
  8
_2-7_ビス
  6
Continuous
 62
     7
100
AcDbLine
 10
1155.94338478141
 20
1129.535663203539
 30
0.0
 11
1155.97730829979
 21
1129.521303382512
 31
0.0
  0
LINE
  5
595
330
22
100
AcDbEntity
  8
_2-7_ビス
  6
Continuous
 62
     7
100
AcDbLine
 10
1155.97730829979
 20
1129.521303382512
 30
0.0
 11
1155.987205516787
 21
1129.518458428318
 31
0.0
  0
LINE
  5
596
330
22
100
AcDbEntity
  8
_2-7_ビス
  6
Continuous
 62
     7
100
AcDbLine
 10
1155.770336195492
 20
1126.632493517818
 30
0.0
 11
1155.770336195492
 21
1126.632493517818
 31
0.0
  0
LINE
  5
597
330
22
100
AcDbEntity
  8
_2-7_ビス
  6
Continuous
 62
     7
100
AcDbLine
 10
1155.770336195492
 20
1126.632493517818
 30
0.0
 11
1155.769665089906
 21
1126.592535363829
 31
0.0
  0
LINE
  5
598
330
22
100
AcDbEntity
  8
_2-7_ビス
  6
Continuous
 62
     7
100
AcDbLine
 10
1155.769665089906
 20
1126.592535363829
 30
0.0
 11
1155.77531540847
 21
1126.553056142247
 31
0.0
  0
LINE
  5
599
330
22
100
AcDbEntity
  8
_2-7_ビス
  6
Continuous
 62
     7
100
AcDbLine
 10
1155.77531540847
 20
1126.553056142247
 30
0.0
 11
1155.787115469114
 21
1126.515255409241
 31
0.0
  0
LINE
  5
59A
330
22
100
AcDbEntity
  8
_2-7_ビス
  6
Continuous
 62
     7
100
AcDbLine
 10
1155.787115469114
 20
1126.515255409241
 30
0.0
 11
1155.804706732968
 21
1126.480281720956
 31
0.0
  0
LINE
  5
59B
330
22
100
AcDbEntity
  8
_2-7_ビス
  6
Continuous
 62
     7
100
AcDbLine
 10
1155.804706732968
 20
1126.480281720956
 30
0.0
 11
1155.82755469838
 21
1126.449197735213
 31
0.0
  0
LINE
  5
59C
330
22
100
AcDbEntity
  8
_2-7_ビス
  6
Continuous
 62
     7
100
AcDbLine
 10
1155.82755469838
 20
1126.449197735213
 30
0.0
 11
1155.854965141484
 21
1126.422947923188
 31
0.0
  0
LINE
  5
59D
330
22
100
AcDbEntity
  8
_2-7_ビス
  6
Continuous
 62
     7
100
AcDbLine
 10
1155.854965141484
 20
1126.422947923188
 30
0.0
 11
1155.886105209836
 21
1126.402329872139
 31
0.0
  0
LINE
  5
59E
330
22
100
AcDbEntity
  8
_2-7_ビス
  6
Continuous
 62
     7
100
AcDbLine
 10
1155.886105209836
 20
1126.402329872139
 30
0.0
 11
1155.920028728216
 21
1126.387970051112
 31
0.0
  0
LINE
  5
59F
330
22
100
AcDbEntity
  8
_2-7_ビス
  6
Continuous
 62
     7
100
AcDbLine
 10
1155.920028728216
 20
1126.387970051112
 30
0.0
 11
1155.929925945213
 21
1126.385125096918
 31
0.0
  0
LINE
  5
5A0
330
22
100
AcDbEntity
  8
_2-7_ビス
  6
Continuous
 62
     7
100
AcDbLine
 10
1155.802616246587
 20
1125.065826852118
 30
0.0
 11
1155.802616246587
 21
1125.065826852118
 31
0.0
  0
LINE
  5
5A1
330
22
100
AcDbEntity
  8
_2-7_ビス
  6
Continuous
 62
     7
100
AcDbLine
 10
1155.802616246587
 20
1125.065826852118
 30
0.0
 11
1155.801945141
 21
1125.02586869813
 31
0.0
  0
LINE
  5
5A2
330
22
100
AcDbEntity
  8
_2-7_ビス
  6
Continuous
 62
     7
100
AcDbLine
 10
1155.801945141
 20
1125.02586869813
 30
0.0
 11
1155.807595459564
 21
1124.986389476547
 31
0.0
  0
LINE
  5
5A3
330
22
100
AcDbEntity
  8
_2-7_ビス
  6
Continuous
 62
     7
100
AcDbLine
 10
1155.807595459564
 20
1124.986389476547
 30
0.0
 11
1155.819395520208
 21
1124.948588743541
 31
0.0
  0
LINE
  5
5A4
330
22
100
AcDbEntity
  8
_2-7_ビス
  6
Continuous
 62
     7
100
AcDbLine
 10
1155.819395520208
 20
1124.948588743541
 30
0.0
 11
1155.836986784063
 21
1124.913615055256
 31
0.0
  0
LINE
  5
5A5
330
22
100
AcDbEntity
  8
_2-7_ビス
  6
Continuous
 62
     7
100
AcDbLine
 10
1155.836986784063
 20
1124.913615055256
 30
0.0
 11
1155.859834749475
 21
1124.882531069513
 31
0.0
  0
LINE
  5
5A6
330
22
100
AcDbEntity
  8
_2-7_ビス
  6
Continuous
 62
     7
100
AcDbLine
 10
1155.859834749475
 20
1124.882531069513
 30
0.0
 11
1155.887245192579
 21
1124.856281257488
 31
0.0
  0
LINE
  5
5A7
330
22
100
AcDbEntity
  8
_2-7_ビス
  6
Continuous
 62
     7
100
AcDbLine
 10
1155.887245192579
 20
1124.856281257488
 30
0.0
 11
1155.91838526093
 21
1124.835663206439
 31
0.0
  0
LINE
  5
5A8
330
22
100
AcDbEntity
  8
_2-7_ビス
  6
Continuous
 62
     7
100
AcDbLine
 10
1155.91838526093
 20
1124.835663206439
 30
0.0
 11
1155.95230877931
 21
1124.821303385411
 31
0.0
  0
LINE
  5
5A9
330
22
100
AcDbEntity
  8
_2-7_ビス
  6
Continuous
 62
     7
100
AcDbLine
 10
1155.95230877931
 20
1124.821303385411
 30
0.0
 11
1155.962205996307
 21
1124.818458431218
 31
0.0
  0
LINE
  5
5AA
330
22
100
AcDbEntity
  8
_2-7_ビス
  6
Continuous
 62
     7
100
AcDbLine
 10
1155.834719199395
 20
1123.499160186418
 30
0.0
 11
1155.834719199395
 21
1123.499160186418
 31
0.0
  0
LINE
  5
5AB
330
22
100
AcDbEntity
  8
_2-7_ビス
  6
Continuous
 62
     7
100
AcDbLine
 10
1155.834719199395
 20
1123.499160186418
 30
0.0
 11
1155.834048093808
 21
1123.459202032429
 31
0.0
  0
LINE
  5
5AC
330
22
100
AcDbEntity
  8
_2-7_ビス
  6
Continuous
 62
     7
100
AcDbLine
 10
1155.834048093808
 20
1123.459202032429
 30
0.0
 11
1155.839698412372
 21
1123.419722810847
 31
0.0
  0
LINE
  5
5AD
330
22
100
AcDbEntity
  8
_2-7_ビス
  6
Continuous
 62
     7
100
AcDbLine
 10
1155.839698412372
 20
1123.419722810847
 30
0.0
 11
1155.851498473017
 21
1123.381922077841
 31
0.0
  0
LINE
  5
5AE
330
22
100
AcDbEntity
  8
_2-7_ビス
  6
Continuous
 62
     7
100
AcDbLine
 10
1155.851498473017
 20
1123.381922077841
 30
0.0
 11
1155.869089736871
 21
1123.346948389556
 31
0.0
  0
LINE
  5
5AF
330
22
100
AcDbEntity
  8
_2-7_ビス
  6
Continuous
 62
     7
100
AcDbLine
 10
1155.869089736871
 20
1123.346948389556
 30
0.0
 11
1155.891937702283
 21
1123.315864403812
 31
0.0
  0
LINE
  5
5B0
330
22
100
AcDbEntity
  8
_2-7_ビス
  6
Continuous
 62
     7
100
AcDbLine
 10
1155.891937702283
 20
1123.315864403812
 30
0.0
 11
1155.919348145387
 21
1123.289614591788
 31
0.0
  0
LINE
  5
5B1
330
22
100
AcDbEntity
  8
_2-7_ビス
  6
Continuous
 62
     7
100
AcDbLine
 10
1155.919348145387
 20
1123.289614591788
 30
0.0
 11
1155.950488213739
 21
1123.268996540738
 31
0.0
  0
LINE
  5
5B2
330
22
100
AcDbEntity
  8
_2-7_ビス
  6
Continuous
 62
     7
100
AcDbLine
 10
1155.950488213739
 20
1123.268996540738
 30
0.0
 11
1155.984411732119
 21
1123.254636719711
 31
0.0
  0
LINE
  5
5B3
330
22
100
AcDbEntity
  8
_2-7_ビス
  6
Continuous
 62
     7
100
AcDbLine
 10
1155.984411732119
 20
1123.254636719711
 30
0.0
 11
1155.994308949116
 21
1123.251791765518
 31
0.0
  0
LINE
  5
5B4
330
22
100
AcDbEntity
  8
_2-7_ビス
  6
Continuous
 62
     7
100
AcDbLine
 10
1155.857034130425
 20
1121.932493520719
 30
0.0
 11
1155.857034130425
 21
1121.932493520719
 31
0.0
  0
LINE
  5
5B5
330
22
100
AcDbEntity
  8
_2-7_ビス
  6
Continuous
 62
     7
100
AcDbLine
 10
1155.857034130425
 20
1121.932493520719
 30
0.0
 11
1155.856363024838
 21
1121.892535366731
 31
0.0
  0
LINE
  5
5B6
330
22
100
AcDbEntity
  8
_2-7_ビス
  6
Continuous
 62
     7
100
AcDbLine
 10
1155.856363024838
 20
1121.892535366731
 30
0.0
 11
1155.862013343402
 21
1121.853056145148
 31
0.0
  0
LINE
  5
5B7
330
22
100
AcDbEntity
  8
_2-7_ビス
  6
Continuous
 62
     7
100
AcDbLine
 10
1155.862013343402
 20
1121.853056145148
 30
0.0
 11
1155.873813404046
 21
1121.815255412142
 31
0.0
  0
LINE
  5
5B8
330
22
100
AcDbEntity
  8
_2-7_ビス
  6
Continuous
 62
     7
100
AcDbLine
 10
1155.873813404046
 20
1121.815255412142
 30
0.0
 11
1155.8914046679
 21
1121.780281723857
 31
0.0
  0
LINE
  5
5B9
330
22
100
AcDbEntity
  8
_2-7_ビス
  6
Continuous
 62
     7
100
AcDbLine
 10
1155.8914046679
 20
1121.780281723857
 30
0.0
 11
1155.914252633313
 21
1121.749197738114
 31
0.0
  0
LINE
  5
5BA
330
22
100
AcDbEntity
  8
_2-7_ビス
  6
Continuous
 62
     7
100
AcDbLine
 10
1155.914252633313
 20
1121.749197738114
 30
0.0
 11
1155.941663076416
 21
1121.722947926089
 31
0.0
  0
LINE
  5
5BB
330
22
100
AcDbEntity
  8
_2-7_ビス
  6
Continuous
 62
     7
100
AcDbLine
 10
1155.941663076416
 20
1121.722947926089
 30
0.0
 11
1155.972803144768
 21
1121.70232987504
 31
0.0
  0
LINE
  5
5BC
330
22
100
AcDbEntity
  8
_2-7_ビス
  6
Continuous
 62
     7
100
AcDbLine
 10
1155.972803144768
 20
1121.70232987504
 30
0.0
 11
1156.006726663148
 21
1121.687970054012
 31
0.0
  0
LINE
  5
5BD
330
22
100
AcDbEntity
  8
_2-7_ビス
  6
Continuous
 62
     7
100
AcDbLine
 10
1156.006726663148
 20
1121.687970054012
 30
0.0
 11
1156.016623880145
 21
1121.685125099819
 31
0.0
  0
LINE
  5
5BE
330
22
100
AcDbEntity
  8
_2-7_ビス
  6
Continuous
 62
     7
100
AcDbLine
 10
1155.890536709359
 20
1120.390555175988
 30
0.0
 11
1155.890536709359
 21
1120.390555175988
 31
0.0
  0
LINE
  5
5BF
330
22
100
AcDbEntity
  8
_2-7_ビス
  6
Continuous
 62
     7
100
AcDbLine
 10
1155.890536709359
 20
1120.390555175988
 30
0.0
 11
1155.87687455761
 21
1120.364267174011
 31
0.0
  0
LINE
  5
5C0
330
22
100
AcDbEntity
  8
_2-7_ビス
  6
Continuous
 62
     7
100
AcDbLine
 10
1155.87687455761
 20
1120.364267174011
 30
0.0
 11
1155.867572048061
 21
1120.335770284698
 31
0.0
  0
LINE
  5
5C1
330
22
100
AcDbEntity
  8
_2-7_ビス
  6
Continuous
 62
     7
100
AcDbLine
 10
1155.867572048061
 20
1120.335770284698
 30
0.0
 11
1155.862911832759
 21
1120.305930371609
 31
0.0
  0
LINE
  5
5C2
330
22
100
AcDbEntity
  8
_2-7_ビス
  6
Continuous
 62
     7
100
AcDbLine
 10
1155.862911832759
 20
1120.305930371609
 30
0.0
 11
1155.863035509989
 21
1120.275654105405
 31
0.0
  0
LINE
  5
5C3
330
22
100
AcDbEntity
  8
_2-7_ビス
  6
Continuous
 62
     7
100
AcDbLine
 10
1155.863035509989
 20
1120.275654105405
 30
0.0
 11
1155.867939321879
 21
1120.245861415115
 31
0.0
  0
LINE
  5
5C4
330
22
100
AcDbEntity
  8
_2-7_ビス
  6
Continuous
 62
     7
100
AcDbLine
 10
1155.867939321879
 20
1120.245861415115
 30
0.0
 11
1155.877474268586
 21
1120.217457536555
 31
0.0
  0
LINE
  5
5C5
330
22
100
AcDbEntity
  8
_2-7_ビス
  6
Continuous
 62
     7
100
AcDbLine
 10
1155.877474268586
 20
1120.217457536555
 30
0.0
 11
1155.891350635581
 21
1120.191305507204
 31
0.0
  0
LINE
  5
5C6
330
22
100
AcDbEntity
  8
_2-7_ビス
  6
Continuous
 62
     7
100
AcDbLine
 10
1155.891350635581
 20
1120.191305507204
 30
0.0
 11
1155.909146796473
 21
1120.16819994324
 31
0.0
  0
LINE
  5
5C7
330
22
100
AcDbEntity
  8
_2-7_ビス
  6
Continuous
 62
     7
100
AcDbLine
 10
1155.909146796473
 20
1120.16819994324
 30
0.0
 11
1155.93032202392
 21
1120.148842895531
 31
0.0
  0
LINE
  5
5C8
330
22
100
AcDbEntity
  8
_2-7_ビス
  6
Continuous
 62
     7
100
AcDbLine
 10
1155.93032202392
 20
1120.148842895531
 30
0.0
 11
1155.95423291935
 21
1120.133822518178
 31
0.0
  0
LINE
  5
5C9
330
22
100
AcDbEntity
  8
_2-7_ビス
  6
Continuous
 62
     7
100
AcDbLine
 10
1155.95423291935
 20
1120.133822518178
 30
0.0
 11
1155.980152962305
 21
1120.123595197745
 31
0.0
  0
LINE
  5
5CA
330
22
100
AcDbEntity
  8
_2-7_ビス
  6
Continuous
 62
     7
100
AcDbLine
 10
1155.980152962305
 20
1120.123595197745
 30
0.0
 11
1156.007294585397
 21
1120.118471686189
 31
0.0
  0
LINE
  5
5CB
330
22
100
AcDbEntity
  8
_2-7_ビス
  6
Continuous
 62
     7
100
AcDbLine
 10
1156.007294585397
 20
1120.118471686189
 30
0.0
 11
1156.007440695213
 21
1120.118458434119
 31
0.0
  0
LINE
  5
5CC
330
22
100
AcDbEntity
  8
_2-7_ビス
  6
Continuous
 62
     7
100
AcDbLine
 10
1156.310549445214
 20
1129.023721586518
 30
0.0
 11
1156.310549445214
 21
1129.023721586518
 31
0.0
  0
LINE
  5
5CD
330
22
100
AcDbEntity
  8
_2-7_ビス
  6
Continuous
 62
     7
100
AcDbLine
 10
1156.310549445214
 20
1129.023721586518
 30
0.0
 11
1156.226223614421
 21
1129.011461629871
 31
0.0
  0
LINE
  5
5CE
330
22
100
AcDbEntity
  8
_2-7_ビス
  6
Continuous
 62
     7
100
AcDbLine
 10
1156.226223614421
 20
1129.011461629871
 30
0.0
 11
1156.145115292962
 21
1128.983289163164
 31
0.0
  0
LINE
  5
5CF
330
22
100
AcDbEntity
  8
_2-7_ビス
  6
Continuous
 62
     7
100
AcDbLine
 10
1156.145115292962
 20
1128.983289163164
 30
0.0
 11
1156.069688916144
 21
1128.940060192542
 31
0.0
  0
LINE
  5
5D0
330
22
100
AcDbEntity
  8
_2-7_ビス
  6
Continuous
 62
     7
100
AcDbLine
 10
1156.069688916144
 20
1128.940060192542
 30
0.0
 11
1156.002236276258
 21
1128.883088208403
 31
0.0
  0
LINE
  5
5D1
330
22
100
AcDbEntity
  8
_2-7_ビス
  6
Continuous
 62
     7
100
AcDbLine
 10
1156.002236276258
 20
1128.883088208403
 30
0.0
 11
1155.944806887635
 21
1128.814104275657
 31
0.0
  0
LINE
  5
5D2
330
22
100
AcDbEntity
  8
_2-7_ビス
  6
Continuous
 62
     7
100
AcDbLine
 10
1155.944806887635
 20
1128.814104275657
 30
0.0
 11
1155.899145713187
 21
1128.735204436191
 31
0.0
  0
LINE
  5
5D3
330
22
100
AcDbEntity
  8
_2-7_ビス
  6
Continuous
 62
     7
100
AcDbLine
 10
1155.899145713187
 20
1128.735204436191
 30
0.0
 11
1155.866640144593
 21
1128.648786021702
 31
0.0
  0
LINE
  5
5D4
330
22
100
AcDbEntity
  8
_2-7_ビス
  6
Continuous
 62
     7
100
AcDbLine
 10
1155.866640144593
 20
1128.648786021702
 30
0.0
 11
1155.848277847108
 21
1128.557474811986
 31
0.0
  0
LINE
  5
5D5
330
22
100
AcDbEntity
  8
_2-7_ビス
  6
Continuous
 62
     7
100
AcDbLine
 10
1155.848277847108
 20
1128.557474811986
 30
0.0
 11
1155.844616749848
 21
1128.464045251944
 31
0.0
  0
LINE
  5
5D6
330
22
100
AcDbEntity
  8
_2-7_ビス
  6
Continuous
 62
     7
100
AcDbLine
 10
1155.844616749848
 20
1128.464045251944
 30
0.0
 11
1155.855768093402
 21
1128.371336151479
 31
0.0
  0
LINE
  5
5D7
330
22
100
AcDbEntity
  8
_2-7_ビス
  6
Continuous
 62
     7
100
AcDbLine
 10
1155.855768093402
 20
1128.371336151479
 30
0.0
 11
1155.881393049838
 21
1128.282164429697
 31
0.0
  0
LINE
  5
5D8
330
22
100
AcDbEntity
  8
_2-7_ビス
  6
Continuous
 62
     7
100
AcDbLine
 10
1155.881393049838
 20
1128.282164429697
 30
0.0
 11
1155.920713017821
 21
1128.199239524241
 31
0.0
  0
LINE
  5
5D9
330
22
100
AcDbEntity
  8
_2-7_ビス
  6
Continuous
 62
     7
100
AcDbLine
 10
1155.920713017821
 20
1128.199239524241
 30
0.0
 11
1155.972533280021
 21
1128.1250810664
 31
0.0
  0
LINE
  5
5DA
330
22
100
AcDbEntity
  8
_2-7_ビス
  6
Continuous
 62
     7
100
AcDbLine
 10
1155.972533280021
 20
1128.1250810664
 30
0.0
 11
1156.035279303994
 21
1128.061942323391
 31
0.0
  0
LINE
  5
5DB
330
22
100
AcDbEntity
  8
_2-7_ビス
  6
Continuous
 62
     7
100
AcDbLine
 10
1156.035279303994
 20
1128.061942323391
 30
0.0
 11
1156.107044583553
 21
1128.011741733971
 31
0.0
  0
LINE
  5
5DC
330
22
100
AcDbEntity
  8
_2-7_ビス
  6
Continuous
 62
     7
100
AcDbLine
 10
1156.107044583553
 20
1128.011741733971
 30
0.0
 11
1156.185648566993
 21
1127.976004617644
 31
0.0
  0
LINE
  5
5DD
330
22
100
AcDbEntity
  8
_2-7_ビス
  6
Continuous
 62
     7
100
AcDbLine
 10
1156.185648566993
 20
1127.976004617644
 30
0.0
 11
1156.268702912051
 21
1127.955816828609
 31
0.0
  0
LINE
  5
5DE
330
22
100
AcDbEntity
  8
_2-7_ビス
  6
Continuous
 62
     7
100
AcDbLine
 10
1156.268702912051
 20
1127.955816828609
 30
0.0
 11
1156.310549445214
 21
1127.951791762618
 31
0.0
  0
LINE
  5
5DF
330
22
100
AcDbEntity
  8
_2-7_ビス
  6
Continuous
 62
     7
100
AcDbLine
 10
1156.310549445214
 20
1136.857054915019
 30
0.0
 11
1156.310549445214
 21
1136.857054915019
 31
0.0
  0
LINE
  5
5E0
330
22
100
AcDbEntity
  8
_2-7_ビス
  6
Continuous
 62
     7
100
AcDbLine
 10
1156.310549445214
 20
1136.857054915019
 30
0.0
 11
1156.226223614421
 21
1136.844794958371
 31
0.0
  0
LINE
  5
5E1
330
22
100
AcDbEntity
  8
_2-7_ビス
  6
Continuous
 62
     7
100
AcDbLine
 10
1156.226223614421
 20
1136.844794958371
 30
0.0
 11
1156.145115292962
 21
1136.816622491664
 31
0.0
  0
LINE
  5
5E2
330
22
100
AcDbEntity
  8
_2-7_ビス
  6
Continuous
 62
     7
100
AcDbLine
 10
1156.145115292962
 20
1136.816622491664
 30
0.0
 11
1156.069688916144
 21
1136.773393521042
 31
0.0
  0
LINE
  5
5E3
330
22
100
AcDbEntity
  8
_2-7_ビス
  6
Continuous
 62
     7
100
AcDbLine
 10
1156.069688916144
 20
1136.773393521042
 30
0.0
 11
1156.002236276258
 21
1136.716421536904
 31
0.0
  0
LINE
  5
5E4
330
22
100
AcDbEntity
  8
_2-7_ビス
  6
Continuous
 62
     7
100
AcDbLine
 10
1156.002236276258
 20
1136.716421536904
 30
0.0
 11
1155.944806887635
 21
1136.647437604157
 31
0.0
  0
LINE
  5
5E5
330
22
100
AcDbEntity
  8
_2-7_ビス
  6
Continuous
 62
     7
100
AcDbLine
 10
1155.944806887635
 20
1136.647437604157
 30
0.0
 11
1155.899145713187
 21
1136.568537764691
 31
0.0
  0
LINE
  5
5E6
330
22
100
AcDbEntity
  8
_2-7_ビス
  6
Continuous
 62
     7
100
AcDbLine
 10
1155.899145713187
 20
1136.568537764691
 30
0.0
 11
1155.866640144593
 21
1136.482119350203
 31
0.0
  0
LINE
  5
5E7
330
22
100
AcDbEntity
  8
_2-7_ビス
  6
Continuous
 62
     7
100
AcDbLine
 10
1155.866640144593
 20
1136.482119350203
 30
0.0
 11
1155.848277847108
 21
1136.390808140487
 31
0.0
  0
LINE
  5
5E8
330
22
100
AcDbEntity
  8
_2-7_ビス
  6
Continuous
 62
     7
100
AcDbLine
 10
1155.848277847108
 20
1136.390808140487
 30
0.0
 11
1155.844616749848
 21
1136.297378580444
 31
0.0
  0
LINE
  5
5E9
330
22
100
AcDbEntity
  8
_2-7_ビス
  6
Continuous
 62
     7
100
AcDbLine
 10
1155.844616749848
 20
1136.297378580444
 30
0.0
 11
1155.855768093402
 21
1136.20466947998
 31
0.0
  0
LINE
  5
5EA
330
22
100
AcDbEntity
  8
_2-7_ビス
  6
Continuous
 62
     7
100
AcDbLine
 10
1155.855768093402
 20
1136.20466947998
 30
0.0
 11
1155.881393049838
 21
1136.115497758197
 31
0.0
  0
LINE
  5
5EB
330
22
100
AcDbEntity
  8
_2-7_ビス
  6
Continuous
 62
     7
100
AcDbLine
 10
1155.881393049838
 20
1136.115497758197
 30
0.0
 11
1155.920713017821
 21
1136.032572852741
 31
0.0
  0
LINE
  5
5EC
330
22
100
AcDbEntity
  8
_2-7_ビス
  6
Continuous
 62
     7
100
AcDbLine
 10
1155.920713017821
 20
1136.032572852741
 30
0.0
 11
1155.972533280021
 21
1135.958414394901
 31
0.0
  0
LINE
  5
5ED
330
22
100
AcDbEntity
  8
_2-7_ビス
  6
Continuous
 62
     7
100
AcDbLine
 10
1155.972533280021
 20
1135.958414394901
 30
0.0
 11
1156.035279303994
 21
1135.895275651892
 31
0.0
  0
LINE
  5
5EE
330
22
100
AcDbEntity
  8
_2-7_ビス
  6
Continuous
 62
     7
100
AcDbLine
 10
1156.035279303994
 20
1135.895275651892
 30
0.0
 11
1156.107044583553
 21
1135.84507506247
 31
0.0
  0
LINE
  5
5EF
330
22
100
AcDbEntity
  8
_2-7_ビス
  6
Continuous
 62
     7
100
AcDbLine
 10
1156.107044583553
 20
1135.84507506247
 30
0.0
 11
1156.185648566993
 21
1135.809337946144
 31
0.0
  0
LINE
  5
5F0
330
22
100
AcDbEntity
  8
_2-7_ビス
  6
Continuous
 62
     7
100
AcDbLine
 10
1156.185648566993
 20
1135.809337946144
 30
0.0
 11
1156.268702912051
 21
1135.789150157109
 31
0.0
  0
LINE
  5
5F1
330
22
100
AcDbEntity
  8
_2-7_ビス
  6
Continuous
 62
     7
100
AcDbLine
 10
1156.268702912051
 20
1135.789150157109
 30
0.0
 11
1156.310549445214
 21
1135.785125091119
 31
0.0
  0
LINE
  5
5F2
330
22
100
AcDbEntity
  8
_2-7_ビス
  6
Continuous
 62
     7
100
AcDbLine
 10
1155.985332634412
 20
1117.727230365418
 30
0.0
 11
1155.985332634412
 21
1117.727230365418
 31
0.0
  0
LINE
  5
5F3
330
22
100
AcDbEntity
  8
_2-7_ビス
  6
Continuous
 62
     7
100
AcDbLine
 10
1155.985332634412
 20
1117.727230365418
 30
0.0
 11
1155.94914742051
 21
1117.593646038651
 31
0.0
  0
LINE
  5
5F4
330
22
100
AcDbEntity
  8
_2-7_ビス
  6
Continuous
 62
     7
100
AcDbLine
 10
1155.94914742051
 20
1117.593646038651
 30
0.0
 11
1155.934611044569
 21
1117.455182986435
 31
0.0
  0
LINE
  5
5F5
330
22
100
AcDbEntity
  8
_2-7_ビス
  6
Continuous
 62
     7
100
AcDbLine
 10
1155.934611044569
 20
1117.455182986435
 30
0.0
 11
1155.935057301324
 21
1117.397405804218
 31
0.0
  0
LINE
  5
5F6
330
22
100
AcDbEntity
  8
_2-7_ビス
  6
Continuous
 62
     7
100
AcDbLine
 10
1155.427515195214
 20
1115.418458437019
 30
0.0
 11
1155.427515195214
 21
1115.418458437019
 31
0.0
  0
LINE
  5
5F7
330
22
100
AcDbEntity
  8
_2-7_ビス
  6
Continuous
 62
     7
100
AcDbLine
 10
1155.427515195214
 20
1115.418458437019
 30
0.0
 11
1155.421474417671
 21
1115.473989012196
 31
0.0
  0
LINE
  5
5F8
330
22
100
AcDbEntity
  8
_2-7_ビス
  6
Continuous
 62
     7
100
AcDbLine
 10
1155.421474417671
 20
1115.473989012196
 30
0.0
 11
1155.406754583721
 21
1115.52752269958
 31
0.0
  0
LINE
  5
5F9
330
22
100
AcDbEntity
  8
_2-7_ビス
  6
Continuous
 62
     7
100
AcDbLine
 10
1155.406754583721
 20
1115.52752269958
 30
0.0
 11
1155.383802948071
 21
1115.57743290517
 31
0.0
  0
LINE
  5
5FA
330
22
100
AcDbEntity
  8
_2-7_ビス
  6
Continuous
 62
     7
100
AcDbLine
 10
1155.383802948071
 20
1115.57743290517
 30
0.0
 11
1155.353316884554
 21
1115.622203132623
 31
0.0
  0
LINE
  5
5FB
330
22
100
AcDbEntity
  8
_2-7_ビス
  6
Continuous
 62
     7
100
AcDbLine
 10
1155.353316884554
 20
1115.622203132623
 30
0.0
 11
1155.316222696786
 21
1115.660473061234
 31
0.0
  0
LINE
  5
5FC
330
22
100
AcDbEntity
  8
_2-7_ビス
  6
Continuous
 62
     7
100
AcDbLine
 10
1155.316222696786
 20
1115.660473061234
 30
0.0
 11
1155.27364747289
 21
1115.691079878588
 31
0.0
  0
LINE
  5
5FD
330
22
100
AcDbEntity
  8
_2-7_ビス
  6
Continuous
 62
     7
100
AcDbLine
 10
1155.27364747289
 20
1115.691079878588
 30
0.0
 11
1155.2268848395
 21
1115.713093612026
 31
0.0
  0
LINE
  5
5FE
330
22
100
AcDbEntity
  8
_2-7_ビス
  6
Continuous
 62
     7
100
AcDbLine
 10
1155.2268848395
 20
1115.713093612026
 30
0.0
 11
1155.177355655569
 21
1115.725845385397
 31
0.0
  0
LINE
  5
5FF
330
22
100
AcDbEntity
  8
_2-7_ビス
  6
Continuous
 62
     7
100
AcDbLine
 10
1155.177355655569
 20
1115.725845385397
 30
0.0
 11
1155.126564840287
 21
1115.728947742522
 31
0.0
  0
LINE
  5
600
330
22
100
AcDbEntity
  8
_2-7_ビス
  6
Continuous
 62
     7
100
AcDbLine
 10
1155.126564840287
 20
1115.728947742522
 30
0.0
 11
1155.076055646877
 21
1115.722306419847
 31
0.0
  0
LINE
  5
601
330
22
100
AcDbEntity
  8
_2-7_ビス
  6
Continuous
 62
     7
100
AcDbLine
 10
1155.076055646877
 20
1115.722306419847
 30
0.0
 11
1155.027362771619
 21
1115.706123210602
 31
0.0
  0
LINE
  5
602
330
22
100
AcDbEntity
  8
_2-7_ビス
  6
Continuous
 62
     7
100
AcDbLine
 10
1155.027362771619
 20
1115.706123210602
 30
0.0
 11
1154.98196572289
 21
1115.680889833411
 31
0.0
  0
LINE
  5
603
330
22
100
AcDbEntity
  8
_2-7_ビス
  6
Continuous
 62
     7
100
AcDbLine
 10
1154.98196572289
 20
1115.680889833411
 30
0.0
 11
1154.941243867043
 21
1115.647372991672
 31
0.0
  0
LINE
  5
604
330
22
100
AcDbEntity
  8
_2-7_ビス
  6
Continuous
 62
     7
100
AcDbLine
 10
1154.941243867043
 20
1115.647372991672
 30
0.0
 11
1154.906434517061
 21
1115.606591077659
 31
0.0
  0
LINE
  5
605
330
22
100
AcDbEntity
  8
_2-7_ビス
  6
Continuous
 62
     7
100
AcDbLine
 10
1154.906434517061
 20
1115.606591077659
 30
0.0
 11
1154.87859533743
 21
1115.559783229193
 31
0.0
  0
LINE
  5
606
330
22
100
AcDbEntity
  8
_2-7_ビス
  6
Continuous
 62
     7
100
AcDbLine
 10
1154.87859533743
 20
1115.559783229193
 30
0.0
 11
1154.858572207536
 21
1115.508371679065
 31
0.0
  0
LINE
  5
607
330
22
100
AcDbEntity
  8
_2-7_ビス
  6
Continuous
 62
     7
100
AcDbLine
 10
1154.858572207536
 20
1115.508371679065
 30
0.0
 11
1154.846973520047
 21
1115.45391854121
 31
0.0
  0
LINE
  5
608
330
22
100
AcDbEntity
  8
_2-7_ビス
  6
Continuous
 62
     7
100
AcDbLine
 10
1154.846973520047
 20
1115.45391854121
 30
0.0
 11
1154.844151695214
 21
1115.398078346666
 31
0.0
  0
LINE
  5
609
330
22
100
AcDbEntity
  8
_2-7_ビス
  6
Continuous
 62
     7
100
AcDbLine
 10
1154.844151695214
 20
1115.398078346666
 30
0.0
 11
1154.844151695214
 21
1115.398078346666
 31
0.0
  0
LINE
  5
60A
330
22
100
AcDbEntity
  8
_2-7_ビス
  6
Continuous
 62
     7
100
AcDbLine
 10
1150.141799445213
 20
1152.386131133507
 30
0.0
 11
1150.141799445213
 21
1156.481616306419
 31
0.0
  0
LINE
  5
60B
330
22
100
AcDbEntity
  8
_2-7_ビス
  6
Continuous
 62
     7
100
AcDbLine
 10
1150.141799445213
 20
1156.481616306419
 30
0.0
 11
1153.141799445213
 21
1156.481616306419
 31
0.0
  0
LINE
  5
60C
330
22
100
AcDbEntity
  8
_2-7_ビス
  6
Continuous
 62
     7
100
AcDbLine
 10
1150.141799445213
 20
1152.386131133507
 30
0.0
 11
1149.391799445214
 21
1151.561570213303
 31
0.0
  0
LINE
  5
60D
330
22
100
AcDbEntity
  8
_2-7_ビス
  6
Continuous
 62
     7
100
AcDbLine
 10
1149.391799445214
 20
1151.561570213303
 30
0.0
 11
1149.391799445214
 21
1149.462964486188
 31
0.0
  0
LINE
  5
60E
330
22
100
AcDbEntity
  8
_2-7_ビス
  6
Continuous
 62
     7
100
AcDbLine
 10
1149.391799445214
 20
1149.462964486188
 30
0.0
 11
1149.940018695214
 21
1145.345371172939
 31
0.0
  0
LINE
  5
60F
330
22
100
AcDbEntity
  8
_2-7_ビス
  6
Continuous
 62
     7
100
AcDbLine
 10
1149.940018695214
 20
1145.345371172939
 30
0.0
 11
1150.181942445214
 21
1144.937756664418
 31
0.0
  0
LINE
  5
610
330
22
100
AcDbEntity
  8
_2-7_ビス
  6
Continuous
 62
     7
100
AcDbLine
 10
1150.181942445214
 20
1144.937756664418
 30
0.0
 11
1150.141799445213
 21
1144.937756664418
 31
0.0
  0
LINE
  5
611
330
22
100
AcDbEntity
  8
_2-7_ビス
  6
Continuous
 62
     7
100
AcDbLine
 10
1150.141799445213
 20
1144.937756664418
 30
0.0
 11
1150.141799445213
 21
1143.123721577818
 31
0.0
  0
LINE
  5
612
330
22
100
AcDbEntity
  8
_2-7_ビス
  6
Continuous
 62
     7
100
AcDbLine
 10
1150.141799445213
 20
1143.123721577818
 30
0.0
 11
1150.574812005781
 21
1142.299160174819
 31
0.0
  0
LINE
  5
613
330
22
100
AcDbEntity
  8
_2-7_ビス
  6
Continuous
 62
     7
100
AcDbLine
 10
1150.444908195213
 20
1142.051791753918
 30
0.0
 11
1149.466799445214
 21
1142.051791753918
 31
0.0
  0
LINE
  5
614
330
22
100
AcDbEntity
  8
_2-7_ビス
  6
Continuous
 62
     7
100
AcDbLine
 10
1149.466799445214
 20
1142.051791753918
 30
0.0
 11
1149.466799445214
 21
1137.818401160039
 31
0.0
  0
LINE
  5
615
330
22
100
AcDbEntity
  8
_2-7_ビス
  6
Continuous
 62
     7
100
AcDbLine
 10
1149.466799445214
 20
1137.818401160039
 30
0.0
 11
1149.968268945214
 21
1136.857054915018
 31
0.0
  0
LINE
  5
616
330
22
100
AcDbEntity
  8
_2-7_ビス
  6
Continuous
 62
     7
100
AcDbLine
 10
1149.968268945214
 20
1136.857054915018
 30
0.0
 11
1149.973049445214
 21
1136.857054915018
 31
0.0
  0
LINE
  5
617
330
22
100
AcDbEntity
  8
_2-7_ビス
  6
Continuous
 62
     7
100
AcDbLine
 10
1149.973053618498
 20
1136.857055268801
 30
0.0
 11
1149.973049445214
 21
1136.857054915018
 31
0.0
  0
LINE
  5
618
330
22
100
AcDbEntity
  8
_2-7_ビス
  6
Continuous
 62
     7
100
AcDbLine
 10
1149.973053618498
 20
1136.857055268801
 30
0.0
 11
1149.973049445214
 21
1136.857054915018
 31
0.0
  0
LINE
  5
619
330
22
100
AcDbEntity
  8
_2-7_ビス
  6
Continuous
 62
     7
100
AcDbLine
 10
1150.005640695214
 20
1135.785125091119
 30
0.0
 11
1149.466799445214
 21
1135.785125091119
 31
0.0
  0
LINE
  5
61A
330
22
100
AcDbEntity
  8
_2-7_ビス
  6
Continuous
 62
     7
100
AcDbLine
 10
1149.466799445214
 20
1135.785125091119
 30
0.0
 11
1149.466799445214
 21
1129.987891954345
 31
0.0
  0
LINE
  5
61B
330
22
100
AcDbEntity
  8
_2-7_ビス
  6
Continuous
 62
     7
100
AcDbLine
 10
1149.466799445214
 20
1129.987891954345
 30
0.0
 11
1149.973046632275
 21
1129.02374058458
 31
0.0
  0
LINE
  5
61C
330
22
100
AcDbEntity
  8
_2-7_ビス
  6
Continuous
 62
     7
100
AcDbLine
 10
1149.973049445214
 20
1129.023721586518
 30
0.0
 11
1149.976641075569
 21
1129.501172983759
 31
0.0
  0
LINE
  5
61D
330
22
100
AcDbEntity
  8
_2-7_ビス
  6
Continuous
 62
     7
100
AcDbLine
 10
1149.976641075569
 20
1129.501172983759
 30
0.0
 11
1150.297321083193
 21
1129.518458428319
 31
0.0
  0
LINE
  5
61E
330
22
100
AcDbEntity
  8
_2-7_ビス
  6
Continuous
 62
     7
100
AcDbLine
 10
1150.455983123361
 20
1129.765826849218
 30
0.0
 11
1150.005640695214
 21
1130.590388252218
 31
0.0
  0
LINE
  5
61F
330
22
100
AcDbEntity
  8
_2-7_ビス
  6
Continuous
 62
     7
100
AcDbLine
 10
1150.005640695214
 20
1130.590388252218
 30
0.0
 11
1150.00564054309
 21
1131.067839721213
 31
0.0
  0
LINE
  5
620
330
22
100
AcDbEntity
  8
_2-7_ビス
  6
Continuous
 62
     7
100
AcDbLine
 10
1150.00564054309
 20
1131.067839721213
 30
0.0
 11
1150.353672945214
 21
1131.085125094019
 31
0.0
  0
LINE
  5
621
330
22
100
AcDbEntity
  8
_2-7_ビス
  6
Continuous
 62
     7
100
AcDbLine
 10
1150.513262694934
 20
1131.332493514918
 30
0.0
 11
1150.005640695214
 21
1132.157054917918
 31
0.0
  0
LINE
  5
622
330
22
100
AcDbEntity
  8
_2-7_ビス
  6
Continuous
 62
     7
100
AcDbLine
 10
1150.005640695214
 20
1132.157054917918
 30
0.0
 11
1150.005640695214
 21
1132.634506479027
 31
0.0
  0
LINE
  5
623
330
22
100
AcDbEntity
  8
_2-7_ビス
  6
Continuous
 62
     7
100
AcDbLine
 10
1150.005640695214
 20
1132.634506479027
 30
0.0
 11
1150.353672945214
 21
1132.651791759719
 31
0.0
  0
LINE
  5
624
330
22
100
AcDbEntity
  8
_2-7_ビス
  6
Continuous
 62
     7
100
AcDbLine
 10
1150.513262694934
 20
1132.899160180618
 30
0.0
 11
1150.005640695214
 21
1133.723721583618
 31
0.0
  0
LINE
  5
625
330
22
100
AcDbEntity
  8
_2-7_ビス
  6
Continuous
 62
     7
100
AcDbLine
 10
1150.005640695214
 20
1133.723721583618
 30
0.0
 11
1150.005640695214
 21
1134.201173144727
 31
0.0
  0
LINE
  5
626
330
22
100
AcDbEntity
  8
_2-7_ビス
  6
Continuous
 62
     7
100
AcDbLine
 10
1150.005640695214
 20
1134.201173144727
 30
0.0
 11
1150.353672945214
 21
1134.218458425419
 31
0.0
  0
LINE
  5
627
330
22
100
AcDbEntity
  8
_2-7_ビス
  6
Continuous
 62
     7
100
AcDbLine
 10
1150.513262694934
 20
1134.465826846319
 30
0.0
 11
1150.00564054309
 21
1135.290388249318
 31
0.0
  0
LINE
  5
628
330
22
100
AcDbEntity
  8
_2-7_ビス
  6
Continuous
 62
     7
100
AcDbLine
 10
1150.00564054309
 20
1135.290388249318
 30
0.0
 11
1150.005640695214
 21
1135.785125091119
 31
0.0
  0
LINE
  5
629
330
22
100
AcDbEntity
  8
_2-7_ビス
  6
Continuous
 62
     7
100
AcDbLine
 10
1149.973053618498
 20
1136.857055268801
 30
0.0
 11
1149.976738819744
 21
1137.334506737794
 31
0.0
  0
LINE
  5
62A
330
22
100
AcDbEntity
  8
_2-7_ビス
  6
Continuous
 62
     7
100
AcDbLine
 10
1149.976738819744
 20
1137.334506737794
 30
0.0
 11
1150.294183695213
 21
1137.351791756819
 31
0.0
  0
LINE
  5
62B
330
22
100
AcDbEntity
  8
_2-7_ビス
  6
Continuous
 62
     7
100
AcDbLine
 10
1150.456275835535
 20
1137.599160177719
 30
0.0
 11
1150.00564054309
 21
1138.423721580718
 31
0.0
  0
LINE
  5
62C
330
22
100
AcDbEntity
  8
_2-7_ビス
  6
Continuous
 62
     7
100
AcDbLine
 10
1150.00564054309
 20
1138.423721580718
 30
0.0
 11
1150.00564054309
 21
1138.901173049712
 31
0.0
  0
LINE
  5
62D
330
22
100
AcDbEntity
  8
_2-7_ビス
  6
Continuous
 62
     7
100
AcDbLine
 10
1150.00564054309
 20
1138.901173049712
 30
0.0
 11
1150.353672945214
 21
1138.918458422519
 31
0.0
  0
LINE
  5
62E
330
22
100
AcDbEntity
  8
_2-7_ビス
  6
Continuous
 62
     7
100
AcDbLine
 10
1150.513262694934
 20
1139.165826843418
 30
0.0
 11
1150.005640695214
 21
1139.990388246419
 31
0.0
  0
LINE
  5
62F
330
22
100
AcDbEntity
  8
_2-7_ビス
  6
Continuous
 62
     7
100
AcDbLine
 10
1150.005640695214
 20
1139.990388246419
 30
0.0
 11
1150.00564054309
 21
1140.467839715412
 31
0.0
  0
LINE
  5
630
330
22
100
AcDbEntity
  8
_2-7_ビス
  6
Continuous
 62
     7
100
AcDbLine
 10
1150.00564054309
 20
1140.467839715412
 30
0.0
 11
1150.354559037702
 21
1140.485356669378
 31
0.0
  0
LINE
  5
631
330
22
100
AcDbEntity
  8
_2-7_ビス
  6
Continuous
 62
     7
100
AcDbLine
 10
1150.513262694934
 20
1140.732493509118
 30
0.0
 11
1150.00564054309
 21
1141.557054912119
 31
0.0
  0
LINE
  5
632
330
22
100
AcDbEntity
  8
_2-7_ビス
  6
Continuous
 62
     7
100
AcDbLine
 10
1150.00564054309
 20
1141.557054912119
 30
0.0
 11
1150.005640700721
 21
1142.051791753918
 31
0.0
  0
LINE
  5
633
330
22
100
AcDbEntity
  8
_2-7_ビス
  6
Continuous
 62
     7
100
AcDbLine
 10
1150.005640695214
 20
1127.951791762619
 30
0.0
 11
1149.466799445214
 21
1127.951791762619
 31
0.0
  0
LINE
  5
634
330
22
100
AcDbEntity
  8
_2-7_ビス
  6
Continuous
 62
     7
100
AcDbLine
 10
1149.466799445214
 20
1127.951791762619
 30
0.0
 11
1149.466799445214
 21
1124.703550027781
 31
0.0
  0
LINE
  5
635
330
22
100
AcDbEntity
  8
_2-7_ビス
  6
Continuous
 62
     7
100
AcDbLine
 10
1149.466799445214
 20
1124.703550027781
 30
0.0
 11
1149.972585195213
 21
1121.190388258018
 31
0.0
  0
LINE
  5
636
330
22
100
AcDbEntity
  8
_2-7_ビス
  6
Continuous
 62
     7
100
AcDbLine
 10
1149.972585195213
 20
1121.190388258018
 30
0.0
 11
1149.973319712877
 21
1121.667839342159
 31
0.0
  0
LINE
  5
637
330
22
100
AcDbEntity
  8
_2-7_ビス
  6
Continuous
 62
     7
100
AcDbLine
 10
1149.973319712877
 20
1121.667839342159
 30
0.0
 11
1150.282008195214
 21
1121.685125099818
 31
0.0
  0
LINE
  5
638
330
22
100
AcDbEntity
  8
_2-7_ビス
  6
Continuous
 62
     7
100
AcDbLine
 10
1149.972585195213
 20
1121.190388258018
 30
0.0
 11
1150.406062005781
 21
1120.365826855018
 31
0.0
  0
LINE
  5
639
330
22
100
AcDbEntity
  8
_2-7_ビス
  6
Continuous
 62
     7
100
AcDbLine
 10
1150.426564760001
 20
1121.932493520718
 30
0.0
 11
1149.975962426541
 21
1122.757054923718
 31
0.0
  0
LINE
  5
63A
330
22
100
AcDbEntity
  8
_2-7_ビス
  6
Continuous
 62
     7
100
AcDbLine
 10
1149.975962426541
 20
1122.757054923718
 30
0.0
 11
1149.978047330803
 21
1123.234506007858
 31
0.0
  0
LINE
  5
63B
330
22
100
AcDbEntity
  8
_2-7_ビス
  6
Continuous
 62
     7
100
AcDbLine
 10
1149.978047330803
 20
1123.234506007858
 30
0.0
 11
1150.300374195214
 21
1123.251791765518
 31
0.0
  0
LINE
  5
63C
330
22
100
AcDbEntity
  8
_2-7_ビス
  6
Continuous
 62
     7
100
AcDbLine
 10
1150.448879691032
 20
1123.499160186418
 30
0.0
 11
1149.985011831708
 21
1124.323721204564
 31
0.0
  0
LINE
  5
63D
330
22
100
AcDbEntity
  8
_2-7_ビス
  6
Continuous
 62
     7
100
AcDbLine
 10
1149.985011831708
 20
1124.323721204564
 30
0.0
 11
1149.989074672404
 21
1124.801172673559
 31
0.0
  0
LINE
  5
63E
330
22
100
AcDbEntity
  8
_2-7_ビス
  6
Continuous
 62
     7
100
AcDbLine
 10
1149.989074672404
 20
1124.801172673559
 30
0.0
 11
1150.323728027673
 21
1124.818458431218
 31
0.0
  0
LINE
  5
63F
330
22
100
AcDbEntity
  8
_2-7_ビス
  6
Continuous
 62
     7
100
AcDbLine
 10
1150.480982643841
 20
1125.065826852118
 30
0.0
 11
1150.000780019635
 21
1125.890387870264
 31
0.0
  0
LINE
  5
640
330
22
100
AcDbEntity
  8
_2-7_ビス
  6
Continuous
 62
     7
100
AcDbLine
 10
1150.000780019635
 20
1125.890387870264
 30
0.0
 11
1150.005640695214
 21
1126.367839816227
 31
0.0
  0
LINE
  5
641
330
22
100
AcDbEntity
  8
_2-7_ビス
  6
Continuous
 62
     7
100
AcDbLine
 10
1150.005640695214
 20
1126.367839816227
 30
0.0
 11
1150.353672945214
 21
1126.385125096919
 31
0.0
  0
LINE
  5
642
330
22
100
AcDbEntity
  8
_2-7_ビス
  6
Continuous
 62
     7
100
AcDbLine
 10
1150.513262694934
 20
1126.632493517818
 30
0.0
 11
1150.00564054309
 21
1127.457054920818
 31
0.0
  0
LINE
  5
643
330
22
100
AcDbEntity
  8
_2-7_ビス
  6
Continuous
 62
     7
100
AcDbLine
 10
1150.00564054309
 20
1127.457054920818
 30
0.0
 11
1150.005640695214
 21
1127.951791762619
 31
0.0
  0
LINE
  5
644
330
22
100
AcDbEntity
  8
_2-7_ビス
  6
Continuous
 62
     7
100
AcDbLine
 10
1150.276158195214
 20
1120.118458434118
 30
0.0
 11
1150.141799445213
 21
1120.118458434118
 31
0.0
  0
LINE
  5
645
330
22
100
AcDbEntity
  8
_2-7_ビス
  6
Continuous
 62
     7
100
AcDbLine
 10
1150.141799445213
 20
1120.118458434118
 30
0.0
 11
1150.141799445213
 21
1119.335125101268
 31
0.0
  0
LINE
  5
646
330
22
100
AcDbEntity
  8
_2-7_ビス
  6
Continuous
 62
     7
100
AcDbLine
 10
1150.141799445213
 20
1119.335125101268
 30
0.0
 11
1150.291799445214
 21
1119.335125101268
 31
0.0
  0
LINE
  5
647
330
22
100
AcDbEntity
  8
_2-7_ビス
  6
Continuous
 62
     7
100
AcDbLine
 10
1150.291799445214
 20
1119.335125101268
 30
0.0
 11
1150.291799445214
 21
1117.727230365419
 31
0.0
  0
LINE
  5
648
330
22
100
AcDbEntity
  8
_2-7_ビス
  6
Continuous
 62
     7
100
AcDbLine
 10
1150.291799445214
 20
1117.727230365419
 30
0.0
 11
1150.298266256015
 21
1117.727230365419
 31
0.0
  0
LINE
  5
649
330
22
100
AcDbEntity
  8
_2-7_ビス
  6
Continuous
 62
     7
100
AcDbLine
 10
1150.348541445213
 20
1117.397405804219
 30
0.0
 11
1150.348541591752
 21
1111.446964211399
 31
0.0
  0
LINE
  5
64A
330
22
100
AcDbEntity
  8
_2-7_ビス
  6
Continuous
 62
     7
100
AcDbLine
 10
1150.348541591752
 20
1111.446964211399
 30
0.0
 11
1150.788978945213
 21
1110.795543387239
 31
0.0
  0
LINE
  5
64B
330
22
100
AcDbEntity
  8
_2-7_ビス
  6
Continuous
 62
     7
100
AcDbLine
 10
1150.788978945213
 20
1110.795543387239
 30
0.0
 11
1151.791799445214
 21
1109.481616335418
 31
0.0
  0
LINE
  5
64C
330
22
100
AcDbEntity
  8
_2-7_ビス
  6
Continuous
 62
     7
100
AcDbLine
 10
1151.791799445214
 20
1109.481616335418
 30
0.0
 11
1151.941177924708
 21
1109.481616335418
 31
0.0
  0
LINE
  5
64D
330
22
100
AcDbEntity
  8
_2-7_ビス
  6
Continuous
 62
     7
100
AcDbLine
 10
1151.941177924708
 20
1109.481616335418
 30
0.0
 11
1150.856083815394
 21
1111.446964211399
 31
0.0
  0
LINE
  5
64E
330
22
100
AcDbEntity
  8
_2-7_ビス
  6
Continuous
 62
     7
100
AcDbLine
 10
1150.856083815394
 20
1111.446964211399
 30
0.0
 11
1150.856083695213
 21
1115.418458437018
 31
0.0
  0
LINE
  5
64F
330
22
100
AcDbEntity
  8
_2-7_ビス
  6
Continuous
 62
     7
100
AcDbLine
 10
1151.439447195213
 20
1115.418458437018
 30
0.0
 11
1151.439446921781
 21
1111.446964364097
 31
0.0
  0
LINE
  5
650
330
22
100
AcDbEntity
  8
_2-7_ビス
  6
Continuous
 62
     7
100
AcDbLine
 10
1151.439446921781
 20
1111.446964364097
 30
0.0
 11
1152.524541287015
 21
1109.481616335418
 31
0.0
  0
LINE
  5
651
330
22
100
AcDbEntity
  8
_2-7_ビス
  6
Continuous
 62
     7
100
AcDbLine
 10
1152.524541287015
 20
1109.481616335418
 30
0.0
 11
1153.141799445213
 21
1109.481616335418
 31
0.0
  0
LINE
  5
652
330
22
100
AcDbEntity
  8
_2-7_ビス
  6
Continuous
 62
     7
100
AcDbLine
 10
1150.444908195213
 20
1142.051791753918
 30
0.0
 11
1150.444908195213
 21
1142.051791753918
 31
0.0
  0
LINE
  5
653
330
22
100
AcDbEntity
  8
_2-7_ビス
  6
Continuous
 62
     7
100
AcDbLine
 10
1150.444908195213
 20
1142.051791753918
 30
0.0
 11
1150.471866646114
 21
1142.056445538633
 31
0.0
  0
LINE
  5
654
330
22
100
AcDbEntity
  8
_2-7_ビス
  6
Continuous
 62
     7
100
AcDbLine
 10
1150.471866646114
 20
1142.056445538633
 30
0.0
 11
1150.497680491127
 21
1142.066175298763
 31
0.0
  0
LINE
  5
655
330
22
100
AcDbEntity
  8
_2-7_ビス
  6
Continuous
 62
     7
100
AcDbLine
 10
1150.497680491127
 20
1142.066175298763
 30
0.0
 11
1150.521565389635
 21
1142.080685400469
 31
0.0
  0
LINE
  5
656
330
22
100
AcDbEntity
  8
_2-7_ビス
  6
Continuous
 62
     7
100
AcDbLine
 10
1150.521565389635
 20
1142.080685400469
 30
0.0
 11
1150.542795611081
 21
1142.099534961655
 31
0.0
  0
LINE
  5
657
330
22
100
AcDbEntity
  8
_2-7_ビス
  6
Continuous
 62
     7
100
AcDbLine
 10
1150.542795611081
 20
1142.099534961655
 30
0.0
 11
1150.560726085932
 21
1142.12215124794
 31
0.0
  0
LINE
  5
658
330
22
100
AcDbEntity
  8
_2-7_ビス
  6
Continuous
 62
     7
100
AcDbLine
 10
1150.560726085932
 20
1142.12215124794
 30
0.0
 11
1150.574812005781
 21
1142.147847074912
 31
0.0
  0
LINE
  5
659
330
22
100
AcDbEntity
  8
_2-7_ビス
  6
Continuous
 62
     7
100
AcDbLine
 10
1150.574812005781
 20
1142.147847074912
 30
0.0
 11
1150.584625377082
 21
1142.175841687871
 31
0.0
  0
LINE
  5
65A
330
22
100
AcDbEntity
  8
_2-7_ビス
  6
Continuous
 62
     7
100
AcDbLine
 10
1150.584625377082
 20
1142.175841687871
 30
0.0
 11
1150.589868025514
 21
1142.205284484666
 31
0.0
  0
LINE
  5
65B
330
22
100
AcDbEntity
  8
_2-7_ビス
  6
Continuous
 62
     7
100
AcDbLine
 10
1150.589868025514
 20
1142.205284484666
 30
0.0
 11
1150.590380655857
 21
1142.235280860817
 31
0.0
  0
LINE
  5
65C
330
22
100
AcDbEntity
  8
_2-7_ビス
  6
Continuous
 62
     7
100
AcDbLine
 10
1150.590380655857
 20
1142.235280860817
 30
0.0
 11
1150.586147692098
 21
1142.264919391614
 31
0.0
  0
LINE
  5
65D
330
22
100
AcDbEntity
  8
_2-7_ビス
  6
Continuous
 62
     7
100
AcDbLine
 10
1150.586147692098
 20
1142.264919391614
 30
0.0
 11
1150.577297750697
 21
1142.293299525295
 31
0.0
  0
LINE
  5
65E
330
22
100
AcDbEntity
  8
_2-7_ビス
  6
Continuous
 62
     7
100
AcDbLine
 10
1150.577297750697
 20
1142.293299525295
 30
0.0
 11
1150.564099732648
 21
1142.31955894586
 31
0.0
  0
LINE
  5
65F
330
22
100
AcDbEntity
  8
_2-7_ビス
  6
Continuous
 62
     7
100
AcDbLine
 10
1150.564099732648
 20
1142.31955894586
 30
0.0
 11
1150.56409934013
 21
1142.319559587484
 31
0.0
  0
LINE
  5
660
330
22
100
AcDbEntity
  8
_2-7_ビス
  6
Continuous
 62
     7
100
AcDbLine
 10
1150.353672945215
 20
1140.485125088218
 30
0.0
 11
1150.353672945215
 21
1140.485125088218
 31
0.0
  0
LINE
  5
661
330
22
100
AcDbEntity
  8
_2-7_ビス
  6
Continuous
 62
     7
100
AcDbLine
 10
1150.353672945215
 20
1140.485125088218
 30
0.0
 11
1150.388196173549
 21
1140.497638638477
 31
0.0
  0
LINE
  5
662
330
22
100
AcDbEntity
  8
_2-7_ビス
  6
Continuous
 62
     7
100
AcDbLine
 10
1150.388196173549
 20
1140.497638638477
 30
0.0
 11
1150.420218451902
 21
1140.516552959255
 31
0.0
  0
LINE
  5
663
330
22
100
AcDbEntity
  8
_2-7_ビス
  6
Continuous
 62
     7
100
AcDbLine
 10
1150.420218451902
 20
1140.516552959255
 30
0.0
 11
1150.44876679955
 21
1140.541293348487
 31
0.0
  0
LINE
  5
664
330
22
100
AcDbEntity
  8
_2-7_ビス
  6
Continuous
 62
     7
100
AcDbLine
 10
1150.44876679955
 20
1140.541293348487
 30
0.0
 11
1150.472973789395
 21
1140.571108081964
 31
0.0
  0
LINE
  5
665
330
22
100
AcDbEntity
  8
_2-7_ビス
  6
Continuous
 62
     7
100
AcDbLine
 10
1150.472973789395
 20
1140.571108081964
 30
0.0
 11
1150.4921039043
 21
1140.605091254097
 31
0.0
  0
LINE
  5
666
330
22
100
AcDbEntity
  8
_2-7_ビス
  6
Continuous
 62
     7
100
AcDbLine
 10
1150.4921039043
 20
1140.605091254097
 30
0.0
 11
1150.505575885404
 21
1140.642210303398
 31
0.0
  0
LINE
  5
667
330
22
100
AcDbEntity
  8
_2-7_ビス
  6
Continuous
 62
     7
100
AcDbLine
 10
1150.505575885404
 20
1140.642210303398
 30
0.0
 11
1150.512980393378
 21
1140.681337386335
 31
0.0
  0
LINE
  5
668
330
22
100
AcDbEntity
  8
_2-7_ビス
  6
Continuous
 62
     7
100
AcDbLine
 10
1150.512980393378
 20
1140.681337386335
 30
0.0
 11
1150.514092445996
 21
1140.721283646294
 31
0.0
  0
LINE
  5
669
330
22
100
AcDbEntity
  8
_2-7_ビス
  6
Continuous
 62
     7
100
AcDbLine
 10
1150.514092445996
 20
1140.721283646294
 30
0.0
 11
1150.513262694935
 21
1140.732493509118
 31
0.0
  0
LINE
  5
66A
330
22
100
AcDbEntity
  8
_2-7_ビス
  6
Continuous
 62
     7
100
AcDbLine
 10
1150.353672945215
 20
1138.918458422518
 30
0.0
 11
1150.353672945215
 21
1138.918458422518
 31
0.0
  0
LINE
  5
66B
330
22
100
AcDbEntity
  8
_2-7_ビス
  6
Continuous
 62
     7
100
AcDbLine
 10
1150.353672945215
 20
1138.918458422518
 30
0.0
 11
1150.388196173549
 21
1138.930971972777
 31
0.0
  0
LINE
  5
66C
330
22
100
AcDbEntity
  8
_2-7_ビス
  6
Continuous
 62
     7
100
AcDbLine
 10
1150.388196173549
 20
1138.930971972777
 30
0.0
 11
1150.420218451902
 21
1138.949886293555
 31
0.0
  0
LINE
  5
66D
330
22
100
AcDbEntity
  8
_2-7_ビス
  6
Continuous
 62
     7
100
AcDbLine
 10
1150.420218451902
 20
1138.949886293555
 30
0.0
 11
1150.44876679955
 21
1138.974626682786
 31
0.0
  0
LINE
  5
66E
330
22
100
AcDbEntity
  8
_2-7_ビス
  6
Continuous
 62
     7
100
AcDbLine
 10
1150.44876679955
 20
1138.974626682786
 30
0.0
 11
1150.472973789395
 21
1139.004441416264
 31
0.0
  0
LINE
  5
66F
330
22
100
AcDbEntity
  8
_2-7_ビス
  6
Continuous
 62
     7
100
AcDbLine
 10
1150.472973789395
 20
1139.004441416264
 30
0.0
 11
1150.4921039043
 21
1139.038424588397
 31
0.0
  0
LINE
  5
670
330
22
100
AcDbEntity
  8
_2-7_ビス
  6
Continuous
 62
     7
100
AcDbLine
 10
1150.4921039043
 20
1139.038424588397
 30
0.0
 11
1150.505575885404
 21
1139.075543637698
 31
0.0
  0
LINE
  5
671
330
22
100
AcDbEntity
  8
_2-7_ビス
  6
Continuous
 62
     7
100
AcDbLine
 10
1150.505575885404
 20
1139.075543637698
 30
0.0
 11
1150.512980393378
 21
1139.114670720635
 31
0.0
  0
LINE
  5
672
330
22
100
AcDbEntity
  8
_2-7_ビス
  6
Continuous
 62
     7
100
AcDbLine
 10
1150.512980393378
 20
1139.114670720635
 30
0.0
 11
1150.514092445996
 21
1139.154616980594
 31
0.0
  0
LINE
  5
673
330
22
100
AcDbEntity
  8
_2-7_ビス
  6
Continuous
 62
     7
100
AcDbLine
 10
1150.514092445996
 20
1139.154616980594
 30
0.0
 11
1150.513262694935
 21
1139.165826843418
 31
0.0
  0
LINE
  5
674
330
22
100
AcDbEntity
  8
_2-7_ビス
  6
Continuous
 62
     7
100
AcDbLine
 10
1150.296686085813
 20
1137.351791756818
 30
0.0
 11
1150.296686085813
 21
1137.351791756818
 31
0.0
  0
LINE
  5
675
330
22
100
AcDbEntity
  8
_2-7_ビス
  6
Continuous
 62
     7
100
AcDbLine
 10
1150.296686085813
 20
1137.351791756818
 30
0.0
 11
1150.331209314148
 21
1137.364305307077
 31
0.0
  0
LINE
  5
676
330
22
100
AcDbEntity
  8
_2-7_ビス
  6
Continuous
 62
     7
100
AcDbLine
 10
1150.331209314148
 20
1137.364305307077
 30
0.0
 11
1150.363231592501
 21
1137.383219627855
 31
0.0
  0
LINE
  5
677
330
22
100
AcDbEntity
  8
_2-7_ビス
  6
Continuous
 62
     7
100
AcDbLine
 10
1150.363231592501
 20
1137.383219627855
 30
0.0
 11
1150.391779940148
 21
1137.407960017086
 31
0.0
  0
LINE
  5
678
330
22
100
AcDbEntity
  8
_2-7_ビス
  6
Continuous
 62
     7
100
AcDbLine
 10
1150.391779940148
 20
1137.407960017086
 30
0.0
 11
1150.415986929993
 21
1137.437774750564
 31
0.0
  0
LINE
  5
679
330
22
100
AcDbEntity
  8
_2-7_ビス
  6
Continuous
 62
     7
100
AcDbLine
 10
1150.415986929993
 20
1137.437774750564
 30
0.0
 11
1150.435117044898
 21
1137.471757922697
 31
0.0
  0
LINE
  5
67A
330
22
100
AcDbEntity
  8
_2-7_ビス
  6
Continuous
 62
     7
100
AcDbLine
 10
1150.435117044898
 20
1137.471757922697
 30
0.0
 11
1150.448589026002
 21
1137.508876971998
 31
0.0
  0
LINE
  5
67B
330
22
100
AcDbEntity
  8
_2-7_ビス
  6
Continuous
 62
     7
100
AcDbLine
 10
1150.448589026002
 20
1137.508876971998
 30
0.0
 11
1150.455993533977
 21
1137.548004054935
 31
0.0
  0
LINE
  5
67C
330
22
100
AcDbEntity
  8
_2-7_ビス
  6
Continuous
 62
     7
100
AcDbLine
 10
1150.455993533977
 20
1137.548004054935
 30
0.0
 11
1150.457105586594
 21
1137.587950314895
 31
0.0
  0
LINE
  5
67D
330
22
100
AcDbEntity
  8
_2-7_ビス
  6
Continuous
 62
     7
100
AcDbLine
 10
1150.457105586594
 20
1137.587950314895
 30
0.0
 11
1150.456275835533
 21
1137.599160177718
 31
0.0
  0
LINE
  5
67E
330
22
100
AcDbEntity
  8
_2-7_ビス
  6
Continuous
 62
     7
100
AcDbLine
 10
1150.353672945215
 20
1134.218458425418
 30
0.0
 11
1150.353672945215
 21
1134.218458425418
 31
0.0
  0
LINE
  5
67F
330
22
100
AcDbEntity
  8
_2-7_ビス
  6
Continuous
 62
     7
100
AcDbLine
 10
1150.353672945215
 20
1134.218458425418
 30
0.0
 11
1150.388196173549
 21
1134.230971975677
 31
0.0
  0
LINE
  5
680
330
22
100
AcDbEntity
  8
_2-7_ビス
  6
Continuous
 62
     7
100
AcDbLine
 10
1150.388196173549
 20
1134.230971975677
 30
0.0
 11
1150.420218451902
 21
1134.249886296455
 31
0.0
  0
LINE
  5
681
330
22
100
AcDbEntity
  8
_2-7_ビス
  6
Continuous
 62
     7
100
AcDbLine
 10
1150.420218451902
 20
1134.249886296455
 30
0.0
 11
1150.44876679955
 21
1134.274626685687
 31
0.0
  0
LINE
  5
682
330
22
100
AcDbEntity
  8
_2-7_ビス
  6
Continuous
 62
     7
100
AcDbLine
 10
1150.44876679955
 20
1134.274626685687
 30
0.0
 11
1150.472973789395
 21
1134.304441419164
 31
0.0
  0
LINE
  5
683
330
22
100
AcDbEntity
  8
_2-7_ビス
  6
Continuous
 62
     7
100
AcDbLine
 10
1150.472973789395
 20
1134.304441419164
 30
0.0
 11
1150.4921039043
 21
1134.338424591297
 31
0.0
  0
LINE
  5
684
330
22
100
AcDbEntity
  8
_2-7_ビス
  6
Continuous
 62
     7
100
AcDbLine
 10
1150.4921039043
 20
1134.338424591297
 30
0.0
 11
1150.505575885404
 21
1134.375543640597
 31
0.0
  0
LINE
  5
685
330
22
100
AcDbEntity
  8
_2-7_ビス
  6
Continuous
 62
     7
100
AcDbLine
 10
1150.505575885404
 20
1134.375543640597
 30
0.0
 11
1150.512980393378
 21
1134.414670723535
 31
0.0
  0
LINE
  5
686
330
22
100
AcDbEntity
  8
_2-7_ビス
  6
Continuous
 62
     7
100
AcDbLine
 10
1150.512980393378
 20
1134.414670723535
 30
0.0
 11
1150.514092445996
 21
1134.454616983494
 31
0.0
  0
LINE
  5
687
330
22
100
AcDbEntity
  8
_2-7_ビス
  6
Continuous
 62
     7
100
AcDbLine
 10
1150.514092445996
 20
1134.454616983494
 30
0.0
 11
1150.513262694935
 21
1134.465826846319
 31
0.0
  0
LINE
  5
688
330
22
100
AcDbEntity
  8
_2-7_ビス
  6
Continuous
 62
     7
100
AcDbLine
 10
1150.353672945215
 20
1132.651791759718
 30
0.0
 11
1150.353672945215
 21
1132.651791759718
 31
0.0
  0
LINE
  5
689
330
22
100
AcDbEntity
  8
_2-7_ビス
  6
Continuous
 62
     7
100
AcDbLine
 10
1150.353672945215
 20
1132.651791759718
 30
0.0
 11
1150.388196173549
 21
1132.664305309977
 31
0.0
  0
LINE
  5
68A
330
22
100
AcDbEntity
  8
_2-7_ビス
  6
Continuous
 62
     7
100
AcDbLine
 10
1150.388196173549
 20
1132.664305309977
 30
0.0
 11
1150.420218451902
 21
1132.683219630755
 31
0.0
  0
LINE
  5
68B
330
22
100
AcDbEntity
  8
_2-7_ビス
  6
Continuous
 62
     7
100
AcDbLine
 10
1150.420218451902
 20
1132.683219630755
 30
0.0
 11
1150.44876679955
 21
1132.707960019986
 31
0.0
  0
LINE
  5
68C
330
22
100
AcDbEntity
  8
_2-7_ビス
  6
Continuous
 62
     7
100
AcDbLine
 10
1150.44876679955
 20
1132.707960019986
 30
0.0
 11
1150.472973789395
 21
1132.737774753464
 31
0.0
  0
LINE
  5
68D
330
22
100
AcDbEntity
  8
_2-7_ビス
  6
Continuous
 62
     7
100
AcDbLine
 10
1150.472973789395
 20
1132.737774753464
 30
0.0
 11
1150.4921039043
 21
1132.771757925597
 31
0.0
  0
LINE
  5
68E
330
22
100
AcDbEntity
  8
_2-7_ビス
  6
Continuous
 62
     7
100
AcDbLine
 10
1150.4921039043
 20
1132.771757925597
 30
0.0
 11
1150.505575885404
 21
1132.808876974897
 31
0.0
  0
LINE
  5
68F
330
22
100
AcDbEntity
  8
_2-7_ビス
  6
Continuous
 62
     7
100
AcDbLine
 10
1150.505575885404
 20
1132.808876974897
 30
0.0
 11
1150.512980393378
 21
1132.848004057835
 31
0.0
  0
LINE
  5
690
330
22
100
AcDbEntity
  8
_2-7_ビス
  6
Continuous
 62
     7
100
AcDbLine
 10
1150.512980393378
 20
1132.848004057835
 30
0.0
 11
1150.514092445996
 21
1132.887950317794
 31
0.0
  0
LINE
  5
691
330
22
100
AcDbEntity
  8
_2-7_ビス
  6
Continuous
 62
     7
100
AcDbLine
 10
1150.514092445996
 20
1132.887950317794
 30
0.0
 11
1150.513262694935
 21
1132.899160180618
 31
0.0
  0
LINE
  5
692
330
22
100
AcDbEntity
  8
_2-7_ビス
  6
Continuous
 62
     7
100
AcDbLine
 10
1150.353672945215
 20
1131.085125094018
 30
0.0
 11
1150.353672945215
 21
1131.085125094018
 31
0.0
  0
LINE
  5
693
330
22
100
AcDbEntity
  8
_2-7_ビス
  6
Continuous
 62
     7
100
AcDbLine
 10
1150.353672945215
 20
1131.085125094018
 30
0.0
 11
1150.388196173549
 21
1131.097638644277
 31
0.0
  0
LINE
  5
694
330
22
100
AcDbEntity
  8
_2-7_ビス
  6
Continuous
 62
     7
100
AcDbLine
 10
1150.388196173549
 20
1131.097638644277
 30
0.0
 11
1150.420218451902
 21
1131.116552965055
 31
0.0
  0
LINE
  5
695
330
22
100
AcDbEntity
  8
_2-7_ビス
  6
Continuous
 62
     7
100
AcDbLine
 10
1150.420218451902
 20
1131.116552965055
 30
0.0
 11
1150.44876679955
 21
1131.141293354287
 31
0.0
  0
LINE
  5
696
330
22
100
AcDbEntity
  8
_2-7_ビス
  6
Continuous
 62
     7
100
AcDbLine
 10
1150.44876679955
 20
1131.141293354287
 30
0.0
 11
1150.472973789395
 21
1131.171108087764
 31
0.0
  0
LINE
  5
697
330
22
100
AcDbEntity
  8
_2-7_ビス
  6
Continuous
 62
     7
100
AcDbLine
 10
1150.472973789395
 20
1131.171108087764
 30
0.0
 11
1150.4921039043
 21
1131.205091259897
 31
0.0
  0
LINE
  5
698
330
22
100
AcDbEntity
  8
_2-7_ビス
  6
Continuous
 62
     7
100
AcDbLine
 10
1150.4921039043
 20
1131.205091259897
 30
0.0
 11
1150.505575885404
 21
1131.242210309197
 31
0.0
  0
LINE
  5
699
330
22
100
AcDbEntity
  8
_2-7_ビス
  6
Continuous
 62
     7
100
AcDbLine
 10
1150.505575885404
 20
1131.242210309197
 30
0.0
 11
1150.512980393378
 21
1131.281337392135
 31
0.0
  0
LINE
  5
69A
330
22
100
AcDbEntity
  8
_2-7_ビス
  6
Continuous
 62
     7
100
AcDbLine
 10
1150.512980393378
 20
1131.281337392135
 30
0.0
 11
1150.514092445996
 21
1131.321283652094
 31
0.0
  0
LINE
  5
69B
330
22
100
AcDbEntity
  8
_2-7_ビス
  6
Continuous
 62
     7
100
AcDbLine
 10
1150.514092445996
 20
1131.321283652094
 30
0.0
 11
1150.513262694935
 21
1131.332493514918
 31
0.0
  0
LINE
  5
69C
330
22
100
AcDbEntity
  8
_2-7_ビス
  6
Continuous
 62
     7
100
AcDbLine
 10
1150.29639337364
 20
1129.518458428318
 30
0.0
 11
1150.29639337364
 21
1129.518458428318
 31
0.0
  0
LINE
  5
69D
330
22
100
AcDbEntity
  8
_2-7_ビス
  6
Continuous
 62
     7
100
AcDbLine
 10
1150.29639337364
 20
1129.518458428318
 30
0.0
 11
1150.330916601975
 21
1129.530971978577
 31
0.0
  0
LINE
  5
69E
330
22
100
AcDbEntity
  8
_2-7_ビス
  6
Continuous
 62
     7
100
AcDbLine
 10
1150.330916601975
 20
1129.530971978577
 30
0.0
 11
1150.362938880328
 21
1129.549886299355
 31
0.0
  0
LINE
  5
69F
330
22
100
AcDbEntity
  8
_2-7_ビス
  6
Continuous
 62
     7
100
AcDbLine
 10
1150.362938880328
 20
1129.549886299355
 30
0.0
 11
1150.391487227975
 21
1129.574626688587
 31
0.0
  0
LINE
  5
6A0
330
22
100
AcDbEntity
  8
_2-7_ビス
  6
Continuous
 62
     7
100
AcDbLine
 10
1150.391487227975
 20
1129.574626688587
 30
0.0
 11
1150.41569421782
 21
1129.604441422064
 31
0.0
  0
LINE
  5
6A1
330
22
100
AcDbEntity
  8
_2-7_ビス
  6
Continuous
 62
     7
100
AcDbLine
 10
1150.41569421782
 20
1129.604441422064
 30
0.0
 11
1150.434824332725
 21
1129.638424594197
 31
0.0
  0
LINE
  5
6A2
330
22
100
AcDbEntity
  8
_2-7_ビス
  6
Continuous
 62
     7
100
AcDbLine
 10
1150.434824332725
 20
1129.638424594197
 30
0.0
 11
1150.44829631383
 21
1129.675543643497
 31
0.0
  0
LINE
  5
6A3
330
22
100
AcDbEntity
  8
_2-7_ビス
  6
Continuous
 62
     7
100
AcDbLine
 10
1150.44829631383
 20
1129.675543643497
 30
0.0
 11
1150.455700821805
 21
1129.714670726435
 31
0.0
  0
LINE
  5
6A4
330
22
100
AcDbEntity
  8
_2-7_ビス
  6
Continuous
 62
     7
100
AcDbLine
 10
1150.455700821805
 20
1129.714670726435
 30
0.0
 11
1150.456812874421
 21
1129.754616986394
 31
0.0
  0
LINE
  5
6A5
330
22
100
AcDbEntity
  8
_2-7_ビス
  6
Continuous
 62
     7
100
AcDbLine
 10
1150.456812874421
 20
1129.754616986394
 30
0.0
 11
1150.45598312336
 21
1129.765826849218
 31
0.0
  0
LINE
  5
6A6
330
22
100
AcDbEntity
  8
_2-7_ビス
  6
Continuous
 62
     7
100
AcDbLine
 10
1150.353672945215
 20
1126.385125096918
 30
0.0
 11
1150.353672945215
 21
1126.385125096918
 31
0.0
  0
LINE
  5
6A7
330
22
100
AcDbEntity
  8
_2-7_ビス
  6
Continuous
 62
     7
100
AcDbLine
 10
1150.353672945215
 20
1126.385125096918
 30
0.0
 11
1150.388196173549
 21
1126.397638647177
 31
0.0
  0
LINE
  5
6A8
330
22
100
AcDbEntity
  8
_2-7_ビス
  6
Continuous
 62
     7
100
AcDbLine
 10
1150.388196173549
 20
1126.397638647177
 30
0.0
 11
1150.420218451902
 21
1126.416552967955
 31
0.0
  0
LINE
  5
6A9
330
22
100
AcDbEntity
  8
_2-7_ビス
  6
Continuous
 62
     7
100
AcDbLine
 10
1150.420218451902
 20
1126.416552967955
 30
0.0
 11
1150.44876679955
 21
1126.441293357186
 31
0.0
  0
LINE
  5
6AA
330
22
100
AcDbEntity
  8
_2-7_ビス
  6
Continuous
 62
     7
100
AcDbLine
 10
1150.44876679955
 20
1126.441293357186
 30
0.0
 11
1150.472973789395
 21
1126.471108090663
 31
0.0
  0
LINE
  5
6AB
330
22
100
AcDbEntity
  8
_2-7_ビス
  6
Continuous
 62
     7
100
AcDbLine
 10
1150.472973789395
 20
1126.471108090663
 30
0.0
 11
1150.4921039043
 21
1126.505091262797
 31
0.0
  0
LINE
  5
6AC
330
22
100
AcDbEntity
  8
_2-7_ビス
  6
Continuous
 62
     7
100
AcDbLine
 10
1150.4921039043
 20
1126.505091262797
 30
0.0
 11
1150.505575885404
 21
1126.542210312097
 31
0.0
  0
LINE
  5
6AD
330
22
100
AcDbEntity
  8
_2-7_ビス
  6
Continuous
 62
     7
100
AcDbLine
 10
1150.505575885404
 20
1126.542210312097
 30
0.0
 11
1150.512980393378
 21
1126.581337395035
 31
0.0
  0
LINE
  5
6AE
330
22
100
AcDbEntity
  8
_2-7_ビス
  6
Continuous
 62
     7
100
AcDbLine
 10
1150.512980393378
 20
1126.581337395035
 30
0.0
 11
1150.514092445996
 21
1126.621283654994
 31
0.0
  0
LINE
  5
6AF
330
22
100
AcDbEntity
  8
_2-7_ビス
  6
Continuous
 62
     7
100
AcDbLine
 10
1150.514092445996
 20
1126.621283654994
 30
0.0
 11
1150.513262694935
 21
1126.632493517818
 31
0.0
  0
LINE
  5
6B0
330
22
100
AcDbEntity
  8
_2-7_ビス
  6
Continuous
 62
     7
100
AcDbLine
 10
1150.32139289412
 20
1124.818458431218
 30
0.0
 11
1150.32139289412
 21
1124.818458431218
 31
0.0
  0
LINE
  5
6B1
330
22
100
AcDbEntity
  8
_2-7_ビス
  6
Continuous
 62
     7
100
AcDbLine
 10
1150.32139289412
 20
1124.818458431218
 30
0.0
 11
1150.355916122454
 21
1124.830971981477
 31
0.0
  0
LINE
  5
6B2
330
22
100
AcDbEntity
  8
_2-7_ビス
  6
Continuous
 62
     7
100
AcDbLine
 10
1150.355916122454
 20
1124.830971981477
 30
0.0
 11
1150.387938400807
 21
1124.849886302255
 31
0.0
  0
LINE
  5
6B3
330
22
100
AcDbEntity
  8
_2-7_ビス
  6
Continuous
 62
     7
100
AcDbLine
 10
1150.387938400807
 20
1124.849886302255
 30
0.0
 11
1150.416486748455
 21
1124.874626691486
 31
0.0
  0
LINE
  5
6B4
330
22
100
AcDbEntity
  8
_2-7_ビス
  6
Continuous
 62
     7
100
AcDbLine
 10
1150.416486748455
 20
1124.874626691486
 30
0.0
 11
1150.4406937383
 21
1124.904441424964
 31
0.0
  0
LINE
  5
6B5
330
22
100
AcDbEntity
  8
_2-7_ビス
  6
Continuous
 62
     7
100
AcDbLine
 10
1150.4406937383
 20
1124.904441424964
 30
0.0
 11
1150.459823853205
 21
1124.938424597097
 31
0.0
  0
LINE
  5
6B6
330
22
100
AcDbEntity
  8
_2-7_ビス
  6
Continuous
 62
     7
100
AcDbLine
 10
1150.459823853205
 20
1124.938424597097
 30
0.0
 11
1150.473295834309
 21
1124.975543646397
 31
0.0
  0
LINE
  5
6B7
330
22
100
AcDbEntity
  8
_2-7_ビス
  6
Continuous
 62
     7
100
AcDbLine
 10
1150.473295834309
 20
1124.975543646397
 30
0.0
 11
1150.480700342284
 21
1125.014670729335
 31
0.0
  0
LINE
  5
6B8
330
22
100
AcDbEntity
  8
_2-7_ビス
  6
Continuous
 62
     7
100
AcDbLine
 10
1150.480700342284
 20
1125.014670729335
 30
0.0
 11
1150.481812394901
 21
1125.054616989294
 31
0.0
  0
LINE
  5
6B9
330
22
100
AcDbEntity
  8
_2-7_ビス
  6
Continuous
 62
     7
100
AcDbLine
 10
1150.481812394901
 20
1125.054616989294
 30
0.0
 11
1150.48098264384
 21
1125.065826852118
 31
0.0
  0
LINE
  5
6BA
330
22
100
AcDbEntity
  8
_2-7_ビス
  6
Continuous
 62
     7
100
AcDbLine
 10
1150.289289941311
 20
1123.251791765518
 30
0.0
 11
1150.289289941311
 21
1123.251791765518
 31
0.0
  0
LINE
  5
6BB
330
22
100
AcDbEntity
  8
_2-7_ビス
  6
Continuous
 62
     7
100
AcDbLine
 10
1150.289289941311
 20
1123.251791765518
 30
0.0
 11
1150.323813169646
 21
1123.264305315777
 31
0.0
  0
LINE
  5
6BC
330
22
100
AcDbEntity
  8
_2-7_ビス
  6
Continuous
 62
     7
100
AcDbLine
 10
1150.323813169646
 20
1123.264305315777
 30
0.0
 11
1150.355835447999
 21
1123.283219636555
 31
0.0
  0
LINE
  5
6BD
330
22
100
AcDbEntity
  8
_2-7_ビス
  6
Continuous
 62
     7
100
AcDbLine
 10
1150.355835447999
 20
1123.283219636555
 30
0.0
 11
1150.384383795647
 21
1123.307960025786
 31
0.0
  0
LINE
  5
6BE
330
22
100
AcDbEntity
  8
_2-7_ビス
  6
Continuous
 62
     7
100
AcDbLine
 10
1150.384383795647
 20
1123.307960025786
 30
0.0
 11
1150.408590785492
 21
1123.337774759264
 31
0.0
  0
LINE
  5
6BF
330
22
100
AcDbEntity
  8
_2-7_ビス
  6
Continuous
 62
     7
100
AcDbLine
 10
1150.408590785492
 20
1123.337774759264
 30
0.0
 11
1150.427720900397
 21
1123.371757931397
 31
0.0
  0
LINE
  5
6C0
330
22
100
AcDbEntity
  8
_2-7_ビス
  6
Continuous
 62
     7
100
AcDbLine
 10
1150.427720900397
 20
1123.371757931397
 30
0.0
 11
1150.441192881501
 21
1123.408876980697
 31
0.0
  0
LINE
  5
6C1
330
22
100
AcDbEntity
  8
_2-7_ビス
  6
Continuous
 62
     7
100
AcDbLine
 10
1150.441192881501
 20
1123.408876980697
 30
0.0
 11
1150.448597389475
 21
1123.448004063634
 31
0.0
  0
LINE
  5
6C2
330
22
100
AcDbEntity
  8
_2-7_ビス
  6
Continuous
 62
     7
100
AcDbLine
 10
1150.448597389475
 20
1123.448004063634
 30
0.0
 11
1150.449709442093
 21
1123.487950323594
 31
0.0
  0
LINE
  5
6C3
330
22
100
AcDbEntity
  8
_2-7_ビス
  6
Continuous
 62
     7
100
AcDbLine
 10
1150.449709442093
 20
1123.487950323594
 30
0.0
 11
1150.448879691032
 21
1123.499160186418
 31
0.0
  0
LINE
  5
6C4
330
22
100
AcDbEntity
  8
_2-7_ビス
  6
Continuous
 62
     7
100
AcDbLine
 10
1150.266975010281
 20
1121.685125099819
 30
0.0
 11
1150.266975010281
 21
1121.685125099819
 31
0.0
  0
LINE
  5
6C5
330
22
100
AcDbEntity
  8
_2-7_ビス
  6
Continuous
 62
     7
100
AcDbLine
 10
1150.266975010281
 20
1121.685125099819
 30
0.0
 11
1150.301498238617
 21
1121.697638650078
 31
0.0
  0
LINE
  5
6C6
330
22
100
AcDbEntity
  8
_2-7_ビス
  6
Continuous
 62
     7
100
AcDbLine
 10
1150.301498238617
 20
1121.697638650078
 30
0.0
 11
1150.33352051697
 21
1121.716552970856
 31
0.0
  0
LINE
  5
6C7
330
22
100
AcDbEntity
  8
_2-7_ビス
  6
Continuous
 62
     7
100
AcDbLine
 10
1150.33352051697
 20
1121.716552970856
 30
0.0
 11
1150.362068864617
 21
1121.741293360087
 31
0.0
  0
LINE
  5
6C8
330
22
100
AcDbEntity
  8
_2-7_ビス
  6
Continuous
 62
     7
100
AcDbLine
 10
1150.362068864617
 20
1121.741293360087
 30
0.0
 11
1150.386275854462
 21
1121.771108093565
 31
0.0
  0
LINE
  5
6C9
330
22
100
AcDbEntity
  8
_2-7_ビス
  6
Continuous
 62
     7
100
AcDbLine
 10
1150.386275854462
 20
1121.771108093565
 30
0.0
 11
1150.405405969367
 21
1121.805091265698
 31
0.0
  0
LINE
  5
6CA
330
22
100
AcDbEntity
  8
_2-7_ビス
  6
Continuous
 62
     7
100
AcDbLine
 10
1150.405405969367
 20
1121.805091265698
 30
0.0
 11
1150.418877950471
 21
1121.842210314998
 31
0.0
  0
LINE
  5
6CB
330
22
100
AcDbEntity
  8
_2-7_ビス
  6
Continuous
 62
     7
100
AcDbLine
 10
1150.418877950471
 20
1121.842210314998
 30
0.0
 11
1150.426282458446
 21
1121.881337397936
 31
0.0
  0
LINE
  5
6CC
330
22
100
AcDbEntity
  8
_2-7_ビス
  6
Continuous
 62
     7
100
AcDbLine
 10
1150.426282458446
 20
1121.881337397936
 30
0.0
 11
1150.427394511063
 21
1121.921283657895
 31
0.0
  0
LINE
  5
6CD
330
22
100
AcDbEntity
  8
_2-7_ビス
  6
Continuous
 62
     7
100
AcDbLine
 10
1150.427394511063
 20
1121.921283657895
 30
0.0
 11
1150.426564760002
 21
1121.932493520719
 31
0.0
  0
LINE
  5
6CE
330
22
100
AcDbEntity
  8
_2-7_ビス
  6
Continuous
 62
     7
100
AcDbLine
 10
1150.276158195214
 20
1120.118458434119
 30
0.0
 11
1150.276158195214
 21
1120.118458434119
 31
0.0
  0
LINE
  5
6CF
330
22
100
AcDbEntity
  8
_2-7_ビス
  6
Continuous
 62
     7
100
AcDbLine
 10
1150.276158195214
 20
1120.118458434119
 30
0.0
 11
1150.303304131153
 21
1120.123554252968
 31
0.0
  0
LINE
  5
6D0
330
22
100
AcDbEntity
  8
_2-7_ビス
  6
Continuous
 62
     7
100
AcDbLine
 10
1150.303304131153
 20
1120.123554252968
 30
0.0
 11
1150.329232795384
 21
1120.133755124779
 31
0.0
  0
LINE
  5
6D1
330
22
100
AcDbEntity
  8
_2-7_ビス
  6
Continuous
 62
     7
100
AcDbLine
 10
1150.329232795384
 20
1120.133755124779
 30
0.0
 11
1150.353156358567
 21
1120.148751101226
 31
0.0
  0
LINE
  5
6D2
330
22
100
AcDbEntity
  8
_2-7_ビス
  6
Continuous
 62
     7
100
AcDbLine
 10
1150.353156358567
 20
1120.148751101226
 30
0.0
 11
1150.374347915339
 21
1120.168086537151
 31
0.0
  0
LINE
  5
6D3
330
22
100
AcDbEntity
  8
_2-7_ビス
  6
Continuous
 62
     7
100
AcDbLine
 10
1150.374347915339
 20
1120.168086537151
 30
0.0
 11
1150.392163570971
 21
1120.191173935118
 31
0.0
  0
LINE
  5
6D4
330
22
100
AcDbEntity
  8
_2-7_ビス
  6
Continuous
 62
     7
100
AcDbLine
 10
1150.392163570971
 20
1120.191173935118
 30
0.0
 11
1150.406062005782
 21
1120.217311796223
 31
0.0
  0
LINE
  5
6D5
330
22
100
AcDbEntity
  8
_2-7_ビス
  6
Continuous
 62
     7
100
AcDbLine
 10
1150.406062005782
 20
1120.217311796223
 30
0.0
 11
1150.415620922863
 21
1120.245705934784
 31
0.0
  0
LINE
  5
6D6
330
22
100
AcDbEntity
  8
_2-7_ビス
  6
Continuous
 62
     7
100
AcDbLine
 10
1150.415620922863
 20
1120.245705934784
 30
0.0
 11
1150.420549879356
 21
1120.275493609266
 31
0.0
  0
LINE
  5
6D7
330
22
100
AcDbEntity
  8
_2-7_ビス
  6
Continuous
 62
     7
100
AcDbLine
 10
1150.420549879356
 20
1120.275493609266
 30
0.0
 11
1150.420699111412
 21
1120.305769736256
 31
0.0
  0
LINE
  5
6D8
330
22
100
AcDbEntity
  8
_2-7_ビス
  6
Continuous
 62
     7
100
AcDbLine
 10
1150.420699111412
 20
1120.305769736256
 30
0.0
 11
1150.416064084691
 21
1120.335614390954
 31
0.0
  0
LINE
  5
6D9
330
22
100
AcDbEntity
  8
_2-7_ビス
  6
Continuous
 62
     7
100
AcDbLine
 10
1150.416064084691
 20
1120.335614390954
 30
0.0
 11
1150.406785632133
 21
1120.36412075863
 31
0.0
  0
LINE
  5
6DA
330
22
100
AcDbEntity
  8
_2-7_ビス
  6
Continuous
 62
     7
100
AcDbLine
 10
1150.406785632133
 20
1120.36412075863
 30
0.0
 11
1150.393145674825
 21
1120.390422687727
 31
0.0
  0
LINE
  5
6DB
330
22
100
AcDbEntity
  8
_2-7_ビス
  6
Continuous
 62
     7
100
AcDbLine
 10
1150.393145674825
 20
1120.390422687727
 30
0.0
 11
1150.393062181068
 21
1120.390555175988
 31
0.0
  0
LINE
  5
6DC
330
22
100
AcDbEntity
  8
_2-7_ビス
  6
Continuous
 62
     7
100
AcDbLine
 10
1149.973049445214
 20
1127.951791762618
 30
0.0
 11
1149.973049445214
 21
1127.951791762618
 31
0.0
  0
LINE
  5
6DD
330
22
100
AcDbEntity
  8
_2-7_ビス
  6
Continuous
 62
     7
100
AcDbLine
 10
1149.973049445214
 20
1127.951791762618
 30
0.0
 11
1150.057375276008
 21
1127.964051719266
 31
0.0
  0
LINE
  5
6DE
330
22
100
AcDbEntity
  8
_2-7_ビス
  6
Continuous
 62
     7
100
AcDbLine
 10
1150.057375276008
 20
1127.964051719266
 30
0.0
 11
1150.138483597466
 21
1127.992224185973
 31
0.0
  0
LINE
  5
6DF
330
22
100
AcDbEntity
  8
_2-7_ビス
  6
Continuous
 62
     7
100
AcDbLine
 10
1150.138483597466
 20
1127.992224185973
 30
0.0
 11
1150.213909974284
 21
1128.035453156595
 31
0.0
  0
LINE
  5
6E0
330
22
100
AcDbEntity
  8
_2-7_ビス
  6
Continuous
 62
     7
100
AcDbLine
 10
1150.213909974284
 20
1128.035453156595
 30
0.0
 11
1150.28136261417
 21
1128.092425140733
 31
0.0
  0
LINE
  5
6E1
330
22
100
AcDbEntity
  8
_2-7_ビス
  6
Continuous
 62
     7
100
AcDbLine
 10
1150.28136261417
 20
1128.092425140733
 30
0.0
 11
1150.338792002793
 21
1128.16140907348
 31
0.0
  0
LINE
  5
6E2
330
22
100
AcDbEntity
  8
_2-7_ビス
  6
Continuous
 62
     7
100
AcDbLine
 10
1150.338792002793
 20
1128.16140907348
 30
0.0
 11
1150.384453177242
 21
1128.240308912946
 31
0.0
  0
LINE
  5
6E3
330
22
100
AcDbEntity
  8
_2-7_ビス
  6
Continuous
 62
     7
100
AcDbLine
 10
1150.384453177242
 20
1128.240308912946
 30
0.0
 11
1150.416958745835
 21
1128.326727327434
 31
0.0
  0
LINE
  5
6E4
330
22
100
AcDbEntity
  8
_2-7_ビス
  6
Continuous
 62
     7
100
AcDbLine
 10
1150.416958745835
 20
1128.326727327434
 30
0.0
 11
1150.43532104332
 21
1128.41803853715
 31
0.0
  0
LINE
  5
6E5
330
22
100
AcDbEntity
  8
_2-7_ビス
  6
Continuous
 62
     7
100
AcDbLine
 10
1150.43532104332
 20
1128.41803853715
 30
0.0
 11
1150.438982140579
 21
1128.511468097192
 31
0.0
  0
LINE
  5
6E6
330
22
100
AcDbEntity
  8
_2-7_ビス
  6
Continuous
 62
     7
100
AcDbLine
 10
1150.438982140579
 20
1128.511468097192
 30
0.0
 11
1150.427830797026
 21
1128.604177197657
 31
0.0
  0
LINE
  5
6E7
330
22
100
AcDbEntity
  8
_2-7_ビス
  6
Continuous
 62
     7
100
AcDbLine
 10
1150.427830797026
 20
1128.604177197657
 30
0.0
 11
1150.402205840591
 21
1128.693348919439
 31
0.0
  0
LINE
  5
6E8
330
22
100
AcDbEntity
  8
_2-7_ビス
  6
Continuous
 62
     7
100
AcDbLine
 10
1150.402205840591
 20
1128.693348919439
 30
0.0
 11
1150.362885872607
 21
1128.776273824896
 31
0.0
  0
LINE
  5
6E9
330
22
100
AcDbEntity
  8
_2-7_ビス
  6
Continuous
 62
     7
100
AcDbLine
 10
1150.362885872607
 20
1128.776273824896
 30
0.0
 11
1150.311065610407
 21
1128.850432282736
 31
0.0
  0
LINE
  5
6EA
330
22
100
AcDbEntity
  8
_2-7_ビス
  6
Continuous
 62
     7
100
AcDbLine
 10
1150.311065610407
 20
1128.850432282736
 30
0.0
 11
1150.248319586434
 21
1128.913571025745
 31
0.0
  0
LINE
  5
6EB
330
22
100
AcDbEntity
  8
_2-7_ビス
  6
Continuous
 62
     7
100
AcDbLine
 10
1150.248319586434
 20
1128.913571025745
 30
0.0
 11
1150.176554306875
 21
1128.963771615166
 31
0.0
  0
LINE
  5
6EC
330
22
100
AcDbEntity
  8
_2-7_ビス
  6
Continuous
 62
     7
100
AcDbLine
 10
1150.176554306875
 20
1128.963771615166
 30
0.0
 11
1150.097950323436
 21
1128.999508731492
 31
0.0
  0
LINE
  5
6ED
330
22
100
AcDbEntity
  8
_2-7_ビス
  6
Continuous
 62
     7
100
AcDbLine
 10
1150.097950323436
 20
1128.999508731492
 30
0.0
 11
1150.014895978377
 21
1129.019696520528
 31
0.0
  0
LINE
  5
6EE
330
22
100
AcDbEntity
  8
_2-7_ビス
  6
Continuous
 62
     7
100
AcDbLine
 10
1150.014895978377
 20
1129.019696520528
 30
0.0
 11
1149.973049445214
 21
1129.023721586518
 31
0.0
  0
LINE
  5
6EF
330
22
100
AcDbEntity
  8
_2-7_ビス
  6
Continuous
 62
     7
100
AcDbLine
 10
1149.973049445214
 20
1135.785125091119
 30
0.0
 11
1149.973049445214
 21
1135.785125091119
 31
0.0
  0
LINE
  5
6F0
330
22
100
AcDbEntity
  8
_2-7_ビス
  6
Continuous
 62
     7
100
AcDbLine
 10
1149.973049445214
 20
1135.785125091119
 30
0.0
 11
1150.057375276008
 21
1135.797385047766
 31
0.0
  0
LINE
  5
6F1
330
22
100
AcDbEntity
  8
_2-7_ビス
  6
Continuous
 62
     7
100
AcDbLine
 10
1150.057375276008
 20
1135.797385047766
 30
0.0
 11
1150.138483597466
 21
1135.825557514473
 31
0.0
  0
LINE
  5
6F2
330
22
100
AcDbEntity
  8
_2-7_ビス
  6
Continuous
 62
     7
100
AcDbLine
 10
1150.138483597466
 20
1135.825557514473
 30
0.0
 11
1150.213909974284
 21
1135.868786485095
 31
0.0
  0
LINE
  5
6F3
330
22
100
AcDbEntity
  8
_2-7_ビス
  6
Continuous
 62
     7
100
AcDbLine
 10
1150.213909974284
 20
1135.868786485095
 30
0.0
 11
1150.28136261417
 21
1135.925758469233
 31
0.0
  0
LINE
  5
6F4
330
22
100
AcDbEntity
  8
_2-7_ビス
  6
Continuous
 62
     7
100
AcDbLine
 10
1150.28136261417
 20
1135.925758469233
 30
0.0
 11
1150.338792002793
 21
1135.99474240198
 31
0.0
  0
LINE
  5
6F5
330
22
100
AcDbEntity
  8
_2-7_ビス
  6
Continuous
 62
     7
100
AcDbLine
 10
1150.338792002793
 20
1135.99474240198
 30
0.0
 11
1150.384453177242
 21
1136.073642241446
 31
0.0
  0
LINE
  5
6F6
330
22
100
AcDbEntity
  8
_2-7_ビス
  6
Continuous
 62
     7
100
AcDbLine
 10
1150.384453177242
 20
1136.073642241446
 30
0.0
 11
1150.416958745835
 21
1136.160060655934
 31
0.0
  0
LINE
  5
6F7
330
22
100
AcDbEntity
  8
_2-7_ビス
  6
Continuous
 62
     7
100
AcDbLine
 10
1150.416958745835
 20
1136.160060655934
 30
0.0
 11
1150.43532104332
 21
1136.25137186565
 31
0.0
  0
LINE
  5
6F8
330
22
100
AcDbEntity
  8
_2-7_ビス
  6
Continuous
 62
     7
100
AcDbLine
 10
1150.43532104332
 20
1136.25137186565
 30
0.0
 11
1150.438982140579
 21
1136.344801425693
 31
0.0
  0
LINE
  5
6F9
330
22
100
AcDbEntity
  8
_2-7_ビス
  6
Continuous
 62
     7
100
AcDbLine
 10
1150.438982140579
 20
1136.344801425693
 30
0.0
 11
1150.427830797026
 21
1136.437510526157
 31
0.0
  0
LINE
  5
6FA
330
22
100
AcDbEntity
  8
_2-7_ビス
  6
Continuous
 62
     7
100
AcDbLine
 10
1150.427830797026
 20
1136.437510526157
 30
0.0
 11
1150.402205840591
 21
1136.52668224794
 31
0.0
  0
LINE
  5
6FB
330
22
100
AcDbEntity
  8
_2-7_ビス
  6
Continuous
 62
     7
100
AcDbLine
 10
1150.402205840591
 20
1136.52668224794
 30
0.0
 11
1150.362885872607
 21
1136.609607153396
 31
0.0
  0
LINE
  5
6FC
330
22
100
AcDbEntity
  8
_2-7_ビス
  6
Continuous
 62
     7
100
AcDbLine
 10
1150.362885872607
 20
1136.609607153396
 30
0.0
 11
1150.311065610407
 21
1136.683765611237
 31
0.0
  0
LINE
  5
6FD
330
22
100
AcDbEntity
  8
_2-7_ビス
  6
Continuous
 62
     7
100
AcDbLine
 10
1150.311065610407
 20
1136.683765611237
 30
0.0
 11
1150.248319586434
 21
1136.746904354246
 31
0.0
  0
LINE
  5
6FE
330
22
100
AcDbEntity
  8
_2-7_ビス
  6
Continuous
 62
     7
100
AcDbLine
 10
1150.248319586434
 20
1136.746904354246
 30
0.0
 11
1150.176554306875
 21
1136.797104943666
 31
0.0
  0
LINE
  5
6FF
330
22
100
AcDbEntity
  8
_2-7_ビス
  6
Continuous
 62
     7
100
AcDbLine
 10
1150.176554306875
 20
1136.797104943666
 30
0.0
 11
1150.097950323436
 21
1136.832842059992
 31
0.0
  0
LINE
  5
700
330
22
100
AcDbEntity
  8
_2-7_ビス
  6
Continuous
 62
     7
100
AcDbLine
 10
1150.097950323436
 20
1136.832842059992
 30
0.0
 11
1150.014895978377
 21
1136.853029849028
 31
0.0
  0
LINE
  5
701
330
22
100
AcDbEntity
  8
_2-7_ビス
  6
Continuous
 62
     7
100
AcDbLine
 10
1150.014895978377
 20
1136.853029849028
 30
0.0
 11
1149.973049445214
 21
1136.857054915019
 31
0.0
  0
LINE
  5
702
330
22
100
AcDbEntity
  8
_2-7_ビス
  6
Continuous
 62
     7
100
AcDbLine
 10
1150.348541589103
 20
1117.397405804218
 30
0.0
 11
1150.348541589103
 21
1117.397405804218
 31
0.0
  0
LINE
  5
703
330
22
100
AcDbEntity
  8
_2-7_ビス
  6
Continuous
 62
     7
100
AcDbLine
 10
1150.348541589103
 20
1117.397405804218
 30
0.0
 11
1150.343137664677
 21
1117.536661426133
 31
0.0
  0
LINE
  5
704
330
22
100
AcDbEntity
  8
_2-7_ビス
  6
Continuous
 62
     7
100
AcDbLine
 10
1150.343137664677
 20
1117.536661426133
 30
0.0
 11
1150.315820976658
 21
1117.672769771216
 31
0.0
  0
LINE
  5
705
330
22
100
AcDbEntity
  8
_2-7_ビス
  6
Continuous
 62
     7
100
AcDbLine
 10
1150.315820976658
 20
1117.672769771216
 30
0.0
 11
1150.298266256015
 21
1117.727230365418
 31
0.0
  0
LINE
  5
706
330
22
100
AcDbEntity
  8
_2-7_ビス
  6
Continuous
 62
     7
100
AcDbLine
 10
1151.439447195213
 20
1115.398078346666
 30
0.0
 11
1151.439447195213
 21
1115.398078346666
 31
0.0
  0
LINE
  5
707
330
22
100
AcDbEntity
  8
_2-7_ビス
  6
Continuous
 62
     7
100
AcDbLine
 10
1151.439447195213
 20
1115.398078346666
 30
0.0
 11
1151.43662537038
 21
1115.45391854121
 31
0.0
  0
LINE
  5
708
330
22
100
AcDbEntity
  8
_2-7_ビス
  6
Continuous
 62
     7
100
AcDbLine
 10
1151.43662537038
 20
1115.45391854121
 30
0.0
 11
1151.425026682891
 21
1115.508371679065
 31
0.0
  0
LINE
  5
709
330
22
100
AcDbEntity
  8
_2-7_ビス
  6
Continuous
 62
     7
100
AcDbLine
 10
1151.425026682891
 20
1115.508371679065
 30
0.0
 11
1151.405003552997
 21
1115.559783229193
 31
0.0
  0
LINE
  5
70A
330
22
100
AcDbEntity
  8
_2-7_ビス
  6
Continuous
 62
     7
100
AcDbLine
 10
1151.405003552997
 20
1115.559783229193
 30
0.0
 11
1151.377164373366
 21
1115.606591077659
 31
0.0
  0
LINE
  5
70B
330
22
100
AcDbEntity
  8
_2-7_ビス
  6
Continuous
 62
     7
100
AcDbLine
 10
1151.377164373366
 20
1115.606591077659
 30
0.0
 11
1151.342355023385
 21
1115.647372991671
 31
0.0
  0
LINE
  5
70C
330
22
100
AcDbEntity
  8
_2-7_ビス
  6
Continuous
 62
     7
100
AcDbLine
 10
1151.342355023385
 20
1115.647372991671
 30
0.0
 11
1151.301633167537
 21
1115.680889833411
 31
0.0
  0
LINE
  5
70D
330
22
100
AcDbEntity
  8
_2-7_ビス
  6
Continuous
 62
     7
100
AcDbLine
 10
1151.301633167537
 20
1115.680889833411
 30
0.0
 11
1151.256236118808
 21
1115.706123210602
 31
0.0
  0
LINE
  5
70E
330
22
100
AcDbEntity
  8
_2-7_ビス
  6
Continuous
 62
     7
100
AcDbLine
 10
1151.256236118808
 20
1115.706123210602
 30
0.0
 11
1151.207543243551
 21
1115.722306419847
 31
0.0
  0
LINE
  5
70F
330
22
100
AcDbEntity
  8
_2-7_ビス
  6
Continuous
 62
     7
100
AcDbLine
 10
1151.207543243551
 20
1115.722306419847
 30
0.0
 11
1151.15703405014
 21
1115.728947742522
 31
0.0
  0
LINE
  5
710
330
22
100
AcDbEntity
  8
_2-7_ビス
  6
Continuous
 62
     7
100
AcDbLine
 10
1151.15703405014
 20
1115.728947742522
 30
0.0
 11
1151.106243234858
 21
1115.725845385397
 31
0.0
  0
LINE
  5
711
330
22
100
AcDbEntity
  8
_2-7_ビス
  6
Continuous
 62
     7
100
AcDbLine
 10
1151.106243234858
 20
1115.725845385397
 30
0.0
 11
1151.056714050927
 21
1115.713093612026
 31
0.0
  0
LINE
  5
712
330
22
100
AcDbEntity
  8
_2-7_ビス
  6
Continuous
 62
     7
100
AcDbLine
 10
1151.056714050927
 20
1115.713093612026
 30
0.0
 11
1151.009951417537
 21
1115.691079878588
 31
0.0
  0
LINE
  5
713
330
22
100
AcDbEntity
  8
_2-7_ビス
  6
Continuous
 62
     7
100
AcDbLine
 10
1151.009951417537
 20
1115.691079878588
 30
0.0
 11
1150.967376193641
 21
1115.660473061235
 31
0.0
  0
LINE
  5
714
330
22
100
AcDbEntity
  8
_2-7_ビス
  6
Continuous
 62
     7
100
AcDbLine
 10
1150.967376193641
 20
1115.660473061235
 30
0.0
 11
1150.930282005872
 21
1115.622203132623
 31
0.0
  0
LINE
  5
715
330
22
100
AcDbEntity
  8
_2-7_ビス
  6
Continuous
 62
     7
100
AcDbLine
 10
1150.930282005872
 20
1115.622203132623
 30
0.0
 11
1150.899795942356
 21
1115.57743290517
 31
0.0
  0
LINE
  5
716
330
22
100
AcDbEntity
  8
_2-7_ビス
  6
Continuous
 62
     7
100
AcDbLine
 10
1150.899795942356
 20
1115.57743290517
 30
0.0
 11
1150.876844306706
 21
1115.52752269958
 31
0.0
  0
LINE
  5
717
330
22
100
AcDbEntity
  8
_2-7_ビス
  6
Continuous
 62
     7
100
AcDbLine
 10
1150.876844306706
 20
1115.52752269958
 30
0.0
 11
1150.862124472756
 21
1115.473989012196
 31
0.0
  0
LINE
  5
718
330
22
100
AcDbEntity
  8
_2-7_ビス
  6
Continuous
 62
     7
100
AcDbLine
 10
1150.862124472756
 20
1115.473989012196
 30
0.0
 11
1150.856083695213
 21
1115.418458437019
 31
0.0
  0
LINE
  5
719
330
22
100
AcDbEntity
  8
_2-7_ビス
  6
Continuous
 62
     7
100
AcDbLine
 10
1150.856083695213
 20
1115.418458437019
 30
0.0
 11
1150.856083695213
 21
1115.418458437019
 31
0.0
  0
LINE
  5
71A
330
22
100
AcDbEntity
  8
_2-6_鋼板__アングル
  6
Continuous
 62
     2
100
AcDbLine
 10
1178.141799445214
 20
1198.932765093345
 30
0.0
 11
1177.762326125994
 21
1197.794345135684
 31
0.0
  0
LINE
  5
71B
330
22
100
AcDbEntity
  8
_2-6_鋼板__アングル
  6
Continuous
 62
     2
100
AcDbLine
 10
1174.947066253012
 20
1198.732765093345
 30
0.0
 11
1160.138855720061
 21
1198.732765093345
 31
0.0
  0
LINE
  5
71C
330
22
100
AcDbEntity
  8
_2-6_鋼板__アングル
  6
Continuous
 62
     2
100
AcDbLine
 10
1174.947066253012
 20
1198.732765093345
 30
0.0
 11
1177.762326125994
 21
1197.794345135684
 31
0.0
  0
LINE
  5
71D
330
22
100
AcDbEntity
  8
_2-6_鋼板__アングル
  6
Continuous
 62
     2
100
AcDbLine
 10
1129.141799445215
 20
1149.932765093344
 30
0.0
 11
1130.280219402875
 21
1150.312238412565
 31
0.0
  0
LINE
  5
71E
330
22
100
AcDbEntity
  8
_2-6_鋼板__アングル
  6
Continuous
 62
     2
100
AcDbLine
 10
1128.141799445214
 20
1152.932765093345
 30
0.0
 11
1128.141799445214
 21
1199.932765093344
 31
0.0
  0
LINE
  5
71F
330
22
100
AcDbEntity
  8
_2-6_鋼板__アングル
  6
Continuous
 62
     2
100
AcDbLine
 10
1128.141799445214
 20
1152.932765093345
 30
0.0
 11
1129.141799445215
 21
1149.932765093344
 31
0.0
  0
LINE
  5
720
330
22
100
AcDbEntity
  8
_2-6_鋼板__アングル
  6
Continuous
 62
     2
100
AcDbLine
 10
1129.341799445215
 20
1153.127498285547
 30
0.0
 11
1130.280219402875
 21
1150.312238412565
 31
0.0
  0
LINE
  5
721
330
22
100
AcDbEntity
  8
_2-6_鋼板__アングル
  6
Continuous
 62
     2
100
AcDbLine
 10
1175.141799445214
 20
1199.932765093344
 30
0.0
 11
1178.141799445214
 21
1198.932765093345
 31
0.0
  0
LINE
  5
722
330
22
100
AcDbEntity
  8
_2-6_鋼板__アングル
  6
Continuous
 62
     2
100
AcDbLine
 10
1146.144743170366
 20
1198.732765093345
 30
0.0
 11
1129.341799445215
 21
1198.732765093345
 31
0.0
  0
LINE
  5
723
330
22
100
AcDbEntity
  8
_2-6_鋼板__アングル
  6
Continuous
 62
     2
100
AcDbLine
 10
1129.341799445215
 20
1153.127498285547
 30
0.0
 11
1129.341799445215
 21
1198.732765093345
 31
0.0
  0
LINE
  5
724
330
22
100
AcDbEntity
  8
_2-6_鋼板__アングル
  6
Continuous
 62
     2
100
AcDbLine
 10
1147.288812599208
 20
1199.435062667196
 30
0.0
 11
1149.891799445215
 21
1197.432765093344
 31
0.0
  0
ARC
  5
725
330
22
100
AcDbEntity
  8
_2-6_鋼板__アングル
  6
Continuous
 62
     2
100
AcDbCircle
 10
1145.825506773169
 20
1197.532765093344
 30
0.0
 40
2.399999999999999
100
AcDbArc
 50
52.43140797117396
 51
90.0
  0
LINE
  5
726
330
22
100
AcDbEntity
  8
_2-6_鋼板__アングル
  6
Continuous
 62
     2
100
AcDbLine
 10
1158.994786291221
 20
1199.435062667196
 30
0.0
 11
1156.391799445214
 21
1197.432765093344
 31
0.0
  0
ARC
  5
727
330
22
100
AcDbEntity
  8
_2-6_鋼板__アングル
  6
Continuous
 62
     2
100
AcDbCircle
 10
1160.45809211726
 20
1197.532765093344
 30
0.0
 40
2.399999999999999
100
AcDbArc
 50
90.0
 51
127.568592028826
  0
LINE
  5
728
330
22
100
AcDbEntity
  8
_2-6_鋼板__アングル
  6
Continuous
 62
     4
100
AcDbLine
 10
1145.825506773169
 20
1199.932765093344
 30
0.0
 11
1160.45809211726
 21
1199.932765093344
 31
0.0
  0
LINE
  5
729
330
22
100
AcDbEntity
  8
_2-6_鋼板__アングル
  6
Continuous
 62
     2
100
AcDbLine
 10
1149.891799445215
 20
1197.432765093344
 30
0.0
 11
1149.160146532195
 21
1196.481616306419
 31
0.0
  0
LINE
  5
72A
330
22
100
AcDbEntity
  8
_2-6_鋼板__アングル
  6
Continuous
 62
     2
100
AcDbLine
 10
1156.391799445214
 20
1197.432765093344
 30
0.0
 11
1157.123452358235
 21
1196.481616306419
 31
0.0
  0
LINE
  5
72B
330
22
100
AcDbEntity
  8
_2-6_鋼板__アングル
  6
Continuous
 62
     4
100
AcDbLine
 10
1157.123452358235
 20
1196.481616306419
 30
0.0
 11
1149.160146532195
 21
1196.481616306419
 31
0.0
  0
LINE
  5
72C
330
22
100
AcDbEntity
  8
_2-6_鋼板__アングル
  6
Continuous
 62
     2
100
AcDbLine
 10
1146.557159686188
 20
1198.48391388027
 30
0.0
 11
1149.160146532195
 21
1196.481616306419
 31
0.0
  0
ARC
  5
72D
330
22
100
AcDbEntity
  8
_2-6_鋼板__アングル
  6
Continuous
 62
     2
100
AcDbCircle
 10
1145.825506773169
 20
1197.532765093344
 30
0.0
 40
1.199999999999999
100
AcDbArc
 50
52.43140797117494
 51
90.0
  0
LINE
  5
72E
330
22
100
AcDbEntity
  8
_2-6_鋼板__アングル
  6
Continuous
 62
     2
100
AcDbLine
 10
1159.726439204239
 20
1198.48391388027
 30
0.0
 11
1157.123452358235
 21
1196.481616306419
 31
0.0
  0
ARC
  5
72F
330
22
100
AcDbEntity
  8
_2-6_鋼板__アングル
  6
Continuous
 62
     2
100
AcDbCircle
 10
1160.45809211726
 20
1197.532765093344
 30
0.0
 40
1.199999999999999
100
AcDbArc
 50
89.99999999999994
 51
127.568592028828
  0
LINE
  5
730
330
22
100
AcDbEntity
  8
_2-6_鋼板__アングル
  6
Continuous
 62
     2
100
AcDbLine
 10
1175.141799445214
 20
1199.932765093344
 30
0.0
 11
1160.45809211726
 21
1199.932765093344
 31
0.0
  0
LINE
  5
731
330
22
100
AcDbEntity
  8
_2-6_鋼板__アングル
  6
Continuous
 62
     2
100
AcDbLine
 10
1145.825506773169
 20
1199.932765093344
 30
0.0
 11
1128.141799445214
 21
1199.932765093344
 31
0.0
  0
LINE
  5
732
330
22
100
AcDbEntity
  8
_2-2_IN_LINE
  6
Continuous
 62
     7
100
AcDbLine
 10
1128.141799445214
 20
1199.932765093344
 30
0.0
 11
1123.141799445214
 21
1199.932765093344
 31
0.0
  0
LINE
  5
733
330
22
100
AcDbEntity
  8
_2-2_IN_LINE
  6
Continuous
 62
     7
100
AcDbLine
 10
1123.141799445214
 20
1199.932765093344
 30
0.0
 11
1123.141799445214
 21
1152.170228005577
 31
0.0
  0
ARC
  5
734
330
22
100
AcDbEntity
  8
_2-4_OUT_LINE
  6
Continuous
 62
     2
100
AcDbCircle
 10
1121.141799445214
 20
1201.932765093347
 30
0.0
 40
3.0
100
AcDbArc
 50
90.0
 51
180.0
  0
LINE
  5
735
330
22
100
AcDbEntity
  8
_2-4_OUT_LINE
  6
Continuous
 62
     2
100
AcDbLine
 10
1118.141799445214
 20
1201.932765093347
 30
0.0
 11
1118.141799445214
 21
1152.170228005577
 31
0.0
  0
LINE
  5
736
330
22
100
AcDbEntity
  8
_2-4_OUT_LINE
  6
Continuous
 62
     2
100
AcDbLine
 10
1121.141799445214
 20
1204.932765093349
 30
0.0
 11
1176.099741385266
 21
1204.932765093349
 31
0.0
  0
LINE
  5
737
330
22
100
AcDbEntity
  8
_2-4_OUT_LINE
  6
Continuous
 62
     2
100
AcDbLine
 10
1176.099741385266
 20
1204.932765093349
 30
0.0
 11
1186.453187746062
 21
1201.481616306419
 31
0.0
  0
TEXT
  5
738
330
22
100
AcDbEntity
  8
_2-A_MOJI
 62
     7
100
AcDbText
 10
1296.900345560588
 20
1337.208241274111
 30
0.0
 40
15.0
  1
ＢＰ－Ｈ６または
100
AcDbText
  0
TEXT
  5
739
330
22
100
AcDbEntity
  8
_2-A_MOJI
 62
     7
100
AcDbText
 10
1296.900345560588
 20
1317.208241274111
 30
0.0
 40
15.0
  1
特注塩ビ鋼板
100
AcDbText
  0
LINE
  5
73A
330
22
100
AcDbEntity
  8
_2-A_MOJI
  6
Continuous
 62
     7
100
AcDbLine
 10
1286.900345560588
 20
1344.708241274111
 30
0.0
 11
1249.660030603714
 21
1344.708241274111
 31
0.0
  0
LINE
  5
73B
330
22
100
AcDbEntity
  8
_2-A_MOJI
  6
Continuous
 62
     7
100
AcDbLine
 10
1166.102074719714
 20
1199.981616306422
 30
0.0
 11
1249.660030603714
 21
1344.708241274111
 31
0.0
  0
ENDSEC
  0
SECTION
  2
OBJECTS
  0
DICTIONARY
  5
C
330
0
100
AcDbDictionary
281
     1
  3
ACAD_COLOR
350
1B
  3
ACAD_GROUP
350
D
  3
ACAD_LAYOUT
350
19
  3
ACAD_MATERIAL
350
1A
  3
ACAD_MLINESTYLE
350
16
  3
ACAD_PLOTSETTINGS
350
18
  3
ACAD_PLOTSTYLENAME
350
E
  3
ACAD_TABLESTYLE
350
1C
  3
ACDBHEADERROUNDTRIPXREC
350
743
  3
AcDbVariableDictionary
350
73E
  0
DICTIONARY
  5
1B
102
{ACAD_REACTORS
330
C
102
}
330
C
100
AcDbDictionary
281
     1
  0
DICTIONARY
  5
D
102
{ACAD_REACTORS
330
C
102
}
330
C
100
AcDbDictionary
281
     1
  0
DICTIONARY
  5
19
102
{ACAD_REACTORS
330
C
102
}
330
C
100
AcDbDictionary
281
     1
  3
Model
350
25
  3
レイアウト1
350
21
  0
DICTIONARY
  5
1A
102
{ACAD_REACTORS
330
C
102
}
330
C
100
AcDbDictionary
281
     1
  0
DICTIONARY
  5
16
102
{ACAD_REACTORS
330
C
102
}
330
C
100
AcDbDictionary
281
     1
  3
Standard
350
17
  0
DICTIONARY
  5
18
102
{ACAD_REACTORS
330
C
102
}
330
C
100
AcDbDictionary
281
     1
  0
ACDBDICTIONARYWDFLT
  5
E
102
{ACAD_REACTORS
330
C
102
}
330
C
100
AcDbDictionary
281
     1
  3
Normal
350
F
100
AcDbDictionaryWithDefault
340
F
  0
DICTIONARY
  5
1C
102
{ACAD_REACTORS
330
C
102
}
330
C
100
AcDbDictionary
281
     1
  3
Standard
350
1D
  0
DICTIONARY
  5
743
102
{ACAD_REACTORS
330
C
102
}
330
C
100
AcDbDictionary
281
     1
  0
DICTIONARY
  5
73E
102
{ACAD_REACTORS
330
C
102
}
330
C
100
AcDbDictionary
281
     1
  3
CTABLESTYLE
350
73F
  3
DIMASSOC
350
740
  3
PROJECTNAME
350
741
  0
LAYOUT
  5
25
102
{ACAD_XDICTIONARY
360
746
102
}
102
{ACAD_REACTORS
330
19
102
}
330
19
100
AcDbPlotSettings
  1

  2
PC1665
  4

  6

 40
0.0
 41
0.0
 42
0.0
 43
0.0
 44
0.0
 45
0.0
 46
0.0
 47
0.0
 48
0.0
 49
0.0
140
0.0
141
0.0
142
1.0
143
1.0
 70
  1712
 72
     0
 73
     0
 74
     0
  7

 75
     0
147
1.0
148
0.0
149
0.0
100
AcDbLayout
  1
Model
 70
     1
 71
     0
 10
0.0
 20
0.0
 11
12.0
 21
9.0
 12
0.0
 22
0.0
 32
0.0
 14
0.0
 24
0.0
 34
0.0
 15
0.0
 25
0.0
 35
0.0
146
0.0
 13
0.0
 23
0.0
 33
0.0
 16
1.0
 26
0.0
 36
0.0
 17
0.0
 27
1.0
 37
0.0
 76
     0
330
22
  0
LAYOUT
  5
21
102
{ACAD_XDICTIONARY
360
744
102
}
102
{ACAD_REACTORS
330
19
102
}
330
19
100
AcDbPlotSettings
  1

  2
PC1665
  4

  6

 40
0.0
 41
0.0
 42
0.0
 43
0.0
 44
0.0
 45
0.0
 46
0.0
 47
0.0
 48
0.0
 49
0.0
140
0.0
141
0.0
142
1.0
143
1.0
 70
   688
 72
     0
 73
     0
 74
     5
  7

 75
    16
147
1.0
148
0.0
149
0.0
100
AcDbLayout
  1
レイアウト1
 70
     1
 71
     1
 10
0.0
 20
0.0
 11
12.0
 21
9.0
 12
0.0
 22
0.0
 32
0.0
 14
1.000000000000000E+20
 24
1.000000000000000E+20
 34
1.000000000000000E+20
 15
-1.000000000000000E+20
 25
-1.000000000000000E+20
 35
-1.000000000000000E+20
146
0.0
 13
0.0
 23
0.0
 33
0.0
 16
1.0
 26
0.0
 36
0.0
 17
0.0
 27
1.0
 37
0.0
 76
     0
330
1E
  0
MLINESTYLE
  5
17
102
{ACAD_REACTORS
330
16
102
}
330
16
100
AcDbMlineStyle
  2
STANDARD
 70
     0
  3

 62
   256
 51
90.0
 52
90.0
 71
     2
 49
0.5
 62
   256
  6
BYLAYER
 49
-0.5
 62
   256
  6
BYLAYER
  0
ACDBPLACEHOLDER
  5
F
102
{ACAD_REACTORS
330
E
102
}
330
E
  0
TABLESTYLE
  5
1D
102
{ACAD_REACTORS
330
1C
102
}
330
1C
100
AcDbTableStyle
  3
Standard
 70
     0
 71
     0
 40
0.06
 41
0.06
280
     0
281
     0
  7
STANDARD
140
0.18
170
     2
 62
     0
 63
     7
283
     0
274
    -2
284
     1
 64
     0
275
    -2
285
     1
 65
     0
276
    -2
286
     1
 66
     0
277
    -2
287
     1
 67
     0
278
    -2
288
     1
 68
     0
279
    -2
289
     1
 69
     0
  7
STANDARD
140
0.25
170
     5
 62
     0
 63
     7
283
     0
274
    -2
284
     1
 64
     0
275
    -2
285
     1
 65
     0
276
    -2
286
     1
 66
     0
277
    -2
287
     1
 67
     0
278
    -2
288
     1
 68
     0
279
    -2
289
     1
 69
     0
  7
STANDARD
140
0.18
170
     5
 62
     0
 63
     7
283
     0
274
    -2
284
     1
 64
     0
275
    -2
285
     1
 65
     0
276
    -2
286
     1
 66
     0
277
    -2
287
     1
 67
     0
278
    -2
288
     1
 68
     0
279
    -2
289
     1
 69
     0
  0
DICTIONARYVAR
  5
73F
102
{ACAD_REACTORS
330
73E
102
}
330
73E
100
DictionaryVariables
280
     0
  1
STANDARD
  0
DICTIONARYVAR
  5
740
102
{ACAD_REACTORS
330
73E
102
}
330
73E
100
DictionaryVariables
280
     0
  1
1
  0
DICTIONARYVAR
  5
741
102
{ACAD_REACTORS
330
73E
102
}
330
73E
100
DictionaryVariables
280
     0
  1

  0
DICTIONARY
  5
746
330
25
100
AcDbDictionary
280
     1
281
     1
  3
ACAD_XREC_ROUNDTRIP
360
747
  0
DICTIONARY
  5
744
330
21
100
AcDbDictionary
280
     1
281
     1
  3
ACAD_XREC_ROUNDTRIP
360
745
  0
XRECORD
  5
747
102
{ACAD_REACTORS
330
746
102
}
330
746
100
AcDbXrecord
280
     1
102
SHADEPLOT
 70
     0
102
SHADEPLOTRESLEVEL
 70
     2
102
SHADEPLOTCUSTOMDPI
 70
   300
  0
XRECORD
  5
745
102
{ACAD_REACTORS
330
744
102
}
330
744
100
AcDbXrecord
280
     1
102
SHADEPLOT
 70
     0
102
SHADEPLOTRESLEVEL
 70
     2
102
SHADEPLOTCUSTOMDPI
 70
   300
  0
ENDSEC
  0
EOF
