  0
SECTION
  2
HEADER
  9
$ACADVER
  1
AC1015
  9
$ACADMAINTVER
 70
    20
  9
$DWGCODEPAGE
  3
ANSI_932
  9
$INSBASE
 10
0.0
 20
0.0
 30
0.0
  9
$EXTMIN
 10
561.817937672392
 20
32.69737593212312
 30
-0.0015258207003583
  9
$EXTMAX
 10
1562.054447622567
 20
1462.839206312596
 30
0.0000000349246037
  9
$LIMMIN
 10
0.0
 20
0.0
  9
$LIMMAX
 10
2100.0
 20
1485.0
  9
$ORTHOMODE
 70
     0
  9
$REGENMODE
 70
     1
  9
$FILLMODE
 70
     1
  9
$QTEXTMODE
 70
     0
  9
$MIRRTEXT
 70
     0
  9
$LTSCALE
 40
5.0
  9
$ATTMODE
 70
     1
  9
$TEXTSIZE
 40
0.2
  9
$TRACEWID
 40
0.05
  9
$TEXTSTYLE
  7
STANDARD
  9
$CLAYER
  8
0
  9
$CELTYPE
  6
CONTINUOUS
  9
$CECOLOR
 62
   256
  9
$CELTSCALE
 40
1.0
  9
$DISPSILH
 70
     0
  9
$DIMSCALE
 40
1.0
  9
$DIMASZ
 40
0.18
  9
$DIMEXO
 40
0.0625
  9
$DIMDLI
 40
0.38
  9
$DIMRND
 40
0.0
  9
$DIMDLE
 40
0.0
  9
$DIMEXE
 40
0.18
  9
$DIMTP
 40
0.0
  9
$DIMTM
 40
0.0
  9
$DIMTXT
 40
0.18
  9
$DIMCEN
 40
0.09
  9
$DIMTSZ
 40
0.0
  9
$DIMTOL
 70
     0
  9
$DIMLIM
 70
     0
  9
$DIMTIH
 70
     1
  9
$DIMTOH
 70
     1
  9
$DIMSE1
 70
     0
  9
$DIMSE2
 70
     0
  9
$DIMTAD
 70
     0
  9
$DIMZIN
 70
     0
  9
$DIMBLK
  1

  9
$DIMASO
 70
     1
  9
$DIMSHO
 70
     1
  9
$DIMPOST
  1

  9
$DIMAPOST
  1

  9
$DIMALT
 70
     0
  9
$DIMALTD
 70
     2
  9
$DIMALTF
 40
25.4
  9
$DIMLFAC
 40
1.0
  9
$DIMTOFL
 70
     0
  9
$DIMTVP
 40
0.0
  9
$DIMTIX
 70
     0
  9
$DIMSOXD
 70
     0
  9
$DIMSAH
 70
     0
  9
$DIMBLK1
  1

  9
$DIMBLK2
  1

  9
$DIMSTYLE
  2
Standard
  9
$DIMCLRD
 70
     0
  9
$DIMCLRE
 70
     0
  9
$DIMCLRT
 70
     0
  9
$DIMTFAC
 40
1.0
  9
$DIMGAP
 40
0.09
  9
$DIMJUST
 70
     0
  9
$DIMSD1
 70
     0
  9
$DIMSD2
 70
     0
  9
$DIMTOLJ
 70
     1
  9
$DIMTZIN
 70
     0
  9
$DIMALTZ
 70
     0
  9
$DIMALTTZ
 70
     0
  9
$DIMUPT
 70
     0
  9
$DIMDEC
 70
     4
  9
$DIMTDEC
 70
     4
  9
$DIMALTU
 70
     2
  9
$DIMALTTD
 70
     2
  9
$DIMTXSTY
  7
STANDARD
  9
$DIMAUNIT
 70
     0
  9
$DIMADEC
 70
     0
  9
$DIMALTRND
 40
0.0
  9
$DIMAZIN
 70
     0
  9
$DIMDSEP
 70
    46
  9
$DIMATFIT
 70
     3
  9
$DIMFRAC
 70
     0
  9
$DIMLDRBLK
  1

  9
$DIMLUNIT
 70
     2
  9
$DIMLWD
 70
    -2
  9
$DIMLWE
 70
    -2
  9
$DIMTMOVE
 70
     0
  9
$LUNITS
 70
     2
  9
$LUPREC
 70
     4
  9
$SKETCHINC
 40
0.1
  9
$FILLETRAD
 40
0.0
  9
$AUNITS
 70
     0
  9
$AUPREC
 70
     0
  9
$MENU
  1
.
  9
$ELEVATION
 40
0.0
  9
$PELEVATION
 40
0.0
  9
$THICKNESS
 40
0.0
  9
$LIMCHECK
 70
     0
  9
$CHAMFERA
 40
0.0
  9
$CHAMFERB
 40
0.0
  9
$CHAMFERC
 40
0.0
  9
$CHAMFERD
 40
0.0
  9
$SKPOLY
 70
     0
  9
$TDCREATE
 40
2454846.620704028
  9
$TDUCREATE
 40
2454846.245704028
  9
$TDUPDATE
 40
2454846.620873842
  9
$TDUUPDATE
 40
2454846.245873842
  9
$TDINDWG
 40
0.0001719792
  9
$TDUSRTIMER
 40
0.0001719792
  9
$USRTIMER
 70
     1
  9
$ANGBASE
 50
0.0
  9
$ANGDIR
 70
     0
  9
$PDMODE
 70
     0
  9
$PDSIZE
 40
0.0
  9
$PLINEWID
 40
0.0
  9
$SPLFRAME
 70
     0
  9
$SPLINETYPE
 70
     6
  9
$SPLINESEGS
 70
     8
  9
$HANDSEED
  5
7B6
  9
$SURFTAB1
 70
     6
  9
$SURFTAB2
 70
     6
  9
$SURFTYPE
 70
     6
  9
$SURFU
 70
     6
  9
$SURFV
 70
     6
  9
$UCSBASE
  2

  9
$UCSNAME
  2

  9
$UCSORG
 10
0.0
 20
0.0
 30
0.0
  9
$UCSXDIR
 10
1.0
 20
0.0
 30
0.0
  9
$UCSYDIR
 10
0.0
 20
1.0
 30
0.0
  9
$UCSORTHOREF
  2

  9
$UCSORTHOVIEW
 70
     0
  9
$UCSORGTOP
 10
0.0
 20
0.0
 30
0.0
  9
$UCSORGBOTTOM
 10
0.0
 20
0.0
 30
0.0
  9
$UCSORGLEFT
 10
0.0
 20
0.0
 30
0.0
  9
$UCSORGRIGHT
 10
0.0
 20
0.0
 30
0.0
  9
$UCSORGFRONT
 10
0.0
 20
0.0
 30
0.0
  9
$UCSORGBACK
 10
0.0
 20
0.0
 30
0.0
  9
$PUCSBASE
  2

  9
$PUCSNAME
  2

  9
$PUCSORG
 10
0.0
 20
0.0
 30
0.0
  9
$PUCSXDIR
 10
1.0
 20
0.0
 30
0.0
  9
$PUCSYDIR
 10
0.0
 20
1.0
 30
0.0
  9
$PUCSORTHOREF
  2

  9
$PUCSORTHOVIEW
 70
     0
  9
$PUCSORGTOP
 10
0.0
 20
0.0
 30
0.0
  9
$PUCSORGBOTTOM
 10
0.0
 20
0.0
 30
0.0
  9
$PUCSORGLEFT
 10
0.0
 20
0.0
 30
0.0
  9
$PUCSORGRIGHT
 10
0.0
 20
0.0
 30
0.0
  9
$PUCSORGFRONT
 10
0.0
 20
0.0
 30
0.0
  9
$PUCSORGBACK
 10
0.0
 20
0.0
 30
0.0
  9
$USERI1
 70
     0
  9
$USERI2
 70
     0
  9
$USERI3
 70
     0
  9
$USERI4
 70
     0
  9
$USERI5
 70
     0
  9
$USERR1
 40
0.0
  9
$USERR2
 40
0.0
  9
$USERR3
 40
0.0
  9
$USERR4
 40
0.0
  9
$USERR5
 40
0.0
  9
$WORLDVIEW
 70
     1
  9
$SHADEDGE
 70
     3
  9
$SHADEDIF
 70
    70
  9
$TILEMODE
 70
     1
  9
$MAXACTVP
 70
    64
  9
$PINSBASE
 10
0.0
 20
0.0
 30
0.0
  9
$PLIMCHECK
 70
     0
  9
$PEXTMIN
 10
1.000000000000000E+20
 20
1.000000000000000E+20
 30
1.000000000000000E+20
  9
$PEXTMAX
 10
-1.000000000000000E+20
 20
-1.000000000000000E+20
 30
-1.000000000000000E+20
  9
$PLIMMIN
 10
0.0
 20
0.0
  9
$PLIMMAX
 10
12.0
 20
9.0
  9
$UNITMODE
 70
     0
  9
$VISRETAIN
 70
     1
  9
$PLINEGEN
 70
     0
  9
$PSLTSCALE
 70
     1
  9
$TREEDEPTH
 70
  3020
  9
$CMLSTYLE
  2
Standard
  9
$CMLJUST
 70
     0
  9
$CMLSCALE
 40
1.0
  9
$PROXYGRAPHICS
 70
     1
  9
$MEASUREMENT
 70
     0
  9
$CELWEIGHT
370
    -1
  9
$ENDCAPS
280
     0
  9
$JOINSTYLE
280
     0
  9
$LWDISPLAY
290
     0
  9
$INSUNITS
 70
     0
  9
$HYPERLINKBASE
  1

  9
$STYLESHEET
  1

  9
$XEDIT
290
     1
  9
$CEPSNTYPE
380
     0
  9
$PSTYLEMODE
290
     1
  9
$FINGERPRINTGUID
  2
{EFCE37CB-A36D-49BB-95B8-B027000E3512}
  9
$VERSIONGUID
  2
{CC12EA36-A5F6-4D25-8411-6AE3ADD93FBB}
  9
$EXTNAMES
290
     1
  9
$PSVPSCALE
 40
0.0
  9
$OLESTARTUP
290
     0
  0
ENDSEC
  0
SECTION
  2
CLASSES
  0
CLASS
  1
ACDBDICTIONARYWDFLT
  2
AcDbDictionaryWithDefault
  3
ObjectDBX Classes
 90
        0
280
     0
281
     0
  0
CLASS
  1
TABLESTYLE
  2
AcDbTableStyle
  3
ObjectDBX Classes
 90
     2047
280
     0
281
     0
  0
CLASS
  1
DICTIONARYVAR
  2
AcDbDictionaryVar
  3
ObjectDBX Classes
 90
        0
280
     0
281
     0
  0
CLASS
  1
ACDBPLACEHOLDER
  2
AcDbPlaceHolder
  3
ObjectDBX Classes
 90
        0
280
     0
281
     0
  0
CLASS
  1
LAYOUT
  2
AcDbLayout
  3
ObjectDBX Classes
 90
        0
280
     0
281
     0
  0
ENDSEC
  0
SECTION
  2
TABLES
  0
TABLE
  2
VPORT
  5
8
330
0
100
AcDbSymbolTable
 70
     2
  0
VPORT
  5
7B0
330
8
100
AcDbSymbolTableRecord
100
AcDbViewportTableRecord
  2
*Active
 70
     0
 10
0.0
 20
0.0
 11
1.0
 21
1.0
 12
1061.936192647479
 22
747.7682911223595
 13
0.0
 23
0.0
 14
1.0
 24
1.0
 15
0.0
 25
0.0
 16
0.0
 26
0.0
 36
1.0
 17
0.0
 27
0.0
 37
0.0
 40
1443.123450625984
 41
2.069696969696969
 42
50.0
 43
0.0
 44
0.0
 50
0.0
 51
0.0
 71
     0
 72
   100
 73
     1
 74
     1
 75
     0
 76
     0
 77
     0
 78
     0
281
     0
 65
     1
110
0.0
120
0.0
130
0.0
111
1.0
121
0.0
131
0.0
112
0.0
122
1.0
132
0.0
 79
     0
146
0.0
  0
ENDTAB
  0
TABLE
  2
LTYPE
  5
5
330
0
100
AcDbSymbolTable
 70
    35
  0
LTYPE
  5
13
330
5
100
AcDbSymbolTableRecord
100
AcDbLinetypeTableRecord
  2
ByBlock
 70
     0
  3

 72
    65
 73
     0
 40
0.0
  0
LTYPE
  5
14
330
5
100
AcDbSymbolTableRecord
100
AcDbLinetypeTableRecord
  2
ByLayer
 70
     0
  3

 72
    65
 73
     0
 40
0.0
  0
LTYPE
  5
15
330
5
100
AcDbSymbolTableRecord
100
AcDbLinetypeTableRecord
  2
CONTINUOUS
 70
     0
  3
実線
 72
    65
 73
     0
 40
0.0
  0
LTYPE
  5
26
330
5
100
AcDbSymbolTableRecord
100
AcDbLinetypeTableRecord
  2
DASHED1
 70
     0
  3
--  --  --  --  --  --  --  --  
 72
    65
 73
     2
 40
2.5
 49
1.25
 74
     0
 49
-1.25
 74
     0
  0
LTYPE
  5
27
330
5
100
AcDbSymbolTableRecord
100
AcDbLinetypeTableRecord
  2
DASHED2
 70
     0
  3
----    ----    ----    ----    
 72
    65
 73
     2
 40
5.0
 49
2.5
 74
     0
 49
-2.5
 74
     0
  0
LTYPE
  5
28
330
5
100
AcDbSymbolTableRecord
100
AcDbLinetypeTableRecord
  2
DASHED3
 70
     0
  3
------  ------  ------  ------  
 72
    65
 73
     2
 40
5.0
 49
3.75
 74
     0
 49
-1.25
 74
     0
  0
LTYPE
  5
29
330
5
100
AcDbSymbolTableRecord
100
AcDbLinetypeTableRecord
  2
CENTER1
 70
     0
  3
----- - ----- - ----- - ----- - 
 72
    65
 73
     4
 40
10.0
 49
6.25
 74
     0
 49
-1.25
 74
     0
 49
1.25
 74
     0
 49
-1.25
 74
     0
  0
LTYPE
  5
2A
330
5
100
AcDbSymbolTableRecord
100
AcDbLinetypeTableRecord
  2
CENTER2
 70
     0
  3
----------  --  ----------  --  
 72
    65
 73
     4
 40
20.0
 49
12.5
 74
     0
 49
-2.5
 74
     0
 49
2.5
 74
     0
 49
-2.5
 74
     0
  0
LTYPE
  5
2B
330
5
100
AcDbSymbolTableRecord
100
AcDbLinetypeTableRecord
  2
PHANTOM1
 70
     0
  3
--- - - --- - - --- - - --- - - 
 72
    65
 73
     6
 40
10.0
 49
3.25
 74
     0
 49
-1.25
 74
     0
 49
1.25
 74
     0
 49
-1.25
 74
     0
 49
1.25
 74
     0
 49
-1.25
 74
     0
  0
LTYPE
  5
2C
330
5
100
AcDbSymbolTableRecord
100
AcDbLinetypeTableRecord
  2
PHANTOM2
 70
     0
  3
--------  -  -  --------  -  -  
 72
    65
 73
     6
 40
20.0
 49
10.0
 74
     0
 49
-2.5
 74
     0
 49
1.25
 74
     0
 49
-2.5
 74
     0
 49
1.25
 74
     0
 49
-2.5
 74
     0
  0
LTYPE
  5
2D
330
5
100
AcDbSymbolTableRecord
100
AcDbLinetypeTableRecord
  2
DOT
 70
     0
  3
-   -   -   -   -   -   -   -   
 72
    65
 73
     2
 40
2.5
 49
0.625
 74
     0
 49
-1.875
 74
     0
  0
LTYPE
  5
2E
330
5
100
AcDbSymbolTableRecord
100
AcDbLinetypeTableRecord
  2
DUMMY
 70
     0
  3
ダミー
 72
    65
 73
     0
 40
0.0
  0
LTYPE
  5
2F
330
5
100
AcDbSymbolTableRecord
100
AcDbLinetypeTableRecord
  2
RAND1
 70
     0
  3
ランダム線1
 72
    65
 73
     4
 40
10.0
 49
1.0
 74
     0
 49
-2.0
 74
     0
 49
3.0
 74
     0
 49
-4.0
 74
     0
  0
LTYPE
  5
30
330
5
100
AcDbSymbolTableRecord
100
AcDbLinetypeTableRecord
  2
RAND2
 70
     0
  3
ランダム線2
 72
    65
 73
     4
 40
14.0
 49
2.0
 74
     0
 49
-3.0
 74
     0
 49
4.0
 74
     0
 49
-5.0
 74
     0
  0
LTYPE
  5
31
330
5
100
AcDbSymbolTableRecord
100
AcDbLinetypeTableRecord
  2
RAND3
 70
     0
  3
ランダム線3
 72
    65
 73
     4
 40
18.0
 49
3.0
 74
     0
 49
-4.0
 74
     0
 49
5.0
 74
     0
 49
-6.0
 74
     0
  0
LTYPE
  5
32
330
5
100
AcDbSymbolTableRecord
100
AcDbLinetypeTableRecord
  2
RAND4
 70
     0
  3
ランダム線4
 72
    65
 73
     4
 40
22.0
 49
4.0
 74
     0
 49
-5.0
 74
     0
 49
6.0
 74
     0
 49
-7.0
 74
     0
  0
LTYPE
  5
33
330
5
100
AcDbSymbolTableRecord
100
AcDbLinetypeTableRecord
  2
RAND5
 70
     0
  3
ランダム線5
 72
    65
 73
     4
 40
26.0
 49
5.0
 74
     0
 49
-6.0
 74
     0
 49
7.0
 74
     0
 49
-8.0
 74
     0
  0
LTYPE
  5
34
330
5
100
AcDbSymbolTableRecord
100
AcDbLinetypeTableRecord
  2
LONG1
 70
     0
  3
----------  --  ----------  --  
 72
    65
 73
     4
 40
40.0
 49
32.5
 74
     0
 49
-2.5
 74
     0
 49
2.5
 74
     0
 49
-2.5
 74
     0
  0
LTYPE
  5
35
330
5
100
AcDbSymbolTableRecord
100
AcDbLinetypeTableRecord
  2
LONG2
 70
     0
  3
--------  -  -  --------  -  -  
 72
    65
 73
     6
 40
40.0
 49
30.0
 74
     0
 49
-2.5
 74
     0
 49
1.25
 74
     0
 49
-2.5
 74
     0
 49
1.25
 74
     0
 49
-2.5
 74
     0
  0
LTYPE
  5
36
330
5
100
AcDbSymbolTableRecord
100
AcDbLinetypeTableRecord
  2
LONG3
 70
     0
  3
+++++++++++++++..+++++++++++++++
 72
    65
 73
     2
 40
40.0
 49
37.5
 74
     0
 49
-2.5
 74
     0
  0
LTYPE
  5
37
330
5
100
AcDbSymbolTableRecord
100
AcDbLinetypeTableRecord
  2
LONG4
 70
     0
  3
+++++++++++++++..+++++++++++++++
 72
    65
 73
     2
 40
80.0
 49
75.0
 74
     0
 49
-5.0
 74
     0
  0
LTYPE
  5
38
330
5
100
AcDbSymbolTableRecord
100
AcDbLinetypeTableRecord
  2
LONG5
 70
     0
  3
----------  --  ----------  --  
 72
    65
 73
     4
 40
60.0
 49
37.5
 74
     0
 49
-7.5
 74
     0
 49
7.5
 74
     0
 49
-7.5
 74
     0
  0
LTYPE
  5
39
330
5
100
AcDbSymbolTableRecord
100
AcDbLinetypeTableRecord
  2
DASHED
 70
     0
  3
-------   -------------   ------
 72
    65
 73
     2
 40
7.5
 49
6.0
 74
     0
 49
-1.5
 74
     0
  0
LTYPE
  5
3A
330
5
100
AcDbSymbolTableRecord
100
AcDbLinetypeTableRecord
  2
DASHED_SPACED
 70
     0
  3
----        --------        ----
 72
    65
 73
     2
 40
12.0
 49
6.0
 74
     0
 49
-6.0
 74
     0
  0
LTYPE
  5
3B
330
5
100
AcDbSymbolTableRecord
100
AcDbLinetypeTableRecord
  2
LONG_DASHED_DOTTED
 70
     0
  3
------------- --- --------------
 72
    65
 73
     4
 40
15.25
 49
12.0
 74
     0
 49
-1.5
 74
     0
 49
0.25
 74
     0
 49
-1.5
 74
     0
  0
LTYPE
  5
3C
330
5
100
AcDbSymbolTableRecord
100
AcDbLinetypeTableRecord
  2
LONG_DASHED_DOUBLE-DOTTED
 70
     0
  3
----------- --- --- ------------
 72
    65
 73
     6
 40
17.0
 49
12.0
 74
     0
 49
-1.5
 74
     0
 49
0.25
 74
     0
 49
-1.5
 74
     0
 49
0.25
 74
     0
 49
-1.5
 74
     0
  0
LTYPE
  5
3D
330
5
100
AcDbSymbolTableRecord
100
AcDbLinetypeTableRecord
  2
LONG_DASHED_TRIPLICATE-DOTTED
 70
     0
  3
--------- --- --- --- ----------
 72
    65
 73
     8
 40
18.75
 49
12.0
 74
     0
 49
-1.5
 74
     0
 49
0.25
 74
     0
 49
-1.5
 74
     0
 49
0.25
 74
     0
 49
-1.5
 74
     0
 49
0.25
 74
     0
 49
-1.5
 74
     0
  0
LTYPE
  5
3E
330
5
100
AcDbSymbolTableRecord
100
AcDbLinetypeTableRecord
  2
DOTTED
 70
     0
  3
   -       -       -       -    
 72
    65
 73
     2
 40
1.75
 49
0.25
 74
     0
 49
-1.5
 74
     0
  0
LTYPE
  5
3F
330
5
100
AcDbSymbolTableRecord
100
AcDbLinetypeTableRecord
  2
CHAIN
 70
     0
  3
-------------- -- --------------
 72
    65
 73
     4
 40
18.5
 49
12.0
 74
     0
 49
-1.5
 74
     0
 49
3.5
 74
     0
 49
-1.5
 74
     0
  0
LTYPE
  5
40
330
5
100
AcDbSymbolTableRecord
100
AcDbLinetypeTableRecord
  2
CHAIN_DOUBLE_DASH
 70
     0
  3
------------ -- -- -------------
 72
    65
 73
     6
 40
23.5
 49
12.0
 74
     0
 49
-1.5
 74
     0
 49
3.5
 74
     0
 49
-1.5
 74
     0
 49
3.5
 74
     0
 49
-1.5
 74
     0
  0
LTYPE
  5
41
330
5
100
AcDbSymbolTableRecord
100
AcDbLinetypeTableRecord
  2
DASHED_DOTTED
 70
     0
  3
-----------     -     ----------
 72
    65
 73
     4
 40
9.25
 49
6.0
 74
     0
 49
-1.5
 74
     0
 49
0.25
 74
     0
 49
-1.5
 74
     0
  0
LTYPE
  5
42
330
5
100
AcDbSymbolTableRecord
100
AcDbLinetypeTableRecord
  2
DOUBLE-DASHED_DOTTED
 70
     0
  3
------   -----------   -   -----
 72
    65
 73
     6
 40
16.75
 49
6.0
 74
     0
 49
-1.5
 74
     0
 49
6.0
 74
     0
 49
-1.5
 74
     0
 49
0.25
 74
     0
 49
-1.5
 74
     0
  0
LTYPE
  5
43
330
5
100
AcDbSymbolTableRecord
100
AcDbLinetypeTableRecord
  2
DASHED_DOUBLE-DOTTED
 70
     0
  3
---------    -    -    ---------
 72
    65
 73
     6
 40
11.0
 49
6.0
 74
     0
 49
-1.5
 74
     0
 49
0.25
 74
     0
 49
-1.5
 74
     0
 49
0.25
 74
     0
 49
-1.5
 74
     0
  0
LTYPE
  5
44
330
5
100
AcDbSymbolTableRecord
100
AcDbLinetypeTableRecord
  2
DOUBLE-DASHED_DOUBLE-DOTTED
 70
     0
  3
-----   ---------   -   -   ----
 72
    65
 73
     8
 40
18.5
 49
6.0
 74
     0
 49
-1.5
 74
     0
 49
6.0
 74
     0
 49
-1.5
 74
     0
 49
0.25
 74
     0
 49
-1.5
 74
     0
 49
0.25
 74
     0
 49
-1.5
 74
     0
  0
LTYPE
  5
45
330
5
100
AcDbSymbolTableRecord
100
AcDbLinetypeTableRecord
  2
DASHED_TRIPLICATE-DOTTED
 70
     0
  3
-------    -    -    -    ------
 72
    65
 73
     8
 40
12.75
 49
6.0
 74
     0
 49
-1.5
 74
     0
 49
0.25
 74
     0
 49
-1.5
 74
     0
 49
0.25
 74
     0
 49
-1.5
 74
     0
 49
0.25
 74
     0
 49
-1.5
 74
     0
  0
LTYPE
  5
46
330
5
100
AcDbSymbolTableRecord
100
AcDbLinetypeTableRecord
  2
DOUBLE-DASHED_TRIPLICATE-DOTTED
 70
     0
  3
-----  ---------  -  -  -  -----
 72
    65
 73
    10
 40
20.25
 49
6.0
 74
     0
 49
-1.5
 74
     0
 49
6.0
 74
     0
 49
-1.5
 74
     0
 49
0.25
 74
     0
 49
-1.5
 74
     0
 49
0.25
 74
     0
 49
-1.5
 74
     0
 49
0.25
 74
     0
 49
-1.5
 74
     0
  0
LTYPE
  5
47
330
5
100
AcDbSymbolTableRecord
100
AcDbLinetypeTableRecord
  2
UNDEFINED
 70
     0
  3
--------------------------------
 72
    65
 73
     0
 40
0.0
  0
ENDTAB
  0
TABLE
  2
LAYER
  5
2
330
0
100
AcDbSymbolTable
 70
    24
  0
LAYER
  5
10
330
2
100
AcDbSymbolTableRecord
100
AcDbLayerTableRecord
  2
0
 70
     0
 62
     7
  6
CONTINUOUS
370
    -3
390
F
  0
LAYER
  5
49
330
2
100
AcDbSymbolTableRecord
100
AcDbLayerTableRecord
  2
_0-1_
 70
     0
 62
     7
  6
CONTINUOUS
370
    -3
390
F
  0
LAYER
  5
4A
330
2
100
AcDbSymbolTableRecord
100
AcDbLayerTableRecord
  2
_0-2_
 70
     0
 62
     7
  6
CONTINUOUS
370
    -3
390
F
  0
LAYER
  5
4B
330
2
100
AcDbSymbolTableRecord
100
AcDbLayerTableRecord
  2
_0-3_
 70
     0
 62
     7
  6
CONTINUOUS
370
    -3
390
F
  0
LAYER
  5
4C
330
2
100
AcDbSymbolTableRecord
100
AcDbLayerTableRecord
  2
_0-B_
 70
     0
 62
     7
  6
CONTINUOUS
370
    -3
390
F
  0
LAYER
  5
4D
330
2
100
AcDbSymbolTableRecord
100
AcDbLayerTableRecord
  2
_2-1_
 70
     0
 62
     7
  6
CONTINUOUS
370
    -3
390
F
  0
LAYER
  5
4E
330
2
100
AcDbSymbolTableRecord
100
AcDbLayerTableRecord
  2
_2-2_IN_LINE
 70
     0
 62
     7
  6
CONTINUOUS
370
    -3
390
F
  0
LAYER
  5
4F
330
2
100
AcDbSymbolTableRecord
100
AcDbLayerTableRecord
  2
_2-3_
 70
     0
 62
     7
  6
CONTINUOUS
370
    -3
390
F
  0
LAYER
  5
50
330
2
100
AcDbSymbolTableRecord
100
AcDbLayerTableRecord
  2
_2-4_OUT_LINE
 70
     0
 62
     7
  6
CONTINUOUS
370
    -3
390
F
  0
LAYER
  5
51
330
2
100
AcDbSymbolTableRecord
100
AcDbLayerTableRecord
  2
_2-6_鋼板__アングル
 70
     0
 62
     7
  6
CONTINUOUS
370
    -3
390
F
  0
LAYER
  5
52
330
2
100
AcDbSymbolTableRecord
100
AcDbLayerTableRecord
  2
_2-7_ビス
 70
     0
 62
     7
  6
CONTINUOUS
370
    -3
390
F
  0
LAYER
  5
53
330
2
100
AcDbSymbolTableRecord
100
AcDbLayerTableRecord
  2
_2-8_DRAIN他
 70
     0
 62
     7
  6
CONTINUOUS
370
    -3
390
F
  0
LAYER
  5
54
330
2
100
AcDbSymbolTableRecord
100
AcDbLayerTableRecord
  2
_2-9_STRAINER他
 70
     0
 62
     7
  6
CONTINUOUS
370
    -3
390
F
  0
LAYER
  5
55
330
2
100
AcDbSymbolTableRecord
100
AcDbLayerTableRecord
  2
_2-A_MOJI
 70
     0
 62
     7
  6
CONTINUOUS
370
    -3
390
F
  0
LAYER
  5
56
330
2
100
AcDbSymbolTableRecord
100
AcDbLayerTableRecord
  2
_2-B_DIM
 70
     0
 62
     7
  6
CONTINUOUS
370
    -3
390
F
  0
LAYER
  5
57
330
2
100
AcDbSymbolTableRecord
100
AcDbLayerTableRecord
  2
_2-D_ハッチ他
 70
     0
 62
     7
  6
CONTINUOUS
370
    -3
390
F
  0
LAYER
  5
58
330
2
100
AcDbSymbolTableRecord
100
AcDbLayerTableRecord
  2
_2-E_CON他
 70
     0
 62
     7
  6
CONTINUOUS
370
    -3
390
F
  0
LAYER
  5
59
330
2
100
AcDbSymbolTableRecord
100
AcDbLayerTableRecord
  2
_4-A_
 70
     0
 62
     7
  6
CONTINUOUS
370
    -3
390
F
  0
LAYER
  5
5A
330
2
100
AcDbSymbolTableRecord
100
AcDbLayerTableRecord
  2
_F-2_
 70
     0
 62
     7
  6
CONTINUOUS
370
    -3
390
F
  0
LAYER
  5
5B
330
2
100
AcDbSymbolTableRecord
100
AcDbLayerTableRecord
  2
_F-5_
 70
     0
 62
     7
  6
CONTINUOUS
370
    -3
390
F
  0
LAYER
  5
5C
330
2
100
AcDbSymbolTableRecord
100
AcDbLayerTableRecord
  2
_F-7_
 70
     0
 62
     7
  6
CONTINUOUS
370
    -3
390
F
  0
LAYER
  5
5D
330
2
100
AcDbSymbolTableRecord
100
AcDbLayerTableRecord
  2
_F-8_
 70
     0
 62
     7
  6
CONTINUOUS
370
    -3
390
F
  0
LAYER
  5
5E
330
2
100
AcDbSymbolTableRecord
100
AcDbLayerTableRecord
  2
_F-A_
 70
     0
 62
     7
  6
CONTINUOUS
370
    -3
390
F
  0
LAYER
  5
5F
330
2
100
AcDbSymbolTableRecord
100
AcDbLayerTableRecord
  2
ADD_LINE
 70
     0
 62
     7
  6
CONTINUOUS
370
    -3
390
F
  0
ENDTAB
  0
TABLE
  2
STYLE
  5
3
330
0
100
AcDbSymbolTable
 70
     2
  0
STYLE
  5
11
330
3
100
AcDbSymbolTableRecord
100
AcDbTextStyleTableRecord
  2
STANDARD
 70
     0
 40
0.0
 41
1.0
 50
0.0
 71
     0
 42
0.2
  3
txt
  4
bigfont.shx
  0
STYLE
  5
48
330
3
100
AcDbSymbolTableRecord
100
AcDbTextStyleTableRecord
  2
TATEGAKI
 70
     4
 40
0.0
 41
1.0
 50
0.0
 71
     0
 42
1.0
  3
txt
  4
bigfont.shx
  0
ENDTAB
  0
TABLE
  2
VIEW
  5
6
330
0
100
AcDbSymbolTable
 70
     0
  0
ENDTAB
  0
TABLE
  2
UCS
  5
7
330
0
100
AcDbSymbolTable
 70
     0
  0
ENDTAB
  0
TABLE
  2
APPID
  5
9
330
0
100
AcDbSymbolTable
 70
     1
  0
APPID
  5
12
330
9
100
AcDbSymbolTableRecord
100
AcDbRegAppTableRecord
  2
ACAD
 70
     0
  0
ENDTAB
  0
TABLE
  2
DIMSTYLE
  5
A
330
0
100
AcDbSymbolTable
 70
     1
100
AcDbDimStyleTable
 71
     0
  0
DIMSTYLE
105
7AA
330
A
100
AcDbSymbolTableRecord
100
AcDbDimStyleTableRecord
  2
Standard
 70
     0
340
11
  0
ENDTAB
  0
TABLE
  2
BLOCK_RECORD
  5
1
330
0
100
AcDbSymbolTable
 70
     0
  0
BLOCK_RECORD
  5
22
330
1
100
AcDbSymbolTableRecord
100
AcDbBlockTableRecord
  2
*Model_Space
340
25
  0
BLOCK_RECORD
  5
1E
330
1
100
AcDbSymbolTableRecord
100
AcDbBlockTableRecord
  2
*Paper_Space
340
21
  0
ENDTAB
  0
ENDSEC
  0
SECTION
  2
BLOCKS
  0
BLOCK
  5
23
330
22
100
AcDbEntity
  8
0
100
AcDbBlockBegin
  2
*Model_Space
 70
     0
 10
0.0
 20
0.0
 30
0.0
  3
*Model_Space
  1

  0
ENDBLK
  5
24
330
22
100
AcDbEntity
  8
0
100
AcDbBlockEnd
  0
BLOCK
  5
1F
330
1E
100
AcDbEntity
 67
     1
  8
0
100
AcDbBlockBegin
  2
*Paper_Space
 70
     0
 10
0.0
 20
0.0
 30
0.0
  3
*Paper_Space
  1

  0
ENDBLK
  5
20
330
1E
100
AcDbEntity
 67
     1
  8
0
100
AcDbBlockEnd
  0
ENDSEC
  0
SECTION
  2
ENTITIES
  0
LINE
  5
63
330
22
100
AcDbEntity
  8
_F-7_
  6
Continuous
 62
     1
100
AcDbLine
 10
661.9466208676056
 20
772.7834136847667
 30
0.0
 11
1461.946620867603
 21
772.7834136847667
 31
0.0
  0
LINE
  5
64
330
22
100
AcDbEntity
  8
ADD_LINE
  6
DOT
 62
   136
100
AcDbLine
 10
661.9466208676056
 20
792.7834136847667
 30
0.0
 11
1461.946620867603
 21
792.7834136847667
 31
0.0
  0
LINE
  5
65
330
22
100
AcDbEntity
  8
_F-5_
  6
Continuous
 62
     6
100
AcDbLine
 10
661.9466208676056
 20
812.7834136847667
 30
0.0
 11
1461.946620867603
 21
812.7834136847667
 31
0.0
  0
LINE
  5
66
330
22
100
AcDbEntity
  8
ADD_LINE
  6
DOT
 62
   136
100
AcDbLine
 10
681.9466208676057
 20
812.7834136847667
 30
0.0
 11
681.9466208676057
 21
772.7834136847667
 31
0.0
  0
LINE
  5
67
330
22
100
AcDbEntity
  8
_F-2_
  6
Continuous
 62
     7
100
AcDbLine
 10
951.9466208676057
 20
812.7834136847667
 30
0.0
 11
951.9466208676057
 21
772.7834136847667
 31
0.0
  0
LINE
  5
68
330
22
100
AcDbEntity
  8
ADD_LINE
  6
DOT
 62
   136
100
AcDbLine
 10
966.9466208676057
 20
812.7834136847667
 30
0.0
 11
966.9466208676057
 21
772.7834136847667
 31
0.0
  0
LINE
  5
69
330
22
100
AcDbEntity
  8
ADD_LINE
  6
DOT
 62
   136
100
AcDbLine
 10
816.9466208676057
 20
812.7834136847667
 30
0.0
 11
816.9466208676057
 21
772.7834136847667
 31
0.0
  0
LINE
  5
6A
330
22
100
AcDbEntity
  8
_F-7_
  6
Continuous
 62
     1
100
AcDbLine
 10
1461.946620867603
 20
1362.783413684766
 30
0.0
 11
1461.946620867603
 21
772.7834136847667
 31
0.0
  0
LINE
  5
6B
330
22
100
AcDbEntity
  8
_F-7_
  6
Continuous
 62
     1
100
AcDbLine
 10
661.9466208676056
 20
1362.783413684766
 30
0.0
 11
1461.946620867603
 21
1362.783413684766
 31
0.0
  0
LINE
  5
6C
330
22
100
AcDbEntity
  8
_F-7_
  6
Continuous
 62
     1
100
AcDbLine
 10
661.9466208676056
 20
1362.783413684766
 30
0.0
 11
661.9466208676056
 21
772.7834136847667
 31
0.0
  0
TEXT
  5
6D
330
22
100
AcDbEntity
  8
_F-A_
 62
     7
100
AcDbText
 10
816.9466208676057
 20
782.7834136847667
 30
0.0
 40
17.5
  1
下地：ＲＣ
100
AcDbText
  0
LINE
  5
6E
330
22
100
AcDbEntity
  8
_F-5_
  6
Continuous
 62
     6
100
AcDbLine
 10
801.9466208676057
 20
812.7834136847667
 30
0.0
 11
801.9466208676057
 21
772.7834136847667
 31
0.0
  0
LINE
  5
6F
330
22
100
AcDbEntity
  8
_F-5_
  6
Continuous
 62
     6
100
AcDbLine
 10
799.4466208676056
 20
812.7834136847667
 30
0.0
 11
799.4466208676056
 21
772.7834136847667
 31
0.0
  0
TEXT
  5
70
330
22
100
AcDbEntity
  8
_F-A_
 62
     7
100
AcDbText
 10
681.9466208676057
 20
782.7834136847667
 30
0.0
 40
20.0
  1
２１０仕様
100
AcDbText
  0
TEXT
  5
71
330
22
100
AcDbEntity
  8
_F-A_
 62
     7
100
AcDbText
 10
966.9466208676057
 20
782.7834136847667
 30
0.0
 40
17.5
  1
部位：ドレイン廻り
100
AcDbText
  0
LINE
  5
72
330
22
100
AcDbEntity
  8
ADD_LINE
  6
DOT
 62
   136
100
AcDbLine
 10
1346.946620867603
 20
812.7834136847667
 30
0.0
 11
1346.946620867603
 21
772.7834136847667
 31
0.0
  0
LINE
  5
73
330
22
100
AcDbEntity
  8
_F-2_
  6
Continuous
 62
     7
100
AcDbLine
 10
1331.946620867603
 20
812.7834136847667
 30
0.0
 11
1331.946620867603
 21
772.7834136847667
 31
0.0
  0
LINE
  5
74
330
22
100
AcDbEntity
  8
ADD_LINE
  6
DOT
 62
   136
100
AcDbLine
 10
1241.946620867603
 20
812.7834136847667
 30
0.0
 11
1241.946620867603
 21
772.7834136847667
 31
0.0
  0
LINE
  5
75
330
22
100
AcDbEntity
  8
_F-2_
  6
Continuous
 62
     7
100
AcDbLine
 10
1226.946620867603
 20
812.7834136847667
 30
0.0
 11
1226.946620867603
 21
772.7834136847667
 31
0.0
  0
TEXT
  5
76
330
22
100
AcDbEntity
  8
_F-A_
 62
     7
100
AcDbText
 10
1346.946620867603
 20
782.7834136847667
 30
0.0
 40
15.0
  1
図番
100
AcDbText
  0
TEXT
  5
77
330
22
100
AcDbEntity
  8
_F-A_
 62
     7
100
AcDbText
 10
1241.946620867603
 20
782.7834136847667
 30
0.0
 40
15.0
  1
Ｓ＝１：５
100
AcDbText
  0
LINE
  5
78
330
22
100
AcDbEntity
  8
ADD_LINE
  6
DOT
 62
   136
100
AcDbLine
 10
1561.946620867603
 20
32.78341368476674
 30
0.0
 11
561.9466208676035
 21
32.78341368476674
 31
0.0
  0
LINE
  5
79
330
22
100
AcDbEntity
  8
ADD_LINE
  6
DOT
 62
   136
100
AcDbLine
 10
1561.946620867603
 20
1462.783413684767
 30
0.0
 11
1561.946620867603
 21
32.78341368476674
 31
0.0
  0
LINE
  5
7A
330
22
100
AcDbEntity
  8
ADD_LINE
  6
DOT
 62
   136
100
AcDbLine
 10
561.9466208676056
 20
1462.783413684767
 30
0.0
 11
1561.946620867603
 21
1462.783413684767
 31
0.0
  0
LINE
  5
7B
330
22
100
AcDbEntity
  8
ADD_LINE
  6
DOT
 62
   136
100
AcDbLine
 10
561.9466208676056
 20
1462.783413684767
 30
0.0
 11
561.9466208676056
 21
32.78341368476674
 31
0.0
  0
TEXT
  5
7C
330
22
100
AcDbEntity
  8
_F-A_
 62
     7
100
AcDbText
 10
1393.36428959171
 20
782.7834136847667
 30
0.0
 40
15.0
  1
４－１２
100
AcDbText
  0
TEXT
  5
7D
330
22
100
AcDbEntity
  8
_2-A_MOJI
 62
     7
100
AcDbText
 10
1055.364958729864
 20
987.6430419777028
 30
0.0
 40
15.0
  1
ロンシーラントＬ
100
AcDbText
  0
LINE
  5
7E
330
22
100
AcDbEntity
  8
_2-A_MOJI
  6
Continuous
 62
     7
100
AcDbLine
 10
1045.364958729864
 20
995.1430419777027
 30
0.0
 11
946.6966453755743
 21
995.1430419777027
 31
0.0
  0
ARC
  5
7F
330
22
100
AcDbEntity
  8
_2-7_ビス
  6
Continuous
 62
     7
100
AcDbCircle
 10
794.4799030243952
 20
1047.505241873773
 30
0.0
 40
3.000000366315418
100
AcDbArc
 50
36.43096923828126
 51
74.99990844726562
  0
LINE
  5
80
330
22
100
AcDbEntity
  8
_2-7_ビス
  6
Continuous
 62
     7
100
AcDbLine
 10
921.2504231794323
 20
1043.25709248799
 30
0.0
 11
921.6077181089634
 21
1047.743562360658
 31
0.0
  0
LINE
  5
81
330
22
100
AcDbEntity
  8
_2-7_ビス
  6
Continuous
 62
     7
100
AcDbLine
 10
747.0390762696241
 20
1054.786898912281
 30
0.0
 11
750.0391397791795
 21
1054.786898912281
 31
0.0
  0
LINE
  5
82
330
22
100
AcDbEntity
  8
_2-7_ビス
  6
Continuous
 62
     7
100
AcDbLine
 10
774.0538925832622
 20
1052.978437837156
 30
0.0
 11
779.0244354615187
 21
1051.646617735807
 31
0.0
  0
LINE
  5
83
330
22
100
AcDbEntity
  8
_2-7_ビス
  6
Continuous
 62
     7
100
AcDbLine
 10
763.792548189091
 20
1058.833640235864
 30
0.0
 11
766.6904212611839
 21
1058.057240645527
 31
0.0
  0
LINE
  5
84
330
22
100
AcDbEntity
  8
_2-7_ビス
  6
Continuous
 62
     7
100
AcDbLine
 10
771.8890036489814
 20
1056.664230148896
 30
0.0
 11
769.5881085324767
 21
1057.280841055194
 31
0.0
  0
LINE
  5
85
330
22
100
AcDbEntity
  8
_2-7_ビス
  6
Continuous
 62
     7
100
AcDbLine
 10
772.609786867896
 20
1055.898978606285
 30
0.0
 11
772.9724700204965
 21
1054.126686752663
 31
0.0
  0
LINE
  5
86
330
22
100
AcDbEntity
  8
_2-7_ビス
  6
Continuous
 62
     7
100
AcDbLine
 10
781.7350832654542
 20
1053.453840138961
 30
0.0
 11
780.5349959280341
 21
1052.100219410949
 31
0.0
  0
LINE
  5
87
330
22
100
AcDbEntity
  8
_2-7_ビス
  6
Continuous
 62
     7
100
AcDbLine
 10
785.0430806265684
 20
1053.139712927556
 30
0.0
 11
782.7421235764646
 21
1053.756323833854
 31
0.0
  0
LINE
  5
88
330
22
100
AcDbEntity
  8
_2-7_ビス
  6
Continuous
 62
     7
100
AcDbLine
 10
767.8688318391428
 20
1053.60049890012
 30
0.0
 11
758.6811063743303
 21
1056.062235571834
 31
0.0
  0
LINE
  5
89
330
22
100
AcDbEntity
  8
_2-7_ビス
  6
Continuous
 62
     7
100
AcDbLine
 10
769.5494000334396
 20
1050.902671351066
 30
0.0
 11
769.3105840777631
 21
1052.069500346112
 31
0.0
  0
LINE
  5
8A
330
22
100
AcDbEntity
  8
_2-7_ビス
  6
DASHED1
 62
     7
100
AcDbLine
 10
780.3771271855536
 20
1047.143054189959
 30
0.0
 11
770.6307606626036
 21
1049.754422435559
 31
0.0
  0
LINE
  5
8B
330
22
100
AcDbEntity
  8
_2-7_ビス
  6
DASHED1
 62
     7
100
AcDbLine
 10
781.8876257184697
 20
1047.596655865104
 30
0.0
 11
782.6777126340645
 21
1048.487756479791
 31
0.0
  0
LINE
  5
8C
330
22
100
AcDbEntity
  8
_2-7_ビス
  6
Continuous
 62
     7
100
AcDbLine
 10
794.5223275393449
 20
1022.786799523953
 30
0.0
 11
789.5391502069983
 21
1022.786799523953
 31
0.0
  0
LINE
  5
8D
330
22
100
AcDbEntity
  8
_2-7_ビス
  6
Continuous
 62
     7
100
AcDbLine
 10
788.2307410058673
 20
1031.509279797107
 30
0.0
 11
789.5391502069983
 21
1022.786799523953
 31
0.0
  0
LINE
  5
8E
330
22
100
AcDbEntity
  8
_2-7_ビス
  6
DASHED1
 62
     7
100
AcDbLine
 10
792.1697798017218
 20
1045.022695512977
 30
0.0
 11
793.9410807177673
 21
1022.786799523953
 31
0.0
  0
LINE
  5
8F
330
22
100
AcDbEntity
  8
_2-7_ビス
  6
DASHED1
 62
     7
100
AcDbLine
 10
789.9557155902644
 20
1047.682371965376
 30
0.0
 11
784.691793256085
 21
1049.09272386958
 31
0.0
  0
LINE
  5
90
330
22
100
AcDbEntity
  8
_2-7_ビス
  6
Continuous
 62
     7
100
AcDbLine
 10
795.2563645483284
 20
1050.402991078664
 30
0.0
 11
787.9407678978635
 21
1052.36331333722
 31
0.0
  0
LINE
  5
91
330
22
100
AcDbEntity
  8
_2-7_ビス
  6
DASHED1
 62
     7
100
AcDbLine
 10
797.8278475565199
 20
1043.25709248799
 30
0.0
 11
797.4704906933873
 21
1047.743562360658
 31
0.0
  0
LINE
  5
92
330
22
100
AcDbEntity
  8
_2-7_ビス
  6
DASHED1
 62
     7
100
AcDbLine
 10
805.9114208279279
 20
1039.911934967796
 30
0.0
 11
800.4875859425183
 21
1040.513681810466
 31
0.0
  0
LINE
  5
93
330
22
100
AcDbEntity
  8
_2-7_ビス
  6
DASHED1
 62
     7
100
AcDbLine
 10
807.2256517873155
 20
1038.66781284187
 30
0.0
 11
807.8724862896629
 21
1034.786805827777
 31
0.0
  0
LINE
  5
94
330
22
100
AcDbEntity
  8
_2-7_ビス
  6
Continuous
 62
     7
100
AcDbLine
 10
802.039084517618
 20
1034.786805827777
 30
0.0
 11
917.0391242847328
 21
1034.786805827777
 31
0.0
  0
LINE
  5
95
330
22
100
AcDbEntity
  8
_2-7_ビス
  6
Continuous
 62
     7
100
AcDbLine
 10
810.6516326534997
 20
1048.414922567999
 30
0.0
 11
812.4100513810676
 21
1034.786805827777
 31
0.0
  0
LINE
  5
96
330
22
100
AcDbEntity
  8
_2-7_ビス
  6
Continuous
 62
     7
100
AcDbLine
 10
972.0391944663257
 20
1054.786898912281
 30
0.0
 11
969.0390690231712
 21
1054.786898912281
 31
0.0
  0
LINE
  5
97
330
22
100
AcDbEntity
  8
_2-7_ビス
  6
Continuous
 62
     7
100
AcDbLine
 10
955.2856606132595
 20
1058.833640235864
 30
0.0
 11
952.3878494747661
 21
1058.057240645527
 31
0.0
  0
LINE
  5
98
330
22
100
AcDbEntity
  8
_2-7_ビス
  6
Continuous
 62
     7
100
AcDbLine
 10
951.2094388968094
 20
1053.60049890012
 30
0.0
 11
960.3971024280205
 21
1056.062235571834
 31
0.0
  0
LINE
  5
99
330
22
100
AcDbEntity
  8
_2-7_ビス
  6
Continuous
 62
     7
100
AcDbLine
 10
949.5288087689107
 20
1050.902671351066
 30
0.0
 11
949.7676247245875
 21
1052.069500346112
 31
0.0
  0
LINE
  5
9A
330
22
100
AcDbEntity
  8
_2-7_ビス
  6
Continuous
 62
     7
100
AcDbLine
 10
938.7010816167972
 20
1047.143054189959
 30
0.0
 11
948.447510073344
 21
1049.754422435559
 31
0.0
  0
LINE
  5
9B
330
22
100
AcDbEntity
  8
_2-7_ビス
  6
Continuous
 62
     7
100
AcDbLine
 10
937.1905830838809
 20
1047.596655865104
 30
0.0
 11
936.4005581018856
 21
1048.487756479791
 31
0.0
  0
LINE
  5
9C
330
22
100
AcDbEntity
  8
_2-7_ビス
  6
PHANTOM1
 62
     7
100
AcDbLine
 10
930.8474677964833
 20
1031.509279797107
 30
0.0
 11
929.5391824625484
 21
1022.786799523953
 31
0.0
  0
LINE
  5
9D
330
22
100
AcDbEntity
  8
_2-7_ビス
  6
PHANTOM1
 62
     7
100
AcDbLine
 10
945.7288728352081
 20
1034.06688967924
 30
0.0
 11
947.8673780565406
 21
1048.48701327661
 31
0.0
  0
LINE
  5
9E
330
22
100
AcDbEntity
  8
_2-7_ビス
  6
Continuous
 62
     7
100
AcDbLine
 10
926.908490934228
 20
1045.022695512977
 30
0.0
 11
925.1371900181824
 21
1022.786799523953
 31
0.0
  0
LINE
  5
9F
330
22
100
AcDbEntity
  8
_2-7_ビス
  6
Continuous
 62
     7
100
AcDbLine
 10
929.1224932120883
 20
1047.682371965376
 30
0.0
 11
934.3864774798625
 21
1049.09272386958
 31
0.0
  0
LINE
  5
A0
330
22
100
AcDbEntity
  8
_2-7_ビス
  6
Continuous
 62
     7
100
AcDbLine
 10
917.0391242847328
 20
1034.786805827777
 30
0.0
 11
917.0391242847328
 21
1023.786903271936
 31
0.0
  0
LINE
  5
A1
330
22
100
AcDbEntity
  8
_2-7_ビス
  6
PHANTOM1
 62
     7
100
AcDbLine
 10
944.2452534840223
 20
1032.786846066205
 30
0.0
 11
932.3309013468739
 21
1032.786846066205
 31
0.0
  0
LINE
  5
A2
330
22
100
AcDbEntity
  8
_2-7_ビス
  6
Continuous
 62
     7
100
AcDbLine
 10
924.5559431966071
 20
1022.786799523953
 30
0.0
 11
925.1371900181824
 21
1022.786799523953
 31
0.0
  0
LINE
  5
A3
330
22
100
AcDbEntity
  8
_2-7_ビス
  6
PHANTOM1
 62
     7
100
AcDbLine
 10
925.1371900181824
 20
1022.786799523953
 30
0.0
 11
929.5391824625484
 21
1022.786799523953
 31
0.0
  0
LINE
  5
A4
330
22
100
AcDbEntity
  8
_2-7_ビス
  6
Continuous
 62
     7
100
AcDbLine
 10
947.1891432197722
 20
1056.664230148896
 30
0.0
 11
949.4901002698737
 21
1057.280841055194
 31
0.0
  0
LINE
  5
A5
330
22
100
AcDbEntity
  8
_2-7_ビス
  6
Continuous
 62
     7
100
AcDbLine
 10
946.4684838680538
 20
1055.898730871892
 30
0.0
 11
946.1057387818541
 21
1054.126686752663
 31
0.0
  0
LINE
  5
A6
330
22
100
AcDbEntity
  8
_2-7_ビス
  6
Continuous
 62
     7
100
AcDbLine
 10
945.0243162190886
 20
1052.978437837156
 30
0.0
 11
940.0538352744312
 21
1051.646617735807
 31
0.0
  0
LINE
  5
A7
330
22
100
AcDbEntity
  8
_2-7_ビス
  6
Continuous
 62
     7
100
AcDbLine
 10
937.3431874704932
 20
1053.453840138961
 30
0.0
 11
938.5432128743163
 21
1052.100219410949
 31
0.0
  0
LINE
  5
A8
330
22
100
AcDbEntity
  8
_2-7_ビス
  6
Continuous
 62
     7
100
AcDbLine
 10
934.0351281757845
 20
1053.139712927556
 30
0.0
 11
936.336085225886
 21
1053.756323833854
 31
0.0
  0
LINE
  5
A9
330
22
100
AcDbEntity
  8
_2-7_ビス
  6
Continuous
 62
     7
100
AcDbLine
 10
923.8218442540224
 20
1050.402991078664
 30
0.0
 11
931.1375028380862
 21
1052.36331333722
 31
0.0
  0
LINE
  5
AA
330
22
100
AcDbEntity
  8
_2-7_ビス
  6
Continuous
 62
     7
100
AcDbLine
 10
911.8526808822313
 20
1038.66781284187
 30
0.0
 11
911.2057225126877
 21
1034.786805827777
 31
0.0
  0
LINE
  5
AB
330
22
100
AcDbEntity
  8
_2-7_ビス
  6
Continuous
 62
     7
100
AcDbLine
 10
913.166787974425
 20
1039.911934967796
 30
0.0
 11
918.5906847934317
 21
1040.513681810466
 31
0.0
  0
LINE
  5
AC
330
22
100
AcDbEntity
  8
_2-7_ビス
  6
Continuous
 62
     7
100
AcDbLine
 10
925.0392110654127
 20
1022.787047258345
 30
0.0
 11
929.5391824625484
 21
1022.787047258345
 31
0.0
  0
LINE
  5
AD
330
22
100
AcDbEntity
  8
_2-7_ビス
  6
Continuous
 62
     7
100
AcDbLine
 10
794.039059670537
 20
1022.787047258345
 30
0.0
 11
789.5391502069983
 21
1022.787047258345
 31
0.0
  0
LINE
  5
AE
330
22
100
AcDbEntity
  8
_2-7_ビス
  6
DASHED1
 62
     7
100
AcDbLine
 10
786.7473074554766
 20
1032.786846066205
 30
0.0
 11
791.7592839111072
 21
1032.786846066205
 31
0.0
  0
LINE
  5
AF
330
22
100
AcDbEntity
  8
_2-7_ビス
  6
Continuous
 62
     7
100
AcDbLine
 10
773.3493359671446
 20
1034.06688967924
 30
0.0
 11
771.2108307458097
 21
1048.48701327661
 31
0.0
  0
LINE
  5
B0
330
22
100
AcDbEntity
  8
_2-7_ビス
  6
Continuous
 62
     7
100
AcDbLine
 10
765.5392614665482
 20
1015.786816491254
 30
0.0
 11
765.5392614665482
 21
1009.786937206538
 31
0.0
  0
LINE
  5
B1
330
22
100
AcDbEntity
  8
_2-7_ビス
  6
Continuous
 62
     7
100
AcDbLine
 10
781.7142116427715
 20
1039.986998489136
 30
0.0
 11
775.3642217259462
 21
1039.986998489136
 31
0.0
  0
LINE
  5
B2
330
22
100
AcDbEntity
  8
_2-7_ビス
  6
Continuous
 62
     7
100
AcDbLine
 10
781.7142116427715
 20
1039.986998489136
 30
0.0
 11
780.8991654869977
 21
1040.786932846885
 31
0.0
  0
LINE
  5
B3
330
22
100
AcDbEntity
  8
_2-7_ビス
  6
Continuous
 62
     7
100
AcDbLine
 10
776.1791440145239
 20
1040.786932846885
 30
0.0
 11
775.3642217259462
 21
1039.986998489136
 31
0.0
  0
LINE
  5
B4
330
22
100
AcDbEntity
  8
_2-7_ビス
  6
Continuous
 62
     7
100
AcDbLine
 10
780.8991654869977
 20
1040.786932846885
 30
0.0
 11
776.1791440145239
 21
1040.786932846885
 31
0.0
  0
LINE
  5
B5
330
22
100
AcDbEntity
  8
_2-7_ビス
  6
Continuous
 62
     7
100
AcDbLine
 10
773.5392863136319
 20
1015.786816491254
 30
0.0
 11
765.5392614665482
 21
1015.786816491254
 31
0.0
  0
LINE
  5
B6
330
22
100
AcDbEntity
  8
_2-7_ビス
  6
Continuous
 62
     7
100
AcDbLine
 10
781.5393111607126
 20
1017.786776252825
 30
0.0
 11
781.5393111607126
 21
1030.786886304633
 31
0.0
  0
LINE
  5
B7
330
22
100
AcDbEntity
  8
_2-7_ビス
  6
Continuous
 62
     7
100
AcDbLine
 10
773.5392863136319
 20
1009.786937206538
 30
0.0
 11
765.5392614665482
 21
1009.786937206538
 31
0.0
  0
LINE
  5
B8
330
22
100
AcDbEntity
  8
_2-7_ビス
  6
Continuous
 62
     7
100
AcDbLine
 10
775.5393080088006
 20
1017.786776252825
 30
0.0
 11
775.5393080088006
 21
1030.786886304633
 31
0.0
  0
LINE
  5
B9
330
22
100
AcDbEntity
  8
_2-7_ビス
  6
Continuous
 62
     7
100
AcDbLine
 10
776.1791440145239
 20
1030.786886304633
 30
0.0
 11
776.1791440145239
 21
1040.786932846885
 31
0.0
  0
LINE
  5
BA
330
22
100
AcDbEntity
  8
_2-7_ビス
  6
Continuous
 62
     7
100
AcDbLine
 10
780.8991654869977
 20
1030.786886304633
 30
0.0
 11
780.8991654869977
 21
1040.786932846885
 31
0.0
  0
LINE
  5
BB
330
22
100
AcDbEntity
  8
_2-7_ビス
  6
Continuous
 62
     7
100
AcDbLine
 10
781.7142116427715
 20
1030.786886304633
 30
0.0
 11
781.7142116427715
 21
1039.986998489136
 31
0.0
  0
LINE
  5
BC
330
22
100
AcDbEntity
  8
_2-7_ビス
  6
Continuous
 62
     7
100
AcDbLine
 10
775.3642217259462
 20
1030.786886304633
 30
0.0
 11
775.3642217259462
 21
1039.986998489136
 31
0.0
  0
LINE
  5
BD
330
22
100
AcDbEntity
  8
_2-7_ビス
  6
Continuous
 62
     7
100
AcDbLine
 10
781.7142116427715
 20
1030.786886304633
 30
0.0
 11
775.3642217259462
 21
1030.786886304633
 31
0.0
  0
LINE
  5
BE
330
22
100
AcDbEntity
  8
_2-7_ビス
  6
Continuous
 62
     7
100
AcDbLine
 10
774.8330791855246
 20
1032.786846066205
 30
0.0
 11
775.3642217259462
 21
1032.786846066205
 31
0.0
  0
LINE
  5
BF
330
22
100
AcDbEntity
  8
_2-7_ビス
  6
Continuous
 62
     7
100
AcDbLine
 10
781.7142116427715
 20
1032.786846066205
 30
0.0
 11
786.7473074554766
 21
1032.786846066205
 31
0.0
  0
LINE
  5
C0
330
22
100
AcDbEntity
  8
_2-7_ビス
  6
Continuous
 62
     7
100
AcDbLine
 10
809.6598899413098
 20
1049.286947634361
 30
0.0
 11
808.5390776099226
 21
1049.286947634361
 31
0.0
  0
LINE
  5
C1
330
22
100
AcDbEntity
  8
_2-7_ビス
  6
Continuous
 62
     7
100
AcDbLine
 10
800.5391146964406
 20
1049.286947634361
 30
0.0
 11
796.8936411572998
 21
1049.286947634361
 31
0.0
  0
LINE
  5
C2
330
22
100
AcDbEntity
  8
_2-7_ビス
  6
Continuous
 62
     7
100
AcDbLine
 10
917.0391242847328
 20
1023.786903271936
 30
0.0
 11
915.1766571117482
 21
1023.786903271936
 31
0.0
  0
LINE
  5
C3
330
22
100
AcDbEntity
  8
_2-7_ビス
  6
Continuous
 62
     7
100
AcDbLine
 10
915.8329055210643
 20
1002.786954173841
 30
0.0
 11
920.1921018488942
 21
1002.786954173841
 31
0.0
  0
LINE
  5
C4
330
22
100
AcDbEntity
  8
_2-7_ビス
  6
Continuous
 62
     7
100
AcDbLine
 10
803.9016136241993
 20
1023.786903271936
 30
0.0
 11
802.039084517618
 21
1023.786903271936
 31
0.0
  0
LINE
  5
C5
330
22
100
AcDbEntity
  8
_2-7_ビス
  6
Continuous
 62
     7
100
AcDbLine
 10
802.039084517618
 20
1034.786805827777
 30
0.0
 11
802.039084517618
 21
1023.786903271936
 31
0.0
  0
LINE
  5
C6
330
22
100
AcDbEntity
  8
_2-7_ビス
  6
Continuous
 62
     7
100
AcDbLine
 10
799.0776056399057
 20
1002.786954173841
 30
0.0
 11
803.2453652148856
 21
1002.786954173841
 31
0.0
  0
LINE
  5
C7
330
22
100
AcDbEntity
  8
_2-7_ビス
  6
Continuous
 62
     7
100
AcDbLine
 10
796.8923405517322
 20
1004.628116188952
 30
0.0
 11
795.5192726738062
 21
1021.866218516395
 31
0.0
  0
LINE
  5
C8
330
22
100
AcDbEntity
  8
_2-7_ビス
  6
Continuous
 62
     7
100
AcDbLine
 10
922.1858682506184
 20
1004.628116188952
 30
0.0
 11
923.5589980621456
 21
1021.866218516395
 31
0.0
  0
LINE
  5
C9
330
22
100
AcDbEntity
  8
_2-7_ビス
  6
Continuous
 62
     7
100
AcDbLine
 10
969.8980880338572
 20
1062.749082330703
 30
0.0
 11
958.1834098181515
 21
1059.610287560589
 31
0.0
  0
LINE
  5
CA
330
22
100
AcDbEntity
  8
_2-7_ビス
  6
Continuous
 62
     7
100
AcDbLine
 10
971.1490847892141
 20
1061.907280860391
 30
0.0
 11
972.0391944663257
 21
1054.786898912281
 31
0.0
  0
LINE
  5
CB
330
22
100
AcDbEntity
  8
_2-7_ビス
  6
Continuous
 62
     7
100
AcDbLine
 10
747.9291240131364
 20
1061.907280860391
 30
0.0
 11
747.0390762696241
 21
1054.786898912281
 31
0.0
  0
LINE
  5
CC
330
22
100
AcDbEntity
  8
_2-7_ビス
  6
Continuous
 62
     7
100
AcDbLine
 10
749.1801827020948
 20
1062.749082330703
 30
0.0
 11
760.894798984199
 21
1059.610287560589
 31
0.0
  0
ARC
  5
CD
330
22
100
AcDbEntity
  8
_2-7_ビス
  6
Continuous
 62
     7
100
AcDbCircle
 10
755.8340188529805
 20
1045.437155153892
 30
0.0
 40
11.00000126251383
100
AcDbArc
 50
74.99996948242188
 51
121.7902069091796
  0
ARC
  5
CE
330
22
100
AcDbEntity
  8
_2-7_ビス
  6
Continuous
 62
     7
100
AcDbCircle
 10
779.4125733230876
 20
1053.09561620545
 30
0.0
 40
1.500000183157709
100
AcDbArc
 50
254.9999084472656
 51
318.4355773925781
  0
ARC
  5
CF
330
22
100
AcDbEntity
  8
_2-7_ビス
  6
Continuous
 62
     7
100
AcDbCircle
 10
774.442154312027
 20
1054.4274363068
 30
0.0
 40
1.500000183157709
100
AcDbArc
 50
191.5648956298828
 51
254.9999084472656
  0
ARC
  5
D0
330
22
100
AcDbEntity
  8
_2-7_ビス
  6
Continuous
 62
     7
100
AcDbCircle
 10
768.3010044892185
 20
1058.272769568181
 30
0.0
 40
1.625007950200997
100
AcDbArc
 50
187.6205902099609
 51
322.37890625
  0
ARC
  5
D1
330
22
100
AcDbEntity
  8
_2-7_ビス
  6
Continuous
 62
     7
100
AcDbCircle
 10
771.6302450746038
 20
1055.698313747263
 30
0.0
 40
1.000000142265815
100
AcDbArc
 50
11.56640625
 51
75.00077819824219
  0
ARC
  5
D2
330
22
100
AcDbEntity
  8
_2-7_ビス
  6
Continuous
 62
     7
100
AcDbCircle
 10
782.4833650020868
 20
1052.790407432223
 30
0.0
 40
1.000000142265815
100
AcDbArc
 50
75.00022888183593
 51
138.4349822998047
  0
ARC
  5
D3
330
22
100
AcDbEntity
  8
_2-7_ビス
  6
Continuous
 62
     7
100
AcDbCircle
 10
762.5053822122335
 20
1059.825568748849
 30
0.0
 40
1.625007950200997
100
AcDbArc
 50
187.6192932128906
 51
322.3796997070313
  0
ARC
  5
D4
330
22
100
AcDbEntity
  8
_2-7_ビス
  6
Continuous
 62
     7
100
AcDbCircle
 10
786.6536638546007
 20
1053.355241850206
 30
0.0
 40
1.625007950200997
100
AcDbArc
 50
187.6205902099609
 51
322.3807373046876
  0
ARC
  5
D5
330
22
100
AcDbEntity
  8
_2-7_ビス
  6
Continuous
 62
     7
100
AcDbCircle
 10
767.3511908231867
 20
1051.668666096858
 30
0.0
 40
2.000000284531631
100
AcDbArc
 50
11.56620788574219
 51
75.00050354003906
  0
ARC
  5
D6
330
22
100
AcDbEntity
  8
_2-7_ビス
  6
DASHED1
 62
     7
100
AcDbCircle
 10
784.1740903065319
 20
1047.160891066316
 30
0.0
 40
2.000000284531631
100
AcDbArc
 50
74.999755859375
 51
138.435073852539
  0
ARC
  5
D7
330
22
100
AcDbEntity
  8
_2-7_ビス
  6
DASHED1
 62
     7
100
AcDbCircle
 10
780.7652650471221
 20
1048.592052659603
 30
0.0
 40
1.500000183157709
100
AcDbArc
 50
255.0012817382813
 51
318.436508178711
  0
ARC
  5
D8
330
22
100
AcDbEntity
  8
_2-7_ビス
  6
Continuous
 62
     7
100
AcDbCircle
 10
794.5223275393449
 20
1021.786943510362
 30
0.0
 40
1.000000142265815
100
AcDbArc
 50
4.554550170898438
 51
90.00000000000003
  0
ARC
  5
D9
330
22
100
AcDbEntity
  8
_2-7_ビス
  6
Continuous
 62
     7
100
AcDbCircle
 10
786.7473074554766
 20
1031.286814311426
 30
0.0
 40
1.500000183157709
100
AcDbArc
 50
8.53070068359375
 51
90.0
  0
ARC
  5
DA
330
22
100
AcDbEntity
  8
_2-7_ビス
  6
DASHED1
 62
     7
100
AcDbCircle
 10
791.7592839111072
 20
1031.286814311426
 30
0.0
 40
1.500000183157709
100
AcDbArc
 50
4.555007934570312
 51
90.0
  0
ARC
  5
DB
330
22
100
AcDbEntity
  8
_2-7_ビス
  6
Continuous
 62
     7
100
AcDbCircle
 10
769.2325477437012
 20
1048.193695754289
 30
0.0
 40
2.000000284531631
100
AcDbArc
 50
8.43475341796875
 51
59.30958557128906
  0
ARC
  5
DC
330
22
100
AcDbEntity
  8
_2-7_ビス
  6
DASHED1
 62
     7
100
AcDbCircle
 10
789.1792540663312
 20
1044.78437502609
 30
0.0
 40
3.000000366315418
100
AcDbArc
 50
4.554595947265625
 51
74.99990844726565
  0
ARC
  5
DD
330
22
100
AcDbEntity
  8
_2-7_ビス
  6
DASHED1
 62
     7
100
AcDbCircle
 10
800.8183732919102
 20
1043.495412974875
 30
0.0
 40
3.000000366315418
100
AcDbArc
 50
184.5545959472656
 51
263.6697540283203
  0
ARC
  5
DE
330
22
100
AcDbEntity
  8
_2-7_ビス
  6
DASHED1
 62
     7
100
AcDbCircle
 10
805.7460581200315
 20
1038.421069385592
 30
0.0
 40
1.500000183157709
100
AcDbArc
 50
9.462326049804687
 51
83.67115783691406
  0
ARC
  5
DF
330
22
100
AcDbEntity
  8
_2-7_ビス
  6
Continuous
 62
     7
100
AcDbCircle
 10
809.6598899413098
 20
1048.286843886378
 30
0.0
 40
1.000000142265815
100
AcDbArc
 50
7.352645874023436
 51
90.0
  0
ARC
  5
E0
330
22
100
AcDbEntity
  8
_2-7_ビス
  6
Continuous
 62
     7
100
AcDbCircle
 10
963.2441899493697
 20
1045.437155153892
 30
0.0
 40
11.00000126251383
100
AcDbArc
 50
58.20979309082032
 51
105.0000305175781
  0
ARC
  5
E1
330
22
100
AcDbEntity
  8
_2-7_ビス
  6
Continuous
 62
     7
100
AcDbCircle
 10
939.6656354792652
 20
1053.09561620545
 30
0.0
 40
1.500000183157709
100
AcDbArc
 50
221.5644226074219
 51
285.0000915527344
  0
ARC
  5
E2
330
22
100
AcDbEntity
  8
_2-7_ビス
  6
Continuous
 62
     7
100
AcDbCircle
 10
944.636054490326
 20
1054.4274363068
 30
0.0
 40
1.500000183157709
100
AcDbArc
 50
285.0000915527344
 51
348.4351043701172
  0
ARC
  5
E3
330
22
100
AcDbEntity
  8
_2-7_ビス
  6
Continuous
 62
     7
100
AcDbCircle
 10
950.7772662467337
 20
1058.272769568181
 30
0.0
 40
1.625007950200997
100
AcDbArc
 50
217.62109375
 51
352.379409790039
  0
ARC
  5
E4
330
22
100
AcDbEntity
  8
_2-7_ビス
  6
Continuous
 62
     7
100
AcDbCircle
 10
947.4479637277468
 20
1055.698313747263
 30
0.0
 40
1.000000142265815
100
AcDbArc
 50
104.9992218017578
 51
168.4335784912109
  0
ARC
  5
E5
330
22
100
AcDbEntity
  8
_2-7_ビス
  6
Continuous
 62
     7
100
AcDbCircle
 10
936.594905733863
 20
1052.790407432223
 30
0.0
 40
1.000000142265815
100
AcDbArc
 50
41.56501770019532
 51
104.999771118164
  0
ARC
  5
E6
330
22
100
AcDbEntity
  8
_2-7_ビス
  6
Continuous
 62
     7
100
AcDbCircle
 10
956.5728265901194
 20
1059.825568748849
 30
0.0
 40
1.625007950200997
100
AcDbArc
 50
217.6203002929689
 51
352.3807067871094
  0
ARC
  5
E7
330
22
100
AcDbEntity
  8
_2-7_ビス
  6
Continuous
 62
     7
100
AcDbCircle
 10
932.4245449477498
 20
1053.355241850206
 30
0.0
 40
1.625007950200997
100
AcDbArc
 50
217.6192626953125
 51
352.379409790039
  0
ARC
  5
E8
330
22
100
AcDbEntity
  8
_2-7_ビス
  6
Continuous
 62
     7
100
AcDbCircle
 10
951.7270799127631
 20
1051.668666096858
 30
0.0
 40
2.000000284531631
100
AcDbArc
 50
104.9994964599609
 51
168.4337921142578
  0
ARC
  5
E9
330
22
100
AcDbEntity
  8
_2-7_ビス
  6
Continuous
 62
     7
100
AcDbCircle
 10
934.9041184958188
 20
1047.160891066316
 30
0.0
 40
2.000000284531631
100
AcDbArc
 50
41.56492614746094
 51
105.000244140625
  0
ARC
  5
EA
330
22
100
AcDbEntity
  8
_2-7_ビス
  6
Continuous
 62
     7
100
AcDbCircle
 10
948.059310278178
 20
1051.203420905203
 30
0.0
 40
1.500000183157709
100
AcDbArc
 50
284.9987182617187
 51
348.4337158203125
  0
ARC
  5
EB
330
22
100
AcDbEntity
  8
_2-7_ビス
  6
Continuous
 62
     7
100
AcDbCircle
 10
938.3130056888298
 20
1048.592052659603
 30
0.0
 40
1.500000183157709
100
AcDbArc
 50
221.563491821289
 51
284.9987182617187
  0
ARC
  5
EC
330
22
100
AcDbEntity
  8
_2-7_ビス
  6
Continuous
 62
     7
100
AcDbCircle
 10
924.5559431966071
 20
1021.786943510362
 30
0.0
 40
1.000000142265815
100
AcDbArc
 50
90.0
 51
175.4454498291015
  0
ARC
  5
ED
330
22
100
AcDbEntity
  8
_2-7_ビス
  6
PHANTOM1
 62
     7
100
AcDbCircle
 10
932.3309013468739
 20
1031.286814311426
 30
0.0
 40
1.500000183157709
100
AcDbArc
 50
90.0
 51
171.4692993164062
  0
ARC
  5
EE
330
22
100
AcDbEntity
  8
_2-7_ビス
  6
PHANTOM1
 62
     7
100
AcDbCircle
 10
944.2452534840223
 20
1034.286877820981
 30
0.0
 40
1.500000183157709
100
AcDbArc
 50
270.0
 51
351.5646362304687
  0
ARC
  5
EF
330
22
100
AcDbEntity
  8
_2-7_ビス
  6
PHANTOM1
 62
     7
100
AcDbCircle
 10
949.8456610586496
 20
1048.193695754289
 30
0.0
 40
2.000000284531631
100
AcDbArc
 50
120.6904144287109
 51
171.5652465820312
  0
ARC
  5
F0
330
22
100
AcDbEntity
  8
_2-7_ビス
  6
Continuous
 62
     7
100
AcDbCircle
 10
929.8989547360193
 20
1044.78437502609
 30
0.0
 40
3.000000366315418
100
AcDbArc
 50
105.0000915527344
 51
175.4454040527344
  0
ARC
  5
F1
330
22
100
AcDbEntity
  8
_2-7_ビス
  6
Continuous
 62
     7
100
AcDbCircle
 10
918.2598355104403
 20
1043.495412974875
 30
0.0
 40
3.000000366315418
100
AcDbArc
 50
276.3302459716797
 51
355.4454040527344
  0
ARC
  5
F2
330
22
100
AcDbEntity
  8
_2-7_ビス
  6
Continuous
 62
     7
100
AcDbCircle
 10
913.3322126159182
 20
1038.421069385592
 30
0.0
 40
1.500000183157709
100
AcDbArc
 50
96.32884216308596
 51
170.5376739501953
  0
ARC
  5
F3
330
22
100
AcDbEntity
  8
_2-7_ビス
  6
Continuous
 62
     7
100
AcDbCircle
 10
924.5983057779554
 20
1047.505241873773
 30
0.0
 40
3.000000366315418
100
AcDbArc
 50
105.0000915527344
 51
175.4457550048828
  0
ARC
  5
F4
330
22
100
AcDbEntity
  8
_2-7_ビス
  6
DASHED1
 62
     7
100
AcDbCircle
 10
794.4799030243952
 20
1047.505241873773
 30
0.0
 40
3.000000366315418
100
AcDbArc
 50
4.554244995117188
 51
36.43096923828126
  0
ARC
  5
F5
330
22
100
AcDbEntity
  8
_2-7_ビス
  6
DASHED1
 62
     7
100
AcDbCircle
 10
771.0188985241725
 20
1051.203420905203
 30
0.0
 40
1.500000183157709
100
AcDbArc
 50
239.3083190917969
 51
255.0012817382813
  0
ARC
  5
F6
330
22
100
AcDbEntity
  8
_2-7_ビス
  6
Continuous
 62
     7
100
AcDbCircle
 10
771.0188985241725
 20
1051.203420905203
 30
0.0
 40
1.500000183157709
100
AcDbArc
 50
191.5662841796875
 51
239.3083190917969
  0
ARC
  5
F7
330
22
100
AcDbEntity
  8
_2-7_ビス
  6
Continuous
 62
     7
100
AcDbCircle
 10
774.8330791855246
 20
1034.286877820981
 30
0.0
 40
1.500000183157709
100
AcDbArc
 50
188.4351501464843
 51
270.0
  0
ARC
  5
F8
330
22
100
AcDbEntity
  8
_2-7_ビス
  6
Continuous
 62
     7
100
AcDbCircle
 10
773.5392863136319
 20
1017.786776252825
 30
0.0
 40
2.000000284531631
100
AcDbArc
 50
270.0
 51
0.0
  0
ARC
  5
F9
330
22
100
AcDbEntity
  8
_2-7_ビス
  6
Continuous
 62
     7
100
AcDbCircle
 10
773.5392863136319
 20
1017.786776252825
 30
0.0
 40
8.000001138126528
100
AcDbArc
 50
270.0
 51
0.0
  0
ARC
  5
FA
330
22
100
AcDbEntity
  8
_2-7_ビス
  6
Continuous
 62
     7
100
AcDbCircle
 10
798.8861069534586
 20
1004.786913935412
 30
0.0
 40
2.000000284531631
100
AcDbArc
 50
184.5538787841796
 51
270.0
  0
ARC
  5
FB
330
22
100
AcDbEntity
  8
_2-7_ビス
  6
Continuous
 62
     7
100
AcDbCircle
 10
920.1921018488942
 20
1004.786913935412
 30
0.0
 40
2.000000284531631
100
AcDbArc
 50
270.0
 51
355.4461669921875
  0
ARC
  5
FC
330
22
100
AcDbEntity
  8
_2-7_ビス
  6
Continuous
 62
     7
100
AcDbCircle
 10
970.1568466082347
 20
1061.783413663465
 30
0.0
 40
1.000000021301756
100
AcDbArc
 50
7.115768432617187
 51
105.0004730224609
  0
ARC
  5
FD
330
22
100
AcDbEntity
  8
_2-7_ビス
  6
Continuous
 62
     7
100
AcDbCircle
 10
748.9214241277149
 20
1061.783413663465
 30
0.0
 40
1.000000021301756
100
AcDbArc
 50
74.99781799316406
 51
172.8844451904297
  0
LINE
  5
FE
330
22
100
AcDbEntity
  8
_2-1_
  6
Continuous
 62
     4
100
AcDbLine
 10
914.8641401739055
 20
985.7869245988915
 30
0.0
 11
916.6891994534161
 21
983.9621130537732
 31
0.0
  0
LINE
  5
FF
330
22
100
AcDbEntity
  8
_2-1_
  6
Continuous
 62
     4
100
AcDbLine
 10
804.2140686284474
 20
985.7869245988915
 30
0.0
 11
802.389195149732
 21
983.9621130537732
 31
0.0
  0
LINE
  5
100
330
22
100
AcDbEntity
  8
_2-1_
  6
Continuous
 62
     4
100
AcDbLine
 10
916.3641719286818
 20
985.7869245988915
 30
0.0
 11
916.6891994534161
 21
983.9621130537732
 31
0.0
  0
LINE
  5
101
330
22
100
AcDbEntity
  8
_2-1_
  6
Continuous
 62
     4
100
AcDbLine
 10
916.3641719286818
 20
985.7869245988915
 30
0.0
 11
914.8641401739055
 21
985.7869245988915
 31
0.0
  0
LINE
  5
102
330
22
100
AcDbEntity
  8
_2-1_
  6
Continuous
 62
     4
100
AcDbLine
 10
802.7140988072678
 20
985.7869245988915
 30
0.0
 11
802.389195149732
 21
983.9621130537732
 31
0.0
  0
LINE
  5
103
330
22
100
AcDbEntity
  8
_2-1_
  6
Continuous
 62
     4
100
AcDbLine
 10
802.7140988072678
 20
985.7869245988915
 30
0.0
 11
804.2140686284474
 21
985.7869245988915
 31
0.0
  0
LINE
  5
104
330
22
100
AcDbEntity
  8
_2-1_
  6
Continuous
 62
     4
100
AcDbLine
 10
804.0391062127868
 20
1028.18691384115
 30
0.0
 11
802.7140988072678
 21
985.7869245988915
 31
0.0
  0
LINE
  5
105
330
22
100
AcDbEntity
  8
_2-1_
  6
Continuous
 62
     4
100
AcDbLine
 10
805.5390760339664
 20
1028.18691384115
 30
0.0
 11
804.2140686284474
 21
985.7869245988915
 31
0.0
  0
LINE
  5
106
330
22
100
AcDbEntity
  8
_2-1_
  6
Continuous
 62
     4
100
AcDbLine
 10
913.5391327683841
 20
1028.18691384115
 30
0.0
 11
914.8641401739055
 21
985.7869245988915
 31
0.0
  0
LINE
  5
107
330
22
100
AcDbEntity
  8
_2-1_
  6
Continuous
 62
     4
100
AcDbLine
 10
915.0391645231607
 20
1028.18691384115
 30
0.0
 11
916.3641719286818
 21
985.7869245988915
 31
0.0
  0
LINE
  5
108
330
22
100
AcDbEntity
  8
_2-1_
  6
Continuous
 62
     4
100
AcDbLine
 10
804.0391062127868
 20
1028.18691384115
 30
0.0
 11
915.0391645231607
 21
1028.18691384115
 31
0.0
  0
LINE
  5
109
330
22
100
AcDbEntity
  8
_2-8_DRAIN他
  6
Continuous
 62
     4
100
AcDbLine
 10
778.5391237839611
 20
1067.319491474197
 30
0.0
 11
778.5391237839611
 21
1071.819586738528
 31
0.0
  0
LINE
  5
10A
330
22
100
AcDbEntity
  8
_2-8_DRAIN他
  6
Continuous
 62
     4
100
AcDbLine
 10
789.5390263398045
 20
1071.819586738528
 30
0.0
 11
791.039120028178
 21
1065.819707453813
 31
0.0
  0
LINE
  5
10B
330
22
100
AcDbEntity
  8
_2-8_DRAIN他
  6
Continuous
 62
     4
100
AcDbLine
 10
791.039120028178
 20
1065.819707453813
 30
0.0
 11
794.0391216041339
 21
1067.849147608253
 31
0.0
  0
LINE
  5
10C
330
22
100
AcDbEntity
  8
_2-8_DRAIN他
  6
Continuous
 62
     4
100
AcDbLine
 10
778.5391237839611
 20
1071.819586738528
 30
0.0
 11
789.5390263398045
 21
1071.819586738528
 31
0.0
  0
LINE
  5
10D
330
22
100
AcDbEntity
  8
_2-8_DRAIN他
  6
Continuous
 62
     4
100
AcDbLine
 10
819.7569244987576
 20
1079.916537667206
 30
0.0
 11
818.2568927439788
 21
1074.338054586434
 31
0.0
  0
LINE
  5
10E
330
22
100
AcDbEntity
  8
_2-8_DRAIN他
  6
Continuous
 62
     4
100
AcDbLine
 10
819.7569244987576
 20
1079.916537667206
 30
0.0
 11
827.6504854900819
 21
1192.799934773245
 31
0.0
  0
LINE
  5
10F
330
22
100
AcDbEntity
  8
_2-8_DRAIN他
  6
Continuous
 62
     4
100
AcDbLine
 10
840.5391150646542
 20
1212.960064276178
 30
0.0
 11
837.5391134886982
 21
1200.929338907514
 31
0.0
  0
LINE
  5
110
330
22
100
AcDbEntity
  8
_2-8_DRAIN他
  6
Continuous
 62
     4
100
AcDbLine
 10
832.8676479574177
 20
1167.059588048782
 30
0.0
 11
886.210622778532
 21
1167.059588048782
 31
0.0
  0
LINE
  5
111
330
22
100
AcDbEntity
  8
_2-8_DRAIN他
  6
Continuous
 62
     4
100
AcDbLine
 10
832.0984326645058
 20
1156.059685492939
 30
0.0
 11
886.9799000050411
 21
1156.059685492939
 31
0.0
  0
LINE
  5
112
330
22
100
AcDbEntity
  8
_2-8_DRAIN他
  6
Continuous
 62
     4
100
AcDbLine
 10
837.1577883229603
 20
1165.970795387799
 30
0.0
 11
832.8676479574177
 21
1167.059588048782
 31
0.0
  0
LINE
  5
113
330
22
100
AcDbEntity
  8
_2-8_DRAIN他
  6
Continuous
 62
     4
100
AcDbLine
 10
838.319786497324
 20
1159.015404545995
 30
0.0
 11
838.6608548240623
 21
1163.892799292163
 31
0.0
  0
LINE
  5
114
330
22
100
AcDbEntity
  8
_2-8_DRAIN他
  6
Continuous
 62
     4
100
AcDbLine
 10
836.8008030614182
 20
1157.212145893143
 30
0.0
 11
832.0984326645058
 21
1156.059685492939
 31
0.0
  0
LINE
  5
115
330
22
100
AcDbEntity
  8
_2-8_DRAIN他
  6
Continuous
 62
     4
100
AcDbLine
 10
837.9568556103315
 20
1165.559556294003
 30
0.0
 11
881.1213531920193
 21
1165.559556294003
 31
0.0
  0
LINE
  5
116
330
22
100
AcDbEntity
  8
_2-8_DRAIN他
  6
Continuous
 62
     4
100
AcDbLine
 10
837.5311859880925
 20
1157.559717247718
 30
0.0
 11
881.547084747855
 21
1157.559717247718
 31
0.0
  0
LINE
  5
117
330
22
100
AcDbEntity
  8
_2-8_DRAIN他
  6
Continuous
 62
     4
100
AcDbLine
 10
826.5390870656586
 20
1076.557507020958
 30
0.0
 11
826.7490419644504
 21
1079.559800140057
 31
0.0
  0
LINE
  5
118
330
22
100
AcDbEntity
  8
_2-8_DRAIN他
  6
Continuous
 62
     4
100
AcDbLine
 10
826.9588110624445
 20
1082.559615915217
 30
0.0
 11
834.6334367832005
 21
1192.31165028296
 31
0.0
  0
LINE
  5
119
330
22
100
AcDbEntity
  8
_2-8_DRAIN他
  6
Continuous
 62
     4
100
AcDbLine
 10
940.5390850183893
 20
1067.319491474197
 30
0.0
 11
940.5390850183893
 21
1071.819586738528
 31
0.0
  0
LINE
  5
11A
330
22
100
AcDbEntity
  8
_2-8_DRAIN他
  6
Continuous
 62
     4
100
AcDbLine
 10
929.5391824625484
 20
1071.819586738528
 30
0.0
 11
928.0391507077696
 21
1065.819707453813
 31
0.0
  0
LINE
  5
11B
330
22
100
AcDbEntity
  8
_2-8_DRAIN他
  6
Continuous
 62
     4
100
AcDbLine
 10
928.0391507077696
 20
1065.819707453813
 30
0.0
 11
925.0392110654127
 21
1067.849147608253
 31
0.0
  0
LINE
  5
11C
330
22
100
AcDbEntity
  8
_2-8_DRAIN他
  6
Continuous
 62
     4
100
AcDbLine
 10
899.321284303593
 20
1079.916537667206
 30
0.0
 11
900.8213160583718
 21
1074.338054586434
 31
0.0
  0
LINE
  5
11D
330
22
100
AcDbEntity
  8
_2-8_DRAIN他
  6
Continuous
 62
     4
100
AcDbLine
 10
929.5391824625484
 20
1071.819586738528
 30
0.0
 11
899.321284303593
 21
1079.916537667206
 31
0.0
  0
LINE
  5
11E
330
22
100
AcDbEntity
  8
_2-8_DRAIN他
  6
Continuous
 62
     4
100
AcDbLine
 10
925.0392110654127
 20
1067.849147608253
 30
0.0
 11
892.5391217366918
 21
1076.557507020958
 31
0.0
  0
LINE
  5
11F
330
22
100
AcDbEntity
  8
_2-8_DRAIN他
  6
Continuous
 62
     4
100
AcDbLine
 10
899.321284303593
 20
1079.916537667206
 30
0.0
 11
891.4278471794673
 21
1192.799934773245
 31
0.0
  0
LINE
  5
120
330
22
100
AcDbEntity
  8
_2-8_DRAIN他
  6
Continuous
 62
     4
100
AcDbLine
 10
878.5391556712959
 20
1212.960064276178
 30
0.0
 11
881.5390953136525
 21
1200.929338907514
 31
0.0
  0
LINE
  5
121
330
22
100
AcDbEntity
  8
_2-8_DRAIN他
  6
Continuous
 62
     4
100
AcDbLine
 10
881.9204824129897
 20
1165.970795387799
 30
0.0
 11
886.210622778532
 21
1167.059588048782
 31
0.0
  0
LINE
  5
122
330
22
100
AcDbEntity
  8
_2-8_DRAIN他
  6
Continuous
 62
     4
100
AcDbLine
 10
880.7584223050266
 20
1159.015404545995
 30
0.0
 11
880.4174159118874
 21
1163.892799292163
 31
0.0
  0
LINE
  5
123
330
22
100
AcDbEntity
  8
_2-8_DRAIN他
  6
Continuous
 62
     4
100
AcDbLine
 10
882.2774676745314
 20
1157.212145893143
 30
0.0
 11
886.9799000050411
 21
1156.059685492939
 31
0.0
  0
LINE
  5
124
330
22
100
AcDbEntity
  8
_2-8_DRAIN他
  6
Continuous
 62
     4
100
AcDbLine
 10
892.5391217366918
 20
1076.557507020958
 30
0.0
 11
892.3291668379
 21
1079.559800140057
 31
0.0
  0
LINE
  5
125
330
22
100
AcDbEntity
  8
_2-8_DRAIN他
  6
Continuous
 62
     4
100
AcDbLine
 10
940.5390850183893
 20
1071.819586738528
 30
0.0
 11
939.5391670712015
 21
1072.819690486512
 31
0.0
  0
LINE
  5
126
330
22
100
AcDbEntity
  8
_2-8_DRAIN他
  6
Continuous
 62
     4
100
AcDbLine
 10
929.5391824625484
 20
1071.819586738528
 30
0.0
 11
928.5391406481645
 21
1072.819690486512
 31
0.0
  0
LINE
  5
127
330
22
100
AcDbEntity
  8
_2-8_DRAIN他
  6
Continuous
 62
     4
100
AcDbLine
 10
941.5391268327736
 20
1072.819690486512
 30
0.0
 11
925.8071257527593
 21
1072.819690486512
 31
0.0
  0
LINE
  5
128
330
22
100
AcDbEntity
  8
_2-8_DRAIN他
  6
Continuous
 62
     4
100
AcDbLine
 10
929.5391824625484
 20
1075.419662949993
 30
0.0
 11
929.5391824625484
 21
1072.819690486512
 31
0.0
  0
LINE
  5
129
330
22
100
AcDbEntity
  8
_2-8_DRAIN他
  6
Continuous
 62
     4
100
AcDbLine
 10
941.5391268327736
 20
1075.419662949993
 30
0.0
 11
941.5391268327736
 21
1072.819690486512
 31
0.0
  0
LINE
  5
12A
330
22
100
AcDbEntity
  8
_2-8_DRAIN他
  6
Continuous
 62
     4
100
AcDbLine
 10
936.0182419985735
 20
1076.787156804059
 30
0.0
 11
935.0601911639445
 21
1076.787156804059
 31
0.0
  0
LINE
  5
12B
330
22
100
AcDbEntity
  8
_2-8_DRAIN他
  6
Continuous
 62
     4
100
AcDbLine
 10
935.0601911639445
 20
1077.408226929449
 30
0.0
 11
935.0601911639445
 21
1076.787156804059
 31
0.0
  0
LINE
  5
12C
330
22
100
AcDbEntity
  8
_2-8_DRAIN他
  6
Continuous
 62
     4
100
AcDbLine
 10
936.0182419985735
 20
1077.408226929449
 30
0.0
 11
936.0182419985735
 21
1076.787156804059
 31
0.0
  0
LINE
  5
12D
330
22
100
AcDbEntity
  8
_2-8_DRAIN他
  6
Continuous
 62
     4
100
AcDbLine
 10
932.5391221049052
 20
1070.81973072494
 30
0.0
 11
938.5391871904165
 21
1070.81973072494
 31
0.0
  0
LINE
  5
12E
330
22
100
AcDbEntity
  8
_2-8_DRAIN他
  6
Continuous
 62
     4
100
AcDbLine
 10
937.6691439992066
 20
1070.81973072494
 30
0.0
 11
938.721148102701
 21
1072.692107273678
 31
0.0
  0
LINE
  5
12F
330
22
100
AcDbEntity
  8
_2-8_DRAIN他
  6
Continuous
 62
     4
100
AcDbLine
 10
938.5391871904165
 20
1070.81973072494
 30
0.0
 11
938.0982199693576
 21
1071.583248126794
 31
0.0
  0
LINE
  5
130
330
22
100
AcDbEntity
  8
_2-8_DRAIN他
  6
Continuous
 62
     4
100
AcDbLine
 10
933.409103362516
 20
1070.81973072494
 30
0.0
 11
932.3570992590216
 21
1072.692107273678
 31
0.0
  0
LINE
  5
131
330
22
100
AcDbEntity
  8
_2-8_DRAIN他
  6
Continuous
 62
     4
100
AcDbLine
 10
932.5391221049052
 20
1070.81973072494
 30
0.0
 11
932.9801512595613
 21
1071.583248126794
 31
0.0
  0
LINE
  5
132
330
22
100
AcDbEntity
  8
_2-8_DRAIN他
  6
Continuous
 62
     4
100
AcDbLine
 10
937.6691439992066
 20
1060.819684182688
 30
0.0
 11
938.5391871904165
 21
1061.689479639503
 31
0.0
  0
LINE
  5
133
330
22
100
AcDbEntity
  8
_2-8_DRAIN他
  6
Continuous
 62
     4
100
AcDbLine
 10
933.409103362516
 20
1060.819684182688
 30
0.0
 11
932.5391221049052
 21
1061.689479639503
 31
0.0
  0
LINE
  5
134
330
22
100
AcDbEntity
  8
_2-8_DRAIN他
  6
Continuous
 62
     4
100
AcDbLine
 10
933.409103362516
 20
1070.81973072494
 30
0.0
 11
933.409103362516
 21
1060.819684182688
 31
0.0
  0
LINE
  5
135
330
22
100
AcDbEntity
  8
_2-8_DRAIN他
  6
Continuous
 62
     4
100
AcDbLine
 10
937.6691439992066
 20
1070.81973072494
 30
0.0
 11
937.6691439992066
 21
1060.819684182688
 31
0.0
  0
LINE
  5
136
330
22
100
AcDbEntity
  8
_2-8_DRAIN他
  6
Continuous
 62
     4
100
AcDbLine
 10
933.409103362516
 20
1060.819684182688
 30
0.0
 11
937.6691439992066
 21
1060.819684182688
 31
0.0
  0
LINE
  5
137
330
22
100
AcDbEntity
  8
_2-8_DRAIN他
  6
Continuous
 62
     4
100
AcDbLine
 10
932.5391221049052
 20
1061.689479639503
 30
0.0
 11
938.5391871904165
 21
1061.689479639503
 31
0.0
  0
LINE
  5
138
330
22
100
AcDbEntity
  8
_2-8_DRAIN他
  6
Continuous
 62
     4
100
AcDbLine
 10
932.5391221049052
 20
1070.81973072494
 30
0.0
 11
932.5391221049052
 21
1061.689479639503
 31
0.0
  0
LINE
  5
139
330
22
100
AcDbEntity
  8
_2-8_DRAIN他
  6
Continuous
 62
     4
100
AcDbLine
 10
938.5391871904165
 20
1070.81973072494
 30
0.0
 11
938.5391871904165
 21
1061.689479639503
 31
0.0
  0
LINE
  5
13A
330
22
100
AcDbEntity
  8
_2-8_DRAIN他
  6
CENTER1
 62
     4
100
AcDbLine
 10
935.5390617472645
 20
1078.864409696513
 30
0.0
 11
935.5390617472645
 21
1059.137815382823
 31
0.0
  0
LINE
  5
13B
330
22
100
AcDbEntity
  8
_2-8_DRAIN他
  6
Continuous
 62
     4
100
AcDbLine
 10
940.5390850183893
 20
1071.819586738528
 30
0.0
 11
938.2309436708659
 21
1071.819586738528
 31
0.0
  0
LINE
  5
13C
330
22
100
AcDbEntity
  8
_2-8_DRAIN他
  6
Continuous
 62
     4
100
AcDbLine
 10
932.8473036908567
 20
1071.819586738528
 30
0.0
 11
929.5391824625484
 21
1071.819586738528
 31
0.0
  0
LINE
  5
13D
330
22
100
AcDbEntity
  8
_2-8_DRAIN他
  6
Continuous
 62
     4
100
AcDbLine
 10
939.0391151972121
 20
1065.819707453813
 30
0.0
 11
938.5391871904165
 21
1065.819707453813
 31
0.0
  0
LINE
  5
13E
330
22
100
AcDbEntity
  8
_2-8_DRAIN他
  6
Continuous
 62
     4
100
AcDbLine
 10
892.1193977399084
 20
1082.559615915217
 30
0.0
 11
884.4448339527495
 21
1192.31165028296
 31
0.0
  0
LINE
  5
13F
330
22
100
AcDbEntity
  8
_2-8_DRAIN他
  6
Continuous
 62
     4
100
AcDbLine
 10
780.0390936051407
 20
1065.819707453813
 30
0.0
 11
797.039061246493
 21
1065.819707453813
 31
0.0
  0
LINE
  5
140
330
22
100
AcDbEntity
  8
_2-8_DRAIN他
  6
Continuous
 62
     4
100
AcDbLine
 10
812.0391310598703
 20
1065.819707453813
 30
0.0
 11
932.5391221049052
 21
1065.819707453813
 31
0.0
  0
LINE
  5
141
330
22
100
AcDbEntity
  8
_2-8_DRAIN他
  6
Continuous
 62
     4
100
AcDbLine
 10
826.5390870656586
 20
1076.559488896109
 30
0.0
 11
892.5391217366918
 21
1076.559488896109
 31
0.0
  0
LINE
  5
142
330
22
100
AcDbEntity
  8
_2-8_DRAIN他
  6
Continuous
 62
     4
100
AcDbLine
 10
826.7490419644504
 20
1079.559800140057
 30
0.0
 11
892.3291668379
 21
1079.559800140057
 31
0.0
  0
LINE
  5
143
330
22
100
AcDbEntity
  8
_2-8_DRAIN他
  6
Continuous
 62
     4
100
AcDbLine
 10
826.7490419644504
 20
1082.559615915217
 30
0.0
 11
892.3291668379
 21
1082.559615915217
 31
0.0
  0
LINE
  5
144
330
22
100
AcDbEntity
  8
_2-8_DRAIN他
  6
Continuous
 62
     4
100
AcDbLine
 10
789.5390263398045
 20
1071.819586738528
 30
0.0
 11
800.5391146964406
 21
1074.767130556586
 31
0.0
  0
LINE
  5
145
330
22
100
AcDbEntity
  8
_2-8_DRAIN他
  6
Continuous
 62
     4
100
AcDbLine
 10
808.5390776099226
 20
1076.667005623041
 30
0.0
 11
819.7569244987576
 21
1079.916537667206
 31
0.0
  0
LINE
  5
146
330
22
100
AcDbEntity
  8
_2-8_DRAIN他
  6
Continuous
 62
     4
100
AcDbLine
 10
794.0391216041339
 20
1067.849147608253
 30
0.0
 11
800.5391146964406
 21
1069.590720397038
 31
0.0
  0
LINE
  5
147
330
22
100
AcDbEntity
  8
_2-8_DRAIN他
  6
Continuous
 62
     4
100
AcDbLine
 10
808.5390776099226
 20
1071.734366107043
 30
0.0
 11
826.5390870656586
 21
1076.557507020958
 31
0.0
  0
LINE
  5
148
330
22
100
AcDbEntity
  8
_2-8_DRAIN他
  6
Continuous
 62
     4
100
AcDbLine
 10
878.5945243083224
 20
1198.766865383577
 30
0.0
 11
880.2496997272479
 21
1167.319709162327
 31
0.0
  0
LINE
  5
149
330
22
100
AcDbEntity
  8
_2-8_DRAIN他
  6
Continuous
 62
     4
100
AcDbLine
 10
881.6696513392129
 20
1197.959498994011
 30
0.0
 11
883.8198620106563
 21
1167.319709162327
 31
0.0
  0
LINE
  5
14A
330
22
100
AcDbEntity
  8
_2-8_DRAIN他
  6
Continuous
 62
     4
100
AcDbLine
 10
879.6745843319207
 20
1199.819488823056
 30
0.0
 11
879.5931416499401
 21
1199.819488823056
 31
0.0
  0
LINE
  5
14B
330
22
100
AcDbEntity
  8
_2-8_DRAIN他
  6
Continuous
 62
     4
100
AcDbLine
 10
864.0613099601582
 20
1197.797728434824
 30
0.0
 11
864.3955036574665
 21
1167.319709162327
 31
0.0
  0
LINE
  5
14C
330
22
100
AcDbEntity
  8
_2-8_DRAIN他
  6
Continuous
 62
     4
100
AcDbLine
 10
871.7084371631987
 20
1194.994861502777
 30
0.0
 11
872.6794940535015
 21
1167.319709162327
 31
0.0
  0
LINE
  5
14D
330
22
100
AcDbEntity
  8
_2-8_DRAIN他
  6
Continuous
 62
     4
100
AcDbLine
 10
866.7115105719963
 20
1199.819488823056
 30
0.0
 11
866.0612077881308
 21
1199.819488823056
 31
0.0
  0
LINE
  5
14E
330
22
100
AcDbEntity
  8
_2-8_DRAIN他
  6
Continuous
 62
     4
100
AcDbLine
 10
840.4837464276274
 20
1198.766865383577
 30
0.0
 11
838.8286329422991
 21
1167.319709162327
 31
0.0
  0
LINE
  5
14F
330
22
100
AcDbEntity
  8
_2-8_DRAIN他
  6
Continuous
 62
     4
100
AcDbLine
 10
837.4086193967348
 20
1197.959498994011
 30
0.0
 11
835.2584087252912
 21
1167.319709162327
 31
0.0
  0
LINE
  5
150
330
22
100
AcDbEntity
  8
_2-8_DRAIN他
  6
Continuous
 62
     4
100
AcDbLine
 10
839.4037483376282
 20
1199.819488823056
 30
0.0
 11
839.4851290860074
 21
1199.819488823056
 31
0.0
  0
LINE
  5
151
330
22
100
AcDbEntity
  8
_2-8_DRAIN他
  6
Continuous
 62
     4
100
AcDbLine
 10
855.0169607757892
 20
1197.797728434824
 30
0.0
 11
854.6828290120824
 21
1167.319709162327
 31
0.0
  0
LINE
  5
152
330
22
100
AcDbEntity
  8
_2-8_DRAIN他
  6
Continuous
 62
     4
100
AcDbLine
 10
847.3698335727513
 20
1194.994861502777
 30
0.0
 11
846.3987766824484
 21
1167.319709162327
 31
0.0
  0
LINE
  5
153
330
22
100
AcDbEntity
  8
_2-8_DRAIN他
  6
Continuous
 62
     4
100
AcDbLine
 10
852.3667601639559
 20
1199.819488823056
 30
0.0
 11
853.0170629478165
 21
1199.819488823056
 31
0.0
  0
LINE
  5
154
330
22
100
AcDbEntity
  8
_2-8_DRAIN他
  6
Continuous
 62
     4
100
AcDbLine
 10
873.4676610275426
 20
1085.819552803925
 30
0.0
 11
867.2673026846032
 21
1085.819552803925
 31
0.0
  0
LINE
  5
155
330
22
100
AcDbEntity
  8
_2-8_DRAIN他
  6
Continuous
 62
     4
100
AcDbLine
 10
885.487857684467
 20
1085.819552803925
 30
0.0
 11
888.4664921689516
 21
1085.819552803925
 31
0.0
  0
LINE
  5
156
330
22
100
AcDbEntity
  8
_2-8_DRAIN他
  6
Continuous
 62
     4
100
AcDbLine
 10
845.6104858412086
 20
1085.819552803925
 30
0.0
 11
851.810844184148
 21
1085.819552803925
 31
0.0
  0
LINE
  5
157
330
22
100
AcDbEntity
  8
_2-8_DRAIN他
  6
Continuous
 62
     4
100
AcDbLine
 10
833.5902891842868
 20
1085.819552803925
 30
0.0
 11
830.6117166333994
 21
1085.819552803925
 31
0.0
  0
LINE
  5
158
330
22
100
AcDbEntity
  8
_2-8_DRAIN他
  6
Continuous
 62
     4
100
AcDbLine
 10
820.1515034545639
 20
1085.559679424773
 30
0.0
 11
827.1685801604386
 21
1085.559679424773
 31
0.0
  0
LINE
  5
159
330
22
100
AcDbEntity
  8
_2-8_DRAIN他
  6
Continuous
 62
     4
100
AcDbLine
 10
843.6117028180085
 20
1087.889621398955
 30
0.0
 11
846.0036403242535
 21
1156.059685492939
 31
0.0
  0
LINE
  5
15A
330
22
100
AcDbEntity
  8
_2-8_DRAIN他
  6
Continuous
 62
     4
100
AcDbLine
 10
853.8108039457224
 20
1087.797711938837
 30
0.0
 11
854.5592714831482
 21
1156.059685492939
 31
0.0
  0
LINE
  5
15B
330
22
100
AcDbEntity
  8
_2-8_DRAIN他
  6
Continuous
 62
     4
100
AcDbLine
 10
865.2673429230313
 20
1087.797711938837
 30
0.0
 11
864.5188753856032
 21
1156.059685492939
 31
0.0
  0
LINE
  5
15C
330
22
100
AcDbEntity
  8
_2-8_DRAIN他
  6
Continuous
 62
     4
100
AcDbLine
 10
875.4664440507454
 20
1087.889621398955
 30
0.0
 11
873.0745065445004
 21
1156.059685492939
 31
0.0
  0
LINE
  5
15D
330
22
100
AcDbEntity
  8
_2-8_DRAIN他
  6
Continuous
 62
     4
100
AcDbLine
 10
884.4891784092478
 20
1086.766889126017
 30
0.0
 11
880.8422184637462
 21
1156.059685492939
 31
0.0
  0
LINE
  5
15E
330
22
100
AcDbEntity
  8
_2-8_DRAIN他
  6
Continuous
 62
     4
100
AcDbLine
 10
889.4640566393983
 20
1086.889517650972
 30
0.0
 11
884.609948926251
 21
1156.059685492939
 31
0.0
  0
LINE
  5
15F
330
22
100
AcDbEntity
  8
_2-8_DRAIN他
  6
Continuous
 62
     4
100
AcDbLine
 10
834.5889065259065
 20
1086.766889126017
 30
0.0
 11
838.2359284050076
 21
1156.059685492939
 31
0.0
  0
LINE
  5
160
330
22
100
AcDbEntity
  8
_2-8_DRAIN他
  6
Continuous
 62
     4
100
AcDbLine
 10
829.6141521629524
 20
1086.889517650972
 30
0.0
 11
834.4681979425027
 21
1156.059685492939
 31
0.0
  0
ARC
  5
161
330
22
100
AcDbEntity
  8
_2-8_DRAIN他
  6
Continuous
 62
     4
100
AcDbCircle
 10
780.0390936051407
 20
1067.319491474197
 30
0.0
 40
1.500000183157709
100
AcDbArc
 50
180.0
 51
270.0
  0
ARC
  5
162
330
22
100
AcDbEntity
  8
_2-8_DRAIN他
  6
Continuous
 62
     4
100
AcDbCircle
 10
852.5895972512254
 20
1191.055884640522
 30
0.0
 40
18.00000558488617
100
AcDbArc
 50
102.5430908203125
 51
175.9999847412109
  0
ARC
  5
163
330
22
100
AcDbEntity
  8
_2-8_DRAIN他
  6
Continuous
 62
     4
100
AcDbCircle
 10
859.5391044011753
 20
1159.81955038844
 30
0.0
 40
50.00000820196732
100
AcDbArc
 50
77.45692443847656
 51
102.5430755615234
  0
ARC
  5
164
330
22
100
AcDbEntity
  8
_2-8_DRAIN他
  6
Continuous
 62
     4
100
AcDbCircle
 10
859.5391044011753
 20
1159.81955038844
 30
0.0
 40
57.00001058891473
100
AcDbArc
 50
77.45692443847656
 51
102.5430755615234
  0
ARC
  5
165
330
22
100
AcDbEntity
  8
_2-8_DRAIN他
  6
Continuous
 62
     4
100
AcDbCircle
 10
852.5895972512254
 20
1191.055884640522
 30
0.0
 40
25.00000410098366
100
AcDbArc
 50
102.5430908203125
 51
175.9999847412109
  0
ARC
  5
166
330
22
100
AcDbEntity
  8
_2-8_DRAIN他
  6
Continuous
 62
     4
100
AcDbCircle
 10
836.6657258831686
 20
1164.032273755903
 30
0.0
 40
2.000000284531631
100
AcDbArc
 50
356.0001831054687
 51
75.75796508789062
  0
ARC
  5
167
330
22
100
AcDbEntity
  8
_2-8_DRAIN他
  6
Continuous
 62
     4
100
AcDbCircle
 10
836.3246575564348
 20
1159.154879009733
 30
0.0
 40
2.000000284531631
100
AcDbArc
 50
283.7721710205078
 51
355.9997863769531
  0
ARC
  5
168
330
22
100
AcDbEntity
  8
_2-8_DRAIN他
  6
Continuous
 62
     4
100
AcDbCircle
 10
826.7490419644504
 20
1081.05958416044
 30
0.0
 40
1.500000183157709
100
AcDbArc
 50
90.0
 51
270.0
  0
ARC
  5
169
330
22
100
AcDbEntity
  8
_2-8_DRAIN他
  6
Continuous
 62
     4
100
AcDbCircle
 10
939.0391151972121
 20
1067.319491474197
 30
0.0
 40
1.500000183157709
100
AcDbArc
 50
270.0
 51
0.0
  0
ARC
  5
16A
330
22
100
AcDbEntity
  8
_2-8_DRAIN他
  6
Continuous
 62
     4
100
AcDbCircle
 10
866.4886734847245
 20
1191.055884640522
 30
0.0
 40
18.00000558488617
100
AcDbArc
 50
4.000015258789063
 51
77.4569091796875
  0
ARC
  5
16B
330
22
100
AcDbEntity
  8
_2-8_DRAIN他
  6
Continuous
 62
     4
100
AcDbCircle
 10
866.4886734847245
 20
1191.055884640522
 30
0.0
 40
25.00000410098366
100
AcDbArc
 50
4.000015258789063
 51
77.4569091796875
  0
ARC
  5
16C
330
22
100
AcDbEntity
  8
_2-8_DRAIN他
  6
Continuous
 62
     4
100
AcDbCircle
 10
882.4124209855826
 20
1164.032273755903
 30
0.0
 40
2.000000284531631
100
AcDbArc
 50
104.2420349121093
 51
183.9998168945312
  0
ARC
  5
16D
330
22
100
AcDbEntity
  8
_2-8_DRAIN他
  6
Continuous
 62
     4
100
AcDbCircle
 10
882.7535512459158
 20
1159.154879009733
 30
0.0
 40
2.000000284531631
100
AcDbArc
 50
184.0002136230468
 51
256.2278289794921
  0
ARC
  5
16E
330
22
100
AcDbEntity
  8
_2-8_DRAIN他
  6
Continuous
 62
     4
100
AcDbCircle
 10
892.3291668379
 20
1081.05958416044
 30
0.0
 40
1.500000183157709
100
AcDbArc
 50
270.0
 51
90.0
  0
ARC
  5
16F
330
22
100
AcDbEntity
  8
_2-8_DRAIN他
  6
Continuous
 62
     4
100
AcDbCircle
 10
935.5390617472645
 20
1067.419576169313
 30
0.0
 40
10.00000299519093
100
AcDbArc
 50
92.74569702148435
 51
126.869873046875
  0
ARC
  5
170
330
22
100
AcDbEntity
  8
_2-8_DRAIN他
  6
Continuous
 62
     4
100
AcDbCircle
 10
935.5390617472645
 20
1067.419576169313
 30
0.0
 40
10.00000299519093
100
AcDbArc
 50
53.13012695312499
 51
87.25408935546875
  0
ARC
  5
171
330
22
100
AcDbEntity
  8
_2-8_DRAIN他
  6
Continuous
 62
     4
100
AcDbCircle
 10
938.9391543692921
 20
1072.569726483113
 30
0.0
 40
0.250000035566454
100
AcDbArc
 50
90.0
 51
150.6708221435547
  0
ARC
  5
172
330
22
100
AcDbEntity
  8
_2-8_DRAIN他
  6
Continuous
 62
     4
100
AcDbCircle
 10
932.139154926032
 20
1072.569726483113
 30
0.0
 40
0.250000035566454
100
AcDbArc
 50
29.32917785644531
 51
90.0
  0
ARC
  5
173
330
22
100
AcDbEntity
  8
_2-8_DRAIN他
  6
Continuous
 62
     4
100
AcDbCircle
 10
879.5931416499401
 20
1198.819632809467
 30
0.0
 40
1.000000142265815
100
AcDbArc
 50
90.0
 51
183.0127868652344
  0
ARC
  5
174
330
22
100
AcDbEntity
  8
_2-8_DRAIN他
  6
Continuous
 62
     4
100
AcDbCircle
 10
879.6745843319207
 20
1197.819529061484
 30
0.0
 40
2.000000284531631
100
AcDbArc
 50
4.014175415039063
 51
90.0
  0
ARC
  5
175
330
22
100
AcDbEntity
  8
_2-8_DRAIN他
  6
Continuous
 62
     4
100
AcDbCircle
 10
866.0612077881308
 20
1197.819529061484
 30
0.0
 40
2.000000284531631
100
AcDbArc
 50
90.0
 51
180.6282043457031
  0
ARC
  5
176
330
22
100
AcDbEntity
  8
_2-8_DRAIN他
  6
Continuous
 62
     4
100
AcDbCircle
 10
866.7115105719963
 20
1194.819465551929
 30
0.0
 40
5.00000052988299
100
AcDbArc
 50
2.009552001953125
 51
90.0
  0
ARC
  5
177
330
22
100
AcDbEntity
  8
_2-8_DRAIN他
  6
Continuous
 62
     4
100
AcDbCircle
 10
839.4851290860074
 20
1198.819632809467
 30
0.0
 40
1.000000142265815
100
AcDbArc
 50
356.9871978759766
 51
90.00000000000005
  0
ARC
  5
178
330
22
100
AcDbEntity
  8
_2-8_DRAIN他
  6
Continuous
 62
     4
100
AcDbCircle
 10
839.4037483376282
 20
1197.819529061484
 30
0.0
 40
2.000000284531631
100
AcDbArc
 50
90.0
 51
175.9858093261718
  0
ARC
  5
179
330
22
100
AcDbEntity
  8
_2-8_DRAIN他
  6
Continuous
 62
     4
100
AcDbCircle
 10
853.0170629478165
 20
1197.819529061484
 30
0.0
 40
2.000000284531631
100
AcDbArc
 50
359.3717803955078
 51
90.00000000000005
  0
ARC
  5
17A
330
22
100
AcDbEntity
  8
_2-8_DRAIN他
  6
Continuous
 62
     4
100
AcDbCircle
 10
852.3667601639559
 20
1194.819465551929
 30
0.0
 40
5.00000052988299
100
AcDbArc
 50
90.0
 51
177.9904327392578
  0
ARC
  5
17B
330
22
100
AcDbEntity
  8
_2-8_DRAIN他
  6
Continuous
 62
     4
100
AcDbCircle
 10
867.2673026846032
 20
1087.819512565495
 30
0.0
 40
2.000000284531631
100
AcDbArc
 50
180.6282043457031
 51
270.0
  0
ARC
  5
17C
330
22
100
AcDbEntity
  8
_2-8_DRAIN他
  6
Continuous
 62
     4
100
AcDbCircle
 10
873.4676610275426
 20
1087.819512565495
 30
0.0
 40
2.000000284531631
100
AcDbArc
 50
270.0
 51
2.00955200195314
  0
ARC
  5
17D
330
22
100
AcDbEntity
  8
_2-8_DRAIN他
  6
Continuous
 62
     4
100
AcDbCircle
 10
888.4664921689516
 20
1086.819656551908
 30
0.0
 40
1.000000142265815
100
AcDbArc
 50
270.0
 51
4.014175415039052
  0
ARC
  5
17E
330
22
100
AcDbEntity
  8
_2-8_DRAIN他
  6
Continuous
 62
     4
100
AcDbCircle
 10
885.487857684467
 20
1086.819656551908
 30
0.0
 40
1.000000142265815
100
AcDbArc
 50
183.0127716064453
 51
270.0
  0
ARC
  5
17F
330
22
100
AcDbEntity
  8
_2-8_DRAIN他
  6
Continuous
 62
     4
100
AcDbCircle
 10
851.810844184148
 20
1087.819512565495
 30
0.0
 40
2.000000284531631
100
AcDbArc
 50
270.0
 51
359.3717803955078
  0
ARC
  5
180
330
22
100
AcDbEntity
  8
_2-8_DRAIN他
  6
Continuous
 62
     4
100
AcDbCircle
 10
845.6104858412086
 20
1087.819512565495
 30
0.0
 40
2.000000284531631
100
AcDbArc
 50
177.9904327392578
 51
270.0
  0
ARC
  5
181
330
22
100
AcDbEntity
  8
_2-8_DRAIN他
  6
Continuous
 62
     4
100
AcDbCircle
 10
830.6117166333994
 20
1086.819656551908
 30
0.0
 40
1.000000142265815
100
AcDbArc
 50
175.9858093261718
 51
270.0
  0
ARC
  5
182
330
22
100
AcDbEntity
  8
_2-8_DRAIN他
  6
Continuous
 62
     4
100
AcDbCircle
 10
833.5902891842868
 20
1086.819656551908
 30
0.0
 40
1.000000142265815
100
AcDbArc
 50
270.0
 51
356.9871978759766
  0
LINE
  5
183
330
22
100
AcDbEntity
  8
_2-9_STRAINER他
  6
Continuous
 62
     4
100
AcDbLine
 10
763.0980867495249
 20
1067.819667215385
 30
0.0
 11
757.5390508186696
 21
1067.819667215385
 31
0.0
  0
LINE
  5
184
330
22
100
AcDbEntity
  8
_2-9_STRAINER他
  6
Continuous
 62
     4
100
AcDbLine
 10
776.5391020887924
 20
1071.819586738528
 30
0.0
 11
773.5391005128361
 21
1071.819586738528
 31
0.0
  0
LINE
  5
185
330
22
100
AcDbEntity
  8
_2-9_STRAINER他
  6
Continuous
 62
     4
100
AcDbLine
 10
773.0461090690701
 20
1068.600278290414
 30
0.0
 11
773.5391005128361
 21
1071.819586738528
 31
0.0
  0
LINE
  5
186
330
22
100
AcDbEntity
  8
_2-9_STRAINER他
  6
Continuous
 62
     4
100
AcDbLine
 10
776.5391020887924
 20
1071.819586738528
 30
0.0
 11
777.8071925173245
 21
1065.053712708022
 31
0.0
  0
LINE
  5
187
330
22
100
AcDbEntity
  8
_2-9_STRAINER他
  6
Continuous
 62
     4
100
AcDbLine
 10
955.9801839864224
 20
1067.819667215385
 30
0.0
 11
961.5390341164824
 21
1067.819667215385
 31
0.0
  0
LINE
  5
188
330
22
100
AcDbEntity
  8
_2-9_STRAINER他
  6
Continuous
 62
     4
100
AcDbLine
 10
798.5390930012695
 20
1060.3195084415
 30
0.0
 11
799.5390728820543
 21
1055.319732904767
 31
0.0
  0
LINE
  5
189
330
22
100
AcDbEntity
  8
_2-9_STRAINER他
  6
Continuous
 62
     4
100
AcDbLine
 10
810.5391612386904
 20
1060.3195084415
 30
0.0
 11
809.5391194243088
 21
1055.319732904767
 31
0.0
  0
LINE
  5
18A
330
22
100
AcDbEntity
  8
_2-9_STRAINER他
  6
Continuous
 62
     4
100
AcDbLine
 10
791.08866690695
 20
1060.3195084415
 30
0.0
 11
779.2553239165877
 21
1063.490260948417
 31
0.0
  0
LINE
  5
18B
330
22
100
AcDbEntity
  8
_2-9_STRAINER他
  6
Continuous
 62
     4
100
AcDbLine
 10
769.3041429835251
 20
1066.156626229453
 30
0.0
 11
763.0980867495249
 21
1067.819667215385
 31
0.0
  0
LINE
  5
18C
330
22
100
AcDbEntity
  8
_2-9_STRAINER他
  6
DASHED1
 62
     4
100
AcDbLine
 10
779.2553239165877
 20
1063.490260948417
 30
0.0
 11
769.3041429835251
 21
1066.156626229453
 31
0.0
  0
LINE
  5
18D
330
22
100
AcDbEntity
  8
_2-9_STRAINER他
  6
Continuous
 62
     4
100
AcDbLine
 10
949.7740658188256
 20
1066.156626229453
 30
0.0
 11
955.9801839864224
 21
1067.819667215385
 31
0.0
  0
LINE
  5
18E
330
22
100
AcDbEntity
  8
_2-9_STRAINER他
  6
Continuous
 62
     4
100
AcDbLine
 10
942.5391686471575
 20
1071.819586738528
 30
0.0
 11
945.5391082895145
 21
1071.819586738528
 31
0.0
  0
LINE
  5
18F
330
22
100
AcDbEntity
  8
_2-9_STRAINER他
  6
Continuous
 62
     4
100
AcDbLine
 10
808.5390776099226
 20
1038.895933529918
 30
0.0
 11
800.5391146964406
 21
1038.895933529918
 31
0.0
  0
LINE
  5
190
330
22
100
AcDbEntity
  8
_2-9_STRAINER他
  6
Continuous
 62
     4
100
AcDbLine
 10
800.5391146964406
 20
1038.895933529918
 30
0.0
 11
801.2156153924538
 21
1038.219370900305
 31
0.0
  0
LINE
  5
191
330
22
100
AcDbEntity
  8
_2-9_STRAINER他
  6
Continuous
 62
     4
100
AcDbLine
 10
801.2156153924538
 20
1038.219370900305
 30
0.0
 11
807.8625769139094
 21
1038.219370900305
 31
0.0
  0
LINE
  5
192
330
22
100
AcDbEntity
  8
_2-9_STRAINER他
  6
Continuous
 62
     4
100
AcDbLine
 10
807.8625769139094
 20
1038.219370900305
 30
0.0
 11
808.5390776099226
 21
1038.895933529918
 31
0.0
  0
LINE
  5
193
330
22
100
AcDbEntity
  8
_2-9_STRAINER他
  6
Continuous
 62
     4
100
AcDbLine
 10
797.039061246493
 20
1066.097913178109
 30
0.0
 11
797.039061246493
 21
1060.3195084415
 31
0.0
  0
LINE
  5
194
330
22
100
AcDbEntity
  8
_2-9_STRAINER他
  6
Continuous
 62
     4
100
AcDbLine
 10
812.0391310598703
 20
1066.097913178109
 30
0.0
 11
812.0391310598703
 21
1060.3195084415
 31
0.0
  0
LINE
  5
195
330
22
100
AcDbEntity
  8
_2-9_STRAINER他
  6
Continuous
 62
     4
100
AcDbLine
 10
800.7918657117683
 20
1066.097913178109
 30
0.0
 11
800.7918657117683
 21
1060.3195084415
 31
0.0
  0
LINE
  5
196
330
22
100
AcDbEntity
  8
_2-9_STRAINER他
  6
Continuous
 62
     4
100
AcDbLine
 10
808.2863265945949
 20
1066.097913178109
 30
0.0
 11
808.2863265945949
 21
1060.3195084415
 31
0.0
  0
LINE
  5
197
330
22
100
AcDbEntity
  8
_2-9_STRAINER他
  6
Continuous
 62
     4
100
AcDbLine
 10
798.9155254127276
 20
1066.819563467402
 30
0.0
 11
810.1626668936356
 21
1066.819563467402
 31
0.0
  0
LINE
  5
198
330
22
100
AcDbEntity
  8
_2-9_STRAINER他
  6
Continuous
 62
     4
100
AcDbLine
 10
801.2156153924538
 20
1060.3195084415
 30
0.0
 11
801.2156153924538
 21
1038.219370900305
 31
0.0
  0
LINE
  5
199
330
22
100
AcDbEntity
  8
_2-9_STRAINER他
  6
Continuous
 62
     4
100
AcDbLine
 10
800.5391146964406
 20
1060.3195084415
 30
0.0
 11
800.5391146964406
 21
1038.895933529918
 31
0.0
  0
LINE
  5
19A
330
22
100
AcDbEntity
  8
_2-9_STRAINER他
  6
Continuous
 62
     4
100
AcDbLine
 10
807.8625769139094
 20
1060.3195084415
 30
0.0
 11
807.8625769139094
 21
1038.219370900305
 31
0.0
  0
LINE
  5
19B
330
22
100
AcDbEntity
  8
_2-9_STRAINER他
  6
Continuous
 62
     4
100
AcDbLine
 10
808.5390776099226
 20
1060.3195084415
 30
0.0
 11
808.5390776099226
 21
1038.895933529918
 31
0.0
  0
LINE
  5
19C
330
22
100
AcDbEntity
  8
_2-9_STRAINER他
  6
Continuous
 62
     4
100
AcDbLine
 10
808.5390776099226
 20
1077.542746705309
 30
0.0
 11
800.5391146964406
 21
1077.542746705309
 31
0.0
  0
LINE
  5
19D
330
22
100
AcDbEntity
  8
_2-9_STRAINER他
  6
Continuous
 62
     4
100
AcDbLine
 10
800.5391146964406
 20
1077.542746705309
 30
0.0
 11
801.2156153924538
 21
1078.219309334922
 31
0.0
  0
LINE
  5
19E
330
22
100
AcDbEntity
  8
_2-9_STRAINER他
  6
Continuous
 62
     4
100
AcDbLine
 10
801.2156153924538
 20
1078.219309334922
 30
0.0
 11
807.8625769139094
 21
1078.219309334922
 31
0.0
  0
LINE
  5
19F
330
22
100
AcDbEntity
  8
_2-9_STRAINER他
  6
Continuous
 62
     4
100
AcDbLine
 10
807.8625769139094
 20
1078.219309334922
 30
0.0
 11
808.5390776099226
 21
1077.542746705309
 31
0.0
  0
LINE
  5
1A0
330
22
100
AcDbEntity
  8
_2-9_STRAINER他
  6
Continuous
 62
     4
100
AcDbLine
 10
801.2156153924538
 20
1066.819563467402
 30
0.0
 11
801.2156153924538
 21
1078.219309334922
 31
0.0
  0
LINE
  5
1A1
330
22
100
AcDbEntity
  8
_2-9_STRAINER他
  6
Continuous
 62
     4
100
AcDbLine
 10
800.5391146964406
 20
1066.819563467402
 30
0.0
 11
800.5391146964406
 21
1077.542746705309
 31
0.0
  0
LINE
  5
1A2
330
22
100
AcDbEntity
  8
_2-9_STRAINER他
  6
Continuous
 62
     4
100
AcDbLine
 10
807.8625769139094
 20
1066.819563467402
 30
0.0
 11
807.8625769139094
 21
1078.219309334922
 31
0.0
  0
LINE
  5
1A3
330
22
100
AcDbEntity
  8
_2-9_STRAINER他
  6
Continuous
 62
     4
100
AcDbLine
 10
808.5390776099226
 20
1066.819563467402
 30
0.0
 11
808.5390776099226
 21
1077.542746705309
 31
0.0
  0
LINE
  5
1A4
330
22
100
AcDbEntity
  8
_2-9_STRAINER他
  6
Continuous
 62
     4
100
AcDbLine
 10
946.0320997332804
 20
1068.600278290414
 30
0.0
 11
945.5391082895145
 21
1071.819586738528
 31
0.0
  0
LINE
  5
1A5
330
22
100
AcDbEntity
  8
_2-9_STRAINER他
  6
Continuous
 62
     4
100
AcDbLine
 10
941.6439184813739
 20
1067.043267625051
 30
0.0
 11
942.5391686471575
 21
1071.819586738528
 31
0.0
  0
LINE
  5
1A6
330
22
100
AcDbEntity
  8
_2-9_STRAINER他
  6
DASHED1
 62
     4
100
AcDbLine
 10
941.6439184813739
 20
1067.043267625051
 30
0.0
 11
941.2710162850261
 21
1065.053712708022
 31
0.0
  0
LINE
  5
1A7
330
22
100
AcDbEntity
  8
_2-9_STRAINER他
  6
Continuous
 62
     4
100
AcDbLine
 10
927.7619359210499
 20
1061.451159152618
 30
0.0
 11
928.3190286392269
 21
1064.582274156521
 31
0.0
  0
LINE
  5
1A8
330
22
100
AcDbEntity
  8
_2-9_STRAINER他
  6
Continuous
 62
     4
100
AcDbLine
 10
926.3104601074669
 20
1059.869622782264
 30
0.0
 11
922.3914877975143
 21
1058.819724421116
 31
0.0
  0
LINE
  5
1A9
330
22
100
AcDbEntity
  8
_2-9_STRAINER他
  6
DASHED1
 62
     4
100
AcDbLine
 10
926.3104601074669
 20
1059.869622782264
 30
0.0
 11
949.7740658188256
 21
1066.156626229453
 31
0.0
  0
LINE
  5
1AA
330
22
100
AcDbEntity
  8
_2-9_STRAINER他
  6
Continuous
 62
     4
100
AcDbLine
 10
816.7802718894211
 20
1059.113785146619
 30
0.0
 11
817.5390823377906
 21
1055.319732904767
 31
0.0
  0
LINE
  5
1AB
330
22
100
AcDbEntity
  8
_2-9_STRAINER他
  6
Continuous
 62
     4
100
AcDbLine
 10
815.309410859519
 20
1060.3195084415
 30
0.0
 11
791.08866690695
 21
1060.3195084415
 31
0.0
  0
LINE
  5
1AC
330
22
100
AcDbEntity
  8
_2-9_STRAINER他
  6
Continuous
 62
     4
100
AcDbLine
 10
914.3320066959102
 20
1058.094358115915
 30
0.0
 11
913.5391947019812
 21
1055.319732904767
 31
0.0
  0
LINE
  5
1AD
330
22
100
AcDbEntity
  8
_2-9_STRAINER他
  6
Continuous
 62
     4
100
AcDbLine
 10
816.8391088079594
 20
1058.819724421116
 30
0.0
 11
922.3914877975143
 21
1058.819724421116
 31
0.0
  0
LINE
  5
1AE
330
22
100
AcDbEntity
  8
_2-9_STRAINER他
  6
Continuous
 62
     4
100
AcDbLine
 10
940.1696511035575
 20
1065.819707453813
 30
0.0
 11
938.5391871904165
 21
1065.819707453813
 31
0.0
  0
LINE
  5
1AF
330
22
100
AcDbEntity
  8
_2-9_STRAINER他
  6
CENTER1
 62
     4
100
AcDbLine
 10
804.5390961531817
 20
1081.463143488028
 30
0.0
 11
804.5390961531817
 21
1037.365678179091
 31
0.0
  0
LINE
  5
1B0
330
22
100
AcDbEntity
  8
_2-9_STRAINER他
  6
Continuous
 62
     4
100
AcDbLine
 10
808.5390776099226
 20
1055.319732904767
 30
0.0
 11
922.8522118364812
 21
1055.319732904767
 31
0.0
  0
ARC
  5
1B1
330
22
100
AcDbEntity
  8
_2-9_STRAINER他
  6
Continuous
 62
     4
100
AcDbCircle
 10
779.7729649325438
 20
1065.42209375168
 30
0.0
 40
2.000000284531631
100
AcDbArc
 50
190.6148834228516
 51
255.000503540039
  0
ARC
  5
1B2
330
22
100
AcDbEntity
  8
_2-9_STRAINER他
  6
DASHED1
 62
     4
100
AcDbCircle
 10
939.3052438698068
 20
1065.42209375168
 30
0.0
 40
2.000000284531631
100
AcDbArc
 50
284.9994964599609
 51
349.3851165771484
  0
ARC
  5
1B3
330
22
100
AcDbEntity
  8
_2-9_STRAINER他
  6
Continuous
 62
     4
100
AcDbCircle
 10
815.309410859519
 20
1058.819724421116
 30
0.0
 40
1.500000183157709
100
AcDbArc
 50
11.31021118164062
 51
90.00000000000003
  0
ARC
  5
1B4
330
22
100
AcDbEntity
  8
_2-9_STRAINER他
  6
Continuous
 62
     4
100
AcDbCircle
 10
948.9976042948947
 20
1069.05462316874
 30
0.0
 40
3.000000366315418
100
AcDbArc
 50
188.7071228027344
 51
285.0002746582031
  0
ARC
  5
1B5
330
22
100
AcDbEntity
  8
_2-9_STRAINER他
  6
Continuous
 62
     4
100
AcDbCircle
 10
770.0806045074582
 20
1069.05462316874
 30
0.0
 40
3.000000366315418
100
AcDbArc
 50
254.9997253417969
 51
351.2928619384766
  0
ARC
  5
1B6
330
22
100
AcDbEntity
  8
_2-9_STRAINER他
  6
Continuous
 62
     4
100
AcDbCircle
 10
798.9155254127276
 20
1064.019421613686
 30
0.0
 40
2.800173788227169
100
AcDbArc
 50
47.92556762695312
 51
132.0746307373047
  0
ARC
  5
1B7
330
22
100
AcDbEntity
  8
_2-9_STRAINER他
  6
Continuous
 62
     4
100
AcDbCircle
 10
804.5390961531817
 20
1056.730332543363
 30
0.0
 40
10.08941188627228
100
AcDbArc
 50
68.19786071777343
 51
111.8021392822265
  0
ARC
  5
1B8
330
22
100
AcDbEntity
  8
_2-9_STRAINER他
  6
Continuous
 62
     4
100
AcDbCircle
 10
810.1626668936356
 20
1064.019421613686
 30
0.0
 40
2.800189997411142
100
AcDbArc
 50
47.92572021484374
 51
132.0742797851562
  0
ARC
  5
1B9
330
22
100
AcDbEntity
  8
_2-9_STRAINER他
  6
Continuous
 62
     4
100
AcDbCircle
 10
929.7957733609806
 20
1064.319675699036
 30
0.0
 40
1.500000183157709
100
AcDbArc
 50
90.0
 51
169.911865234375
  0
ARC
  5
1BA
330
22
100
AcDbEntity
  8
_2-9_STRAINER他
  6
Continuous
 62
     4
100
AcDbCircle
 10
940.1696511035575
 20
1067.319739208589
 30
0.0
 40
1.500000183157709
100
AcDbArc
 50
270.0
 51
349.3843536376953
  0
ARC
  5
1BB
330
22
100
AcDbEntity
  8
_2-9_STRAINER他
  6
Continuous
 62
     4
100
AcDbCircle
 10
925.7928190915132
 20
1061.801455585525
 30
0.0
 40
2.000000284531631
100
AcDbArc
 50
284.9994964599609
 51
349.9125671386719
  0
ARC
  5
1BC
330
22
100
AcDbEntity
  8
_2-9_STRAINER他
  6
Continuous
 62
     4
100
AcDbCircle
 10
915.2934019448515
 20
1057.819620673132
 30
0.0
 40
1.000000142265815
100
AcDbArc
 50
90.0
 51
164.0540161132812
  0
LINE
  5
1BD
330
22
100
AcDbEntity
  8
_2-9_STRAINER他
  6
Continuous
 62
     4
100
AcDbLine
 10
796.2259969658694
 20
1055.319732904767
 30
0.0
 11
800.5391146964406
 21
1055.319732904767
 31
0.0
  0
LINE
  5
1BE
330
22
100
AcDbEntity
  8
_2-9_STRAINER他
  6
Continuous
 62
     4
100
AcDbLine
 10
962.0391535938383
 20
1065.819684780371
 30
0.0
 11
961.5390341164824
 21
1067.819667215385
 31
0.0
  0
LINE
  5
1BF
330
22
100
AcDbEntity
  8
_2-9_STRAINER他
  6
Continuous
 62
     4
100
AcDbLine
 10
757.0391299356414
 20
1065.819735952404
 30
0.0
 11
757.5390508186696
 21
1067.819667215385
 31
0.0
  0
LINE
  5
1C0
330
22
100
AcDbEntity
  8
_2-1_
  6
Continuous
 62
     4
100
AcDbLine
 10
794.039059670537
 20
1022.787047258345
 30
0.0
 11
794.039059670537
 21
912.7834136847667
 31
0.0
  0
LINE
  5
1C1
330
22
100
AcDbEntity
  8
_2-1_
  6
Continuous
 62
     4
100
AcDbLine
 10
789.5390882734012
 20
1022.787047258345
 30
0.0
 11
789.5390882734012
 21
912.7834136847667
 31
0.0
  0
LINE
  5
1C2
330
22
100
AcDbEntity
  8
_2-1_
  6
Continuous
 62
     4
100
AcDbLine
 10
925.0392110654127
 20
1022.787047258345
 30
0.0
 11
925.0392110654127
 21
912.7834136847667
 31
0.0
  0
LINE
  5
1C3
330
22
100
AcDbEntity
  8
_2-1_
  6
Continuous
 62
     4
100
AcDbLine
 10
929.5391205289492
 20
1022.787047258345
 30
0.0
 11
929.5391205289492
 21
912.7834136847667
 31
0.0
  0
ARC
  5
1C4
330
22
100
AcDbEntity
  8
_2-D_ハッチ他
  6
Continuous
 62
     4
100
AcDbCircle
 10
1119.162287379041
 20
1066.241747023866
 30
0.0
 40
1.208333333333357
100
AcDbArc
 50
307.5235132033391
 51
232.4764868046499
  0
ARC
  5
1C5
330
22
100
AcDbEntity
  8
_2-D_ハッチ他
  6
Continuous
 62
     4
100
AcDbCircle
 10
1120.634247523516
 20
1064.325080357266
 30
0.0
 40
1.208333333333317
100
AcDbArc
 50
127.5235132061069
 51
52.47648680188081
  0
ARC
  5
1C6
330
22
100
AcDbEntity
  8
_2-D_ハッチ他
  6
Continuous
 62
     4
100
AcDbCircle
 10
1116.218367090358
 20
1066.241747023661
 30
0.0
 40
1.208333333333357
100
AcDbArc
 50
307.5235132033391
 51
232.4764868046499
  0
ARC
  5
1C7
330
22
100
AcDbEntity
  8
_2-D_ハッチ他
  6
Continuous
 62
     4
100
AcDbCircle
 10
1117.690327234833
 20
1064.325080357059
 30
0.0
 40
1.208333333333317
100
AcDbArc
 50
127.5235132061069
 51
52.47648680188081
  0
ARC
  5
1C8
330
22
100
AcDbEntity
  8
_2-D_ハッチ他
  6
Continuous
 62
     4
100
AcDbCircle
 10
1113.274446801676
 20
1066.241747023454
 30
0.0
 40
1.208333333333357
100
AcDbArc
 50
307.5235132033391
 51
232.4764868046499
  0
ARC
  5
1C9
330
22
100
AcDbEntity
  8
_2-D_ハッチ他
  6
Continuous
 62
     4
100
AcDbCircle
 10
1114.74640694615
 20
1064.325080356854
 30
0.0
 40
1.208333333333317
100
AcDbArc
 50
127.5235132061069
 51
52.47648680188081
  0
ARC
  5
1CA
330
22
100
AcDbEntity
  8
_2-D_ハッチ他
  6
Continuous
 62
     4
100
AcDbCircle
 10
1110.330526512993
 20
1066.24174702325
 30
0.0
 40
1.208333333333357
100
AcDbArc
 50
307.5235132033391
 51
232.4764868046499
  0
ARC
  5
1CB
330
22
100
AcDbEntity
  8
_2-D_ハッチ他
  6
Continuous
 62
     4
100
AcDbCircle
 10
1111.802486657467
 20
1064.32508035665
 30
0.0
 40
1.208333333333317
100
AcDbArc
 50
127.5235132061069
 51
52.47648680188081
  0
ARC
  5
1CC
330
22
100
AcDbEntity
  8
_2-D_ハッチ他
  6
Continuous
 62
     4
100
AcDbCircle
 10
1107.386606224308
 20
1066.241747023045
 30
0.0
 40
1.208333333333357
100
AcDbArc
 50
307.5235132033391
 51
232.4764868046499
  0
ARC
  5
1CD
330
22
100
AcDbEntity
  8
_2-D_ハッチ他
  6
Continuous
 62
     4
100
AcDbCircle
 10
1108.858566368784
 20
1064.325080356445
 30
0.0
 40
1.208333333333317
100
AcDbArc
 50
127.5235132061069
 51
52.47648680188081
  0
ARC
  5
1CE
330
22
100
AcDbEntity
  8
_2-D_ハッチ他
  6
Continuous
 62
     4
100
AcDbCircle
 10
1104.442685935627
 20
1066.241747022838
 30
0.0
 40
1.208333333333357
100
AcDbArc
 50
307.5235132033391
 51
232.4764868046499
  0
ARC
  5
1CF
330
22
100
AcDbEntity
  8
_2-D_ハッチ他
  6
Continuous
 62
     4
100
AcDbCircle
 10
1105.914646080099
 20
1064.32508035624
 30
0.0
 40
1.208333333333317
100
AcDbArc
 50
127.5235132061069
 51
52.47648680188081
  0
ARC
  5
1D0
330
22
100
AcDbEntity
  8
_2-D_ハッチ他
  6
Continuous
 62
     4
100
AcDbCircle
 10
1101.498765646942
 20
1066.241747022633
 30
0.0
 40
1.208333333333357
100
AcDbArc
 50
307.5235132033391
 51
232.4764868046499
  0
ARC
  5
1D1
330
22
100
AcDbEntity
  8
_2-D_ハッチ他
  6
Continuous
 62
     4
100
AcDbCircle
 10
1102.970725791418
 20
1064.325080356036
 30
0.0
 40
1.208333333333317
100
AcDbArc
 50
127.5235132061069
 51
52.47648680188081
  0
ARC
  5
1D2
330
22
100
AcDbEntity
  8
_2-D_ハッチ他
  6
Continuous
 62
     4
100
AcDbCircle
 10
1136.825809111141
 20
1066.241747023866
 30
0.0
 40
1.208333333333357
100
AcDbArc
 50
307.5235132033391
 51
232.4764868046499
  0
ARC
  5
1D3
330
22
100
AcDbEntity
  8
_2-D_ハッチ他
  6
Continuous
 62
     4
100
AcDbCircle
 10
1138.297769255617
 20
1064.325080357266
 30
0.0
 40
1.208333333333317
100
AcDbArc
 50
127.5235132061069
 51
52.47648680188081
  0
ARC
  5
1D4
330
22
100
AcDbEntity
  8
_2-D_ハッチ他
  6
Continuous
 62
     4
100
AcDbCircle
 10
1133.881888822458
 20
1066.241747023661
 30
0.0
 40
1.208333333333357
100
AcDbArc
 50
307.5235132033391
 51
232.4764868046499
  0
ARC
  5
1D5
330
22
100
AcDbEntity
  8
_2-D_ハッチ他
  6
Continuous
 62
     4
100
AcDbCircle
 10
1135.353848966933
 20
1064.325080357059
 30
0.0
 40
1.208333333333317
100
AcDbArc
 50
127.5235132061069
 51
52.47648680188081
  0
ARC
  5
1D6
330
22
100
AcDbEntity
  8
_2-D_ハッチ他
  6
Continuous
 62
     4
100
AcDbCircle
 10
1130.937968533775
 20
1066.241747023454
 30
0.0
 40
1.208333333333357
100
AcDbArc
 50
307.5235132033391
 51
232.4764868046499
  0
ARC
  5
1D7
330
22
100
AcDbEntity
  8
_2-D_ハッチ他
  6
Continuous
 62
     4
100
AcDbCircle
 10
1132.40992867825
 20
1064.325080356854
 30
0.0
 40
1.208333333333317
100
AcDbArc
 50
127.5235132061069
 51
52.47648680188081
  0
ARC
  5
1D8
330
22
100
AcDbEntity
  8
_2-D_ハッチ他
  6
Continuous
 62
     4
100
AcDbCircle
 10
1127.99404824509
 20
1066.24174702325
 30
0.0
 40
1.208333333333357
100
AcDbArc
 50
307.5235132033391
 51
232.4764868046499
  0
ARC
  5
1D9
330
22
100
AcDbEntity
  8
_2-D_ハッチ他
  6
Continuous
 62
     4
100
AcDbCircle
 10
1129.466008389567
 20
1064.32508035665
 30
0.0
 40
1.208333333333317
100
AcDbArc
 50
127.5235132061069
 51
52.47648680188081
  0
ARC
  5
1DA
330
22
100
AcDbEntity
  8
_2-D_ハッチ他
  6
Continuous
 62
     4
100
AcDbCircle
 10
1125.050127956409
 20
1066.241747023045
 30
0.0
 40
1.208333333333357
100
AcDbArc
 50
307.5235132033391
 51
232.4764868046499
  0
ARC
  5
1DB
330
22
100
AcDbEntity
  8
_2-D_ハッチ他
  6
Continuous
 62
     4
100
AcDbCircle
 10
1126.522088100881
 20
1064.325080356445
 30
0.0
 40
1.208333333333317
100
AcDbArc
 50
127.5235132061069
 51
52.47648680188081
  0
ARC
  5
1DC
330
22
100
AcDbEntity
  8
_2-D_ハッチ他
  6
Continuous
 62
     4
100
AcDbCircle
 10
1122.106207667724
 20
1066.241747022838
 30
0.0
 40
1.208333333333357
100
AcDbArc
 50
307.5235132033391
 51
232.4764868046499
  0
ARC
  5
1DD
330
22
100
AcDbEntity
  8
_2-D_ハッチ他
  6
Continuous
 62
     4
100
AcDbCircle
 10
1123.578167812201
 20
1064.32508035624
 30
0.0
 40
1.208333333333317
100
AcDbArc
 50
127.5235132061069
 51
52.47648680188081
  0
ARC
  5
1DE
330
22
100
AcDbEntity
  8
_2-D_ハッチ他
  6
Continuous
 62
     4
100
AcDbCircle
 10
1163.321091709291
 20
1066.241747023866
 30
0.0
 40
1.208333333333357
100
AcDbArc
 50
307.5235132033391
 51
232.4764868046499
  0
ARC
  5
1DF
330
22
100
AcDbEntity
  8
_2-D_ハッチ他
  6
Continuous
 62
     4
100
AcDbCircle
 10
1164.793051853766
 20
1064.325080357266
 30
0.0
 40
1.208333333333317
100
AcDbArc
 50
127.5235132061069
 51
52.47648680188081
  0
ARC
  5
1E0
330
22
100
AcDbEntity
  8
_2-D_ハッチ他
  6
Continuous
 62
     4
100
AcDbCircle
 10
1160.377171420608
 20
1066.241747023661
 30
0.0
 40
1.208333333333357
100
AcDbArc
 50
307.5235132033391
 51
232.4764868046499
  0
ARC
  5
1E1
330
22
100
AcDbEntity
  8
_2-D_ハッチ他
  6
Continuous
 62
     4
100
AcDbCircle
 10
1161.849131565083
 20
1064.325080357059
 30
0.0
 40
1.208333333333317
100
AcDbArc
 50
127.5235132061069
 51
52.47648680188081
  0
ARC
  5
1E2
330
22
100
AcDbEntity
  8
_2-D_ハッチ他
  6
Continuous
 62
     4
100
AcDbCircle
 10
1157.433251131923
 20
1066.241747023454
 30
0.0
 40
1.208333333333357
100
AcDbArc
 50
307.5235132033391
 51
232.4764868046499
  0
ARC
  5
1E3
330
22
100
AcDbEntity
  8
_2-D_ハッチ他
  6
Continuous
 62
     4
100
AcDbCircle
 10
1158.9052112764
 20
1064.325080356854
 30
0.0
 40
1.208333333333317
100
AcDbArc
 50
127.5235132061069
 51
52.47648680188081
  0
ARC
  5
1E4
330
22
100
AcDbEntity
  8
_2-D_ハッチ他
  6
Continuous
 62
     4
100
AcDbCircle
 10
1154.489330843243
 20
1066.24174702325
 30
0.0
 40
1.208333333333357
100
AcDbArc
 50
307.5235132033391
 51
232.4764868046499
  0
ARC
  5
1E5
330
22
100
AcDbEntity
  8
_2-D_ハッチ他
  6
Continuous
 62
     4
100
AcDbCircle
 10
1155.961290987717
 20
1064.32508035665
 30
0.0
 40
1.208333333333317
100
AcDbArc
 50
127.5235132061069
 51
52.47648680188081
  0
ARC
  5
1E6
330
22
100
AcDbEntity
  8
_2-D_ハッチ他
  6
Continuous
 62
     4
100
AcDbCircle
 10
1151.545410554557
 20
1066.241747023045
 30
0.0
 40
1.208333333333357
100
AcDbArc
 50
307.5235132033391
 51
232.4764868046499
  0
ARC
  5
1E7
330
22
100
AcDbEntity
  8
_2-D_ハッチ他
  6
Continuous
 62
     4
100
AcDbCircle
 10
1153.017370699034
 20
1064.325080356445
 30
0.0
 40
1.208333333333317
100
AcDbArc
 50
127.5235132061069
 51
52.47648680188081
  0
ARC
  5
1E8
330
22
100
AcDbEntity
  8
_2-D_ハッチ他
  6
Continuous
 62
     4
100
AcDbCircle
 10
1148.601490265875
 20
1066.241747022838
 30
0.0
 40
1.208333333333357
100
AcDbArc
 50
307.5235132033391
 51
232.4764868046499
  0
ARC
  5
1E9
330
22
100
AcDbEntity
  8
_2-D_ハッチ他
  6
Continuous
 62
     4
100
AcDbCircle
 10
1150.073450410349
 20
1064.32508035624
 30
0.0
 40
1.208333333333317
100
AcDbArc
 50
127.5235132061069
 51
52.47648680188081
  0
ARC
  5
1EA
330
22
100
AcDbEntity
  8
_2-D_ハッチ他
  6
Continuous
 62
     4
100
AcDbCircle
 10
1142.713649688507
 20
1066.241747022429
 30
0.0
 40
1.208333333333357
100
AcDbArc
 50
307.5235132033391
 51
232.4764868046499
  0
ARC
  5
1EB
330
22
100
AcDbEntity
  8
_2-D_ハッチ他
  6
Continuous
 62
     4
100
AcDbCircle
 10
1145.657569977192
 20
1066.241747022633
 30
0.0
 40
1.208333333333357
100
AcDbArc
 50
307.5235132033391
 51
232.4764868046499
  0
ARC
  5
1EC
330
22
100
AcDbEntity
  8
_2-D_ハッチ他
  6
Continuous
 62
     4
100
AcDbCircle
 10
1144.185609832983
 20
1064.325080355829
 30
0.0
 40
1.208333333333317
100
AcDbArc
 50
127.5235132061069
 51
52.47648680188081
  0
ARC
  5
1ED
330
22
100
AcDbEntity
  8
_2-D_ハッチ他
  6
Continuous
 62
     4
100
AcDbCircle
 10
1147.129530121667
 20
1064.325080356036
 30
0.0
 40
1.208333333333317
100
AcDbArc
 50
127.5235132061069
 51
52.47648680188081
  0
ARC
  5
1EE
330
22
100
AcDbEntity
  8
_2-D_ハッチ他
  6
Continuous
 62
     4
100
AcDbCircle
 10
1141.241689544298
 20
1064.325080355624
 30
0.0
 40
1.208333333333317
100
AcDbArc
 50
127.5235132061069
 51
52.47648680188081
  0
ARC
  5
1EF
330
22
100
AcDbEntity
  8
_2-D_ハッチ他
  6
Continuous
 62
     4
100
AcDbCircle
 10
1139.769729399826
 20
1066.241747022224
 30
0.0
 40
1.208333333333357
100
AcDbArc
 50
307.5235132033391
 51
232.4764868046499
  0
ARC
  5
1F0
330
22
100
AcDbEntity
  8
_2-D_ハッチ他
  6
Continuous
 62
     4
100
AcDbCircle
 10
1189.816374307442
 20
1066.241747023866
 30
0.0
 40
1.208333333333357
100
AcDbArc
 50
307.5235132033391
 51
232.4764868046499
  0
ARC
  5
1F1
330
22
100
AcDbEntity
  8
_2-D_ハッチ他
  6
Continuous
 62
     4
100
AcDbCircle
 10
1191.288334451919
 20
1064.325080357266
 30
0.0
 40
1.208333333333317
100
AcDbArc
 50
127.5235132061069
 51
52.47648680188081
  0
ARC
  5
1F2
330
22
100
AcDbEntity
  8
_2-D_ハッチ他
  6
Continuous
 62
     4
100
AcDbCircle
 10
1186.872454018756
 20
1066.241747023661
 30
0.0
 40
1.208333333333357
100
AcDbArc
 50
307.5235132033391
 51
232.4764868046499
  0
ARC
  5
1F3
330
22
100
AcDbEntity
  8
_2-D_ハッチ他
  6
Continuous
 62
     4
100
AcDbCircle
 10
1188.344414163233
 20
1064.325080357059
 30
0.0
 40
1.208333333333317
100
AcDbArc
 50
127.5235132061069
 51
52.47648680188081
  0
ARC
  5
1F4
330
22
100
AcDbEntity
  8
_2-D_ハッチ他
  6
Continuous
 62
     4
100
AcDbCircle
 10
1183.928533730076
 20
1066.241747023454
 30
0.0
 40
1.208333333333357
100
AcDbArc
 50
307.5235132033391
 51
232.4764868046499
  0
ARC
  5
1F5
330
22
100
AcDbEntity
  8
_2-D_ハッチ他
  6
Continuous
 62
     4
100
AcDbCircle
 10
1185.40049387455
 20
1064.325080356854
 30
0.0
 40
1.208333333333317
100
AcDbArc
 50
127.5235132061069
 51
52.47648680188081
  0
ARC
  5
1F6
330
22
100
AcDbEntity
  8
_2-D_ハッチ他
  6
Continuous
 62
     4
100
AcDbCircle
 10
1180.984613441391
 20
1066.24174702325
 30
0.0
 40
1.208333333333357
100
AcDbArc
 50
307.5235132033391
 51
232.4764868046499
  0
ARC
  5
1F7
330
22
100
AcDbEntity
  8
_2-D_ハッチ他
  6
Continuous
 62
     4
100
AcDbCircle
 10
1182.456573585868
 20
1064.32508035665
 30
0.0
 40
1.208333333333317
100
AcDbArc
 50
127.5235132061069
 51
52.47648680188081
  0
ARC
  5
1F8
330
22
100
AcDbEntity
  8
_2-D_ハッチ他
  6
Continuous
 62
     4
100
AcDbCircle
 10
1178.040693152708
 20
1066.241747023045
 30
0.0
 40
1.208333333333357
100
AcDbArc
 50
307.5235132033391
 51
232.4764868046499
  0
ARC
  5
1F9
330
22
100
AcDbEntity
  8
_2-D_ハッチ他
  6
Continuous
 62
     4
100
AcDbCircle
 10
1179.512653297182
 20
1064.325080356445
 30
0.0
 40
1.208333333333317
100
AcDbArc
 50
127.5235132061069
 51
52.47648680188081
  0
ARC
  5
1FA
330
22
100
AcDbEntity
  8
_2-D_ハッチ他
  6
Continuous
 62
     4
100
AcDbCircle
 10
1175.096772864025
 20
1066.241747022838
 30
0.0
 40
1.208333333333357
100
AcDbArc
 50
307.5235132033391
 51
232.4764868046499
  0
ARC
  5
1FB
330
22
100
AcDbEntity
  8
_2-D_ハッチ他
  6
Continuous
 62
     4
100
AcDbCircle
 10
1176.568733008499
 20
1064.32508035624
 30
0.0
 40
1.208333333333317
100
AcDbArc
 50
127.5235132061069
 51
52.47648680188081
  0
ARC
  5
1FC
330
22
100
AcDbEntity
  8
_2-D_ハッチ他
  6
Continuous
 62
     4
100
AcDbCircle
 10
1169.208932286659
 20
1066.241747022429
 30
0.0
 40
1.208333333333357
100
AcDbArc
 50
307.5235132033391
 51
232.4764868046499
  0
ARC
  5
1FD
330
22
100
AcDbEntity
  8
_2-D_ハッチ他
  6
Continuous
 62
     4
100
AcDbCircle
 10
1172.15285257534
 20
1066.241747022633
 30
0.0
 40
1.208333333333357
100
AcDbArc
 50
307.5235132033391
 51
232.4764868046499
  0
ARC
  5
1FE
330
22
100
AcDbEntity
  8
_2-D_ハッチ他
  6
Continuous
 62
     4
100
AcDbCircle
 10
1170.680892431134
 20
1064.325080355829
 30
0.0
 40
1.208333333333317
100
AcDbArc
 50
127.5235132061069
 51
52.47648680188081
  0
ARC
  5
1FF
330
22
100
AcDbEntity
  8
_2-D_ハッチ他
  6
Continuous
 62
     4
100
AcDbCircle
 10
1173.624812719817
 20
1064.325080356036
 30
0.0
 40
1.208333333333317
100
AcDbArc
 50
127.5235132061069
 51
52.47648680188081
  0
ARC
  5
200
330
22
100
AcDbEntity
  8
_2-D_ハッチ他
  6
Continuous
 62
     4
100
AcDbCircle
 10
1167.736972142451
 20
1064.325080355624
 30
0.0
 40
1.208333333333317
100
AcDbArc
 50
127.5235132061069
 51
52.47648680188081
  0
ARC
  5
201
330
22
100
AcDbEntity
  8
_2-D_ハッチ他
  6
Continuous
 62
     4
100
AcDbCircle
 10
1166.265011997974
 20
1066.241747022224
 30
0.0
 40
1.208333333333357
100
AcDbArc
 50
307.5235132033391
 51
232.4764868046499
  0
ARC
  5
202
330
22
100
AcDbEntity
  8
_2-D_ハッチ他
  6
Continuous
 62
     4
100
AcDbCircle
 10
1194.232254740599
 20
1064.325080356854
 30
0.0
 40
1.208333333333317
100
AcDbArc
 50
127.5235132061069
 51
52.47648680188081
  0
ARC
  5
203
330
22
100
AcDbEntity
  8
_2-D_ハッチ他
  6
Continuous
 62
     4
100
AcDbCircle
 10
1192.760294596125
 20
1066.241747023454
 30
0.0
 40
1.208333333333357
100
AcDbArc
 50
307.5235132033391
 51
232.4764868046499
  0
ARC
  5
204
330
22
100
AcDbEntity
  8
_2-D_ハッチ他
  6
Continuous
 62
     4
100
AcDbCircle
 10
1219.255577194275
 20
1066.241747023866
 30
0.0
 40
1.208333333333357
100
AcDbArc
 50
307.5235132033391
 51
232.4764868046499
  0
ARC
  5
205
330
22
100
AcDbEntity
  8
_2-D_ハッチ他
  6
Continuous
 62
     4
100
AcDbCircle
 10
1220.727537338752
 20
1064.325080357266
 30
0.0
 40
1.208333333333317
100
AcDbArc
 50
127.5235132061069
 51
52.47648680188081
  0
ARC
  5
206
330
22
100
AcDbEntity
  8
_2-D_ハッチ他
  6
Continuous
 62
     4
100
AcDbCircle
 10
1216.311656905592
 20
1066.241747023661
 30
0.0
 40
1.208333333333357
100
AcDbArc
 50
307.5235132033391
 51
232.4764868046499
  0
ARC
  5
207
330
22
100
AcDbEntity
  8
_2-D_ハッチ他
  6
Continuous
 62
     4
100
AcDbCircle
 10
1217.783617050067
 20
1064.325080357059
 30
0.0
 40
1.208333333333317
100
AcDbArc
 50
127.5235132061069
 51
52.47648680188081
  0
ARC
  5
208
330
22
100
AcDbEntity
  8
_2-D_ハッチ他
  6
Continuous
 62
     4
100
AcDbCircle
 10
1213.367736616909
 20
1066.241747023454
 30
0.0
 40
1.208333333333357
100
AcDbArc
 50
307.5235132033391
 51
232.4764868046499
  0
ARC
  5
209
330
22
100
AcDbEntity
  8
_2-D_ハッチ他
  6
Continuous
 62
     4
100
AcDbCircle
 10
1214.839696761384
 20
1064.325080356854
 30
0.0
 40
1.208333333333317
100
AcDbArc
 50
127.5235132061069
 51
52.47648680188081
  0
ARC
  5
20A
330
22
100
AcDbEntity
  8
_2-D_ハッチ他
  6
Continuous
 62
     4
100
AcDbCircle
 10
1204.535975750858
 20
1066.241747022838
 30
0.0
 40
1.208333333333357
100
AcDbArc
 50
307.5235132033391
 51
232.4764868046499
  0
ARC
  5
20B
330
22
100
AcDbEntity
  8
_2-D_ハッチ他
  6
Continuous
 62
     4
100
AcDbCircle
 10
1206.007935895335
 20
1064.32508035624
 30
0.0
 40
1.208333333333317
100
AcDbArc
 50
127.5235132061069
 51
52.47648680188081
  0
ARC
  5
20C
330
22
100
AcDbEntity
  8
_2-D_ハッチ他
  6
Continuous
 62
     4
100
AcDbCircle
 10
1198.648135173493
 20
1066.241747022429
 30
0.0
 40
1.208333333333357
100
AcDbArc
 50
307.5235132033391
 51
232.4764868046499
  0
ARC
  5
20D
330
22
100
AcDbEntity
  8
_2-D_ハッチ他
  6
Continuous
 62
     4
100
AcDbCircle
 10
1201.592055462175
 20
1066.241747022633
 30
0.0
 40
1.208333333333357
100
AcDbArc
 50
307.5235132033391
 51
232.4764868046499
  0
ARC
  5
20E
330
22
100
AcDbEntity
  8
_2-D_ハッチ他
  6
Continuous
 62
     4
100
AcDbCircle
 10
1200.120095317967
 20
1064.325080355829
 30
0.0
 40
1.208333333333317
100
AcDbArc
 50
127.5235132061069
 51
52.47648680188081
  0
ARC
  5
20F
330
22
100
AcDbEntity
  8
_2-D_ハッチ他
  6
Continuous
 62
     4
100
AcDbCircle
 10
1203.06401560665
 20
1064.325080356036
 30
0.0
 40
1.208333333333317
100
AcDbArc
 50
127.5235132061069
 51
52.47648680188081
  0
ARC
  5
210
330
22
100
AcDbEntity
  8
_2-D_ハッチ他
  6
Continuous
 62
     4
100
AcDbCircle
 10
1197.176175029284
 20
1064.325080355624
 30
0.0
 40
1.208333333333317
100
AcDbArc
 50
127.5235132061069
 51
52.47648680188081
  0
ARC
  5
211
330
22
100
AcDbEntity
  8
_2-D_ハッチ他
  6
Continuous
 62
     4
100
AcDbCircle
 10
1195.704214884807
 20
1066.241747022224
 30
0.0
 40
1.208333333333357
100
AcDbArc
 50
307.5235132033391
 51
232.4764868046499
  0
ARC
  5
212
330
22
100
AcDbEntity
  8
_2-D_ハッチ他
  6
Continuous
 62
     4
100
AcDbCircle
 10
1245.750859792425
 20
1066.241747023866
 30
0.0
 40
1.208333333333357
100
AcDbArc
 50
307.5235132033391
 51
232.4764868046499
  0
ARC
  5
213
330
22
100
AcDbEntity
  8
_2-D_ハッチ他
  6
Continuous
 62
     4
100
AcDbCircle
 10
1247.2228199369
 20
1064.325080357266
 30
0.0
 40
1.208333333333317
100
AcDbArc
 50
127.5235132061069
 51
52.47648680188081
  0
ARC
  5
214
330
22
100
AcDbEntity
  8
_2-D_ハッチ他
  6
Continuous
 62
     4
100
AcDbCircle
 10
1242.806939503742
 20
1066.241747023661
 30
0.0
 40
1.208333333333357
100
AcDbArc
 50
307.5235132033391
 51
232.4764868046499
  0
ARC
  5
215
330
22
100
AcDbEntity
  8
_2-D_ハッチ他
  6
Continuous
 62
     4
100
AcDbCircle
 10
1244.278899648217
 20
1064.325080357059
 30
0.0
 40
1.208333333333317
100
AcDbArc
 50
127.5235132061069
 51
52.47648680188081
  0
ARC
  5
216
330
22
100
AcDbEntity
  8
_2-D_ハッチ他
  6
Continuous
 62
     4
100
AcDbCircle
 10
1239.863019215057
 20
1066.241747023454
 30
0.0
 40
1.208333333333357
100
AcDbArc
 50
307.5235132033391
 51
232.4764868046499
  0
ARC
  5
217
330
22
100
AcDbEntity
  8
_2-D_ハッチ他
  6
Continuous
 62
     4
100
AcDbCircle
 10
1241.334979359534
 20
1064.325080356854
 30
0.0
 40
1.208333333333317
100
AcDbArc
 50
127.5235132061069
 51
52.47648680188081
  0
ARC
  5
218
330
22
100
AcDbEntity
  8
_2-D_ハッチ他
  6
Continuous
 62
     4
100
AcDbCircle
 10
1236.919098926377
 20
1066.24174702325
 30
0.0
 40
1.208333333333357
100
AcDbArc
 50
307.5235132033391
 51
232.4764868046499
  0
ARC
  5
219
330
22
100
AcDbEntity
  8
_2-D_ハッチ他
  6
Continuous
 62
     4
100
AcDbCircle
 10
1238.391059070851
 20
1064.32508035665
 30
0.0
 40
1.208333333333317
100
AcDbArc
 50
127.5235132061069
 51
52.47648680188081
  0
ARC
  5
21A
330
22
100
AcDbEntity
  8
_2-D_ハッチ他
  6
Continuous
 62
     4
100
AcDbCircle
 10
1233.975178637692
 20
1066.241747023045
 30
0.0
 40
1.208333333333357
100
AcDbArc
 50
307.5235132033391
 51
232.4764868046499
  0
ARC
  5
21B
330
22
100
AcDbEntity
  8
_2-D_ハッチ他
  6
Continuous
 62
     4
100
AcDbCircle
 10
1235.447138782168
 20
1064.325080356445
 30
0.0
 40
1.208333333333317
100
AcDbArc
 50
127.5235132061069
 51
52.47648680188081
  0
ARC
  5
21C
330
22
100
AcDbEntity
  8
_2-D_ハッチ他
  6
Continuous
 62
     4
100
AcDbCircle
 10
1231.031258349009
 20
1066.241747022838
 30
0.0
 40
1.208333333333357
100
AcDbArc
 50
307.5235132033391
 51
232.4764868046499
  0
ARC
  5
21D
330
22
100
AcDbEntity
  8
_2-D_ハッチ他
  6
Continuous
 62
     4
100
AcDbCircle
 10
1232.503218493483
 20
1064.32508035624
 30
0.0
 40
1.208333333333317
100
AcDbArc
 50
127.5235132061069
 51
52.47648680188081
  0
ARC
  5
21E
330
22
100
AcDbEntity
  8
_2-D_ハッチ他
  6
Continuous
 62
     4
100
AcDbCircle
 10
1225.143417771641
 20
1066.241747022429
 30
0.0
 40
1.208333333333357
100
AcDbArc
 50
307.5235132033391
 51
232.4764868046499
  0
ARC
  5
21F
330
22
100
AcDbEntity
  8
_2-D_ハッチ他
  6
Continuous
 62
     4
100
AcDbCircle
 10
1228.087338060326
 20
1066.241747022633
 30
0.0
 40
1.208333333333357
100
AcDbArc
 50
307.5235132033391
 51
232.4764868046499
  0
ARC
  5
220
330
22
100
AcDbEntity
  8
_2-D_ハッチ他
  6
Continuous
 62
     4
100
AcDbCircle
 10
1226.615377916117
 20
1064.325080355829
 30
0.0
 40
1.208333333333317
100
AcDbArc
 50
127.5235132061069
 51
52.47648680188081
  0
ARC
  5
221
330
22
100
AcDbEntity
  8
_2-D_ハッチ他
  6
Continuous
 62
     4
100
AcDbCircle
 10
1229.5592982048
 20
1064.325080356036
 30
0.0
 40
1.208333333333317
100
AcDbArc
 50
127.5235132061069
 51
52.47648680188081
  0
ARC
  5
222
330
22
100
AcDbEntity
  8
_2-D_ハッチ他
  6
Continuous
 62
     4
100
AcDbCircle
 10
1223.671457627432
 20
1064.325080355624
 30
0.0
 40
1.208333333333317
100
AcDbArc
 50
127.5235132061069
 51
52.47648680188081
  0
ARC
  5
223
330
22
100
AcDbEntity
  8
_2-D_ハッチ他
  6
Continuous
 62
     4
100
AcDbCircle
 10
1222.19949748296
 20
1066.241747022224
 30
0.0
 40
1.208333333333357
100
AcDbArc
 50
307.5235132033391
 51
232.4764868046499
  0
ARC
  5
224
330
22
100
AcDbEntity
  8
_2-D_ハッチ他
  6
Continuous
 62
     4
100
AcDbCircle
 10
1272.246142390576
 20
1066.241747023866
 30
0.0
 40
1.208333333333357
100
AcDbArc
 50
307.5235132033391
 51
232.4764868046499
  0
ARC
  5
225
330
22
100
AcDbEntity
  8
_2-D_ハッチ他
  6
Continuous
 62
     4
100
AcDbCircle
 10
1273.718102535053
 20
1064.325080357266
 30
0.0
 40
1.208333333333317
100
AcDbArc
 50
127.5235132061069
 51
52.47648680188081
  0
ARC
  5
226
330
22
100
AcDbEntity
  8
_2-D_ハッチ他
  6
Continuous
 62
     4
100
AcDbCircle
 10
1269.302222101891
 20
1066.241747023661
 30
0.0
 40
1.208333333333357
100
AcDbArc
 50
307.5235132033391
 51
232.4764868046499
  0
ARC
  5
227
330
22
100
AcDbEntity
  8
_2-D_ハッチ他
  6
Continuous
 62
     4
100
AcDbCircle
 10
1270.774182246367
 20
1064.325080357059
 30
0.0
 40
1.208333333333317
100
AcDbArc
 50
127.5235132061069
 51
52.47648680188081
  0
ARC
  5
228
330
22
100
AcDbEntity
  8
_2-D_ハッチ他
  6
Continuous
 62
     4
100
AcDbCircle
 10
1266.35830181321
 20
1066.241747023454
 30
0.0
 40
1.208333333333357
100
AcDbArc
 50
307.5235132033391
 51
232.4764868046499
  0
ARC
  5
229
330
22
100
AcDbEntity
  8
_2-D_ハッチ他
  6
Continuous
 62
     4
100
AcDbCircle
 10
1267.830261957685
 20
1064.325080356854
 30
0.0
 40
1.208333333333317
100
AcDbArc
 50
127.5235132061069
 51
52.47648680188081
  0
ARC
  5
22A
330
22
100
AcDbEntity
  8
_2-D_ハッチ他
  6
Continuous
 62
     4
100
AcDbCircle
 10
1263.414381524525
 20
1066.24174702325
 30
0.0
 40
1.208333333333357
100
AcDbArc
 50
307.5235132033391
 51
232.4764868046499
  0
ARC
  5
22B
330
22
100
AcDbEntity
  8
_2-D_ハッチ他
  6
Continuous
 62
     4
100
AcDbCircle
 10
1264.886341669002
 20
1064.32508035665
 30
0.0
 40
1.208333333333317
100
AcDbArc
 50
127.5235132061069
 51
52.47648680188081
  0
ARC
  5
22C
330
22
100
AcDbEntity
  8
_2-D_ハッチ他
  6
Continuous
 62
     4
100
AcDbCircle
 10
1260.470461235842
 20
1066.241747023045
 30
0.0
 40
1.208333333333357
100
AcDbArc
 50
307.5235132033391
 51
232.4764868046499
  0
ARC
  5
22D
330
22
100
AcDbEntity
  8
_2-D_ハッチ他
  6
Continuous
 62
     4
100
AcDbCircle
 10
1261.942421380316
 20
1064.325080356445
 30
0.0
 40
1.208333333333317
100
AcDbArc
 50
127.5235132061069
 51
52.47648680188081
  0
ARC
  5
22E
330
22
100
AcDbEntity
  8
_2-D_ハッチ他
  6
Continuous
 62
     4
100
AcDbCircle
 10
1257.526540947159
 20
1066.241747022838
 30
0.0
 40
1.208333333333357
100
AcDbArc
 50
307.5235132033391
 51
232.4764868046499
  0
ARC
  5
22F
330
22
100
AcDbEntity
  8
_2-D_ハッチ他
  6
Continuous
 62
     4
100
AcDbCircle
 10
1258.998501091634
 20
1064.32508035624
 30
0.0
 40
1.208333333333317
100
AcDbArc
 50
127.5235132061069
 51
52.47648680188081
  0
ARC
  5
230
330
22
100
AcDbEntity
  8
_2-D_ハッチ他
  6
Continuous
 62
     4
100
AcDbCircle
 10
1251.638700369793
 20
1066.241747022429
 30
0.0
 40
1.208333333333357
100
AcDbArc
 50
307.5235132033391
 51
232.4764868046499
  0
ARC
  5
231
330
22
100
AcDbEntity
  8
_2-D_ハッチ他
  6
Continuous
 62
     4
100
AcDbCircle
 10
1254.582620658474
 20
1066.241747022633
 30
0.0
 40
1.208333333333357
100
AcDbArc
 50
307.5235132033391
 51
232.4764868046499
  0
ARC
  5
232
330
22
100
AcDbEntity
  8
_2-D_ハッチ他
  6
Continuous
 62
     4
100
AcDbCircle
 10
1253.110660514268
 20
1064.325080355829
 30
0.0
 40
1.208333333333317
100
AcDbArc
 50
127.5235132061069
 51
52.47648680188081
  0
ARC
  5
233
330
22
100
AcDbEntity
  8
_2-D_ハッチ他
  6
Continuous
 62
     4
100
AcDbCircle
 10
1256.054580802951
 20
1064.325080356036
 30
0.0
 40
1.208333333333317
100
AcDbArc
 50
127.5235132061069
 51
52.47648680188081
  0
ARC
  5
234
330
22
100
AcDbEntity
  8
_2-D_ハッチ他
  6
Continuous
 62
     4
100
AcDbCircle
 10
1250.166740225585
 20
1064.325080355624
 30
0.0
 40
1.208333333333317
100
AcDbArc
 50
127.5235132061069
 51
52.47648680188081
  0
ARC
  5
235
330
22
100
AcDbEntity
  8
_2-D_ハッチ他
  6
Continuous
 62
     4
100
AcDbCircle
 10
1248.694780081108
 20
1066.241747022224
 30
0.0
 40
1.208333333333357
100
AcDbArc
 50
307.5235132033391
 51
232.4764868046499
  0
ARC
  5
236
330
22
100
AcDbEntity
  8
_2-D_ハッチ他
  6
Continuous
 62
     4
100
AcDbCircle
 10
1289.909664122675
 20
1066.241747023866
 30
0.0
 40
1.208333333333357
100
AcDbArc
 50
307.5235132033391
 51
232.4764868046499
  0
ARC
  5
237
330
22
100
AcDbEntity
  8
_2-D_ハッチ他
  6
Continuous
 62
     4
100
AcDbCircle
 10
1291.38162426715
 20
1064.325080357266
 30
0.0
 40
1.208333333333317
100
AcDbArc
 50
127.5235132061069
 51
52.47648680188081
  0
ARC
  5
238
330
22
100
AcDbEntity
  8
_2-D_ハッチ他
  6
Continuous
 62
     4
100
AcDbCircle
 10
1286.965743833993
 20
1066.241747023661
 30
0.0
 40
1.208333333333357
100
AcDbArc
 50
307.5235132033391
 51
232.4764868046499
  0
ARC
  5
239
330
22
100
AcDbEntity
  8
_2-D_ハッチ他
  6
Continuous
 62
     4
100
AcDbCircle
 10
1288.437703978469
 20
1064.325080357059
 30
0.0
 40
1.208333333333317
100
AcDbArc
 50
127.5235132061069
 51
52.47648680188081
  0
ARC
  5
23A
330
22
100
AcDbEntity
  8
_2-D_ハッチ他
  6
Continuous
 62
     4
100
AcDbCircle
 10
1284.02182354531
 20
1066.241747023454
 30
0.0
 40
1.208333333333357
100
AcDbArc
 50
307.5235132033391
 51
232.4764868046499
  0
ARC
  5
23B
330
22
100
AcDbEntity
  8
_2-D_ハッチ他
  6
Continuous
 62
     4
100
AcDbCircle
 10
1285.493783689785
 20
1064.325080356854
 30
0.0
 40
1.208333333333317
100
AcDbArc
 50
127.5235132061069
 51
52.47648680188081
  0
ARC
  5
23C
330
22
100
AcDbEntity
  8
_2-D_ハッチ他
  6
Continuous
 62
     4
100
AcDbCircle
 10
1281.077903256627
 20
1066.24174702325
 30
0.0
 40
1.208333333333357
100
AcDbArc
 50
307.5235132033391
 51
232.4764868046499
  0
ARC
  5
23D
330
22
100
AcDbEntity
  8
_2-D_ハッチ他
  6
Continuous
 62
     4
100
AcDbCircle
 10
1282.549863401101
 20
1064.32508035665
 30
0.0
 40
1.208333333333317
100
AcDbArc
 50
127.5235132061069
 51
52.47648680188081
  0
ARC
  5
23E
330
22
100
AcDbEntity
  8
_2-D_ハッチ他
  6
Continuous
 62
     4
100
AcDbCircle
 10
1278.133982967942
 20
1066.241747023045
 30
0.0
 40
1.208333333333357
100
AcDbArc
 50
307.5235132033391
 51
232.4764868046499
  0
ARC
  5
23F
330
22
100
AcDbEntity
  8
_2-D_ハッチ他
  6
Continuous
 62
     4
100
AcDbCircle
 10
1279.605943112418
 20
1064.325080356445
 30
0.0
 40
1.208333333333317
100
AcDbArc
 50
127.5235132061069
 51
52.47648680188081
  0
ARC
  5
240
330
22
100
AcDbEntity
  8
_2-D_ハッチ他
  6
Continuous
 62
     4
100
AcDbCircle
 10
1275.190062679259
 20
1066.241747022838
 30
0.0
 40
1.208333333333357
100
AcDbArc
 50
307.5235132033391
 51
232.4764868046499
  0
ARC
  5
241
330
22
100
AcDbEntity
  8
_2-D_ハッチ他
  6
Continuous
 62
     4
100
AcDbCircle
 10
1276.662022823733
 20
1064.32508035624
 30
0.0
 40
1.208333333333317
100
AcDbArc
 50
127.5235132061069
 51
52.47648680188081
  0
ARC
  5
242
330
22
100
AcDbEntity
  8
_2-D_ハッチ他
  6
Continuous
 62
     4
100
AcDbCircle
 10
1316.404946720826
 20
1066.241747023866
 30
0.0
 40
1.208333333333357
100
AcDbArc
 50
307.5235132033391
 51
232.4764868046499
  0
ARC
  5
243
330
22
100
AcDbEntity
  8
_2-D_ハッチ他
  6
Continuous
 62
     4
100
AcDbCircle
 10
1317.876906865303
 20
1064.325080357266
 30
0.0
 40
1.208333333333317
100
AcDbArc
 50
127.5235132061069
 51
52.47648680188081
  0
ARC
  5
244
330
22
100
AcDbEntity
  8
_2-D_ハッチ他
  6
Continuous
 62
     4
100
AcDbCircle
 10
1313.461026432143
 20
1066.241747023661
 30
0.0
 40
1.208333333333357
100
AcDbArc
 50
307.5235132033391
 51
232.4764868046499
  0
ARC
  5
245
330
22
100
AcDbEntity
  8
_2-D_ハッチ他
  6
Continuous
 62
     4
100
AcDbCircle
 10
1314.932986576617
 20
1064.325080357059
 30
0.0
 40
1.208333333333317
100
AcDbArc
 50
127.5235132061069
 51
52.47648680188081
  0
ARC
  5
246
330
22
100
AcDbEntity
  8
_2-D_ハッチ他
  6
Continuous
 62
     4
100
AcDbCircle
 10
1310.51710614346
 20
1066.241747023454
 30
0.0
 40
1.208333333333357
100
AcDbArc
 50
307.5235132033391
 51
232.4764868046499
  0
ARC
  5
247
330
22
100
AcDbEntity
  8
_2-D_ハッチ他
  6
Continuous
 62
     4
100
AcDbCircle
 10
1311.989066287934
 20
1064.325080356854
 30
0.0
 40
1.208333333333317
100
AcDbArc
 50
127.5235132061069
 51
52.47648680188081
  0
ARC
  5
248
330
22
100
AcDbEntity
  8
_2-D_ハッチ他
  6
Continuous
 62
     4
100
AcDbCircle
 10
1307.573185854775
 20
1066.24174702325
 30
0.0
 40
1.208333333333357
100
AcDbArc
 50
307.5235132033391
 51
232.4764868046499
  0
ARC
  5
249
330
22
100
AcDbEntity
  8
_2-D_ハッチ他
  6
Continuous
 62
     4
100
AcDbCircle
 10
1309.045145999252
 20
1064.32508035665
 30
0.0
 40
1.208333333333317
100
AcDbArc
 50
127.5235132061069
 51
52.47648680188081
  0
ARC
  5
24A
330
22
100
AcDbEntity
  8
_2-D_ハッチ他
  6
Continuous
 62
     4
100
AcDbCircle
 10
1304.629265566092
 20
1066.241747023045
 30
0.0
 40
1.208333333333357
100
AcDbArc
 50
307.5235132033391
 51
232.4764868046499
  0
ARC
  5
24B
330
22
100
AcDbEntity
  8
_2-D_ハッチ他
  6
Continuous
 62
     4
100
AcDbCircle
 10
1306.101225710567
 20
1064.325080356445
 30
0.0
 40
1.208333333333317
100
AcDbArc
 50
127.5235132061069
 51
52.47648680188081
  0
ARC
  5
24C
330
22
100
AcDbEntity
  8
_2-D_ハッチ他
  6
Continuous
 62
     4
100
AcDbCircle
 10
1301.685345277409
 20
1066.241747022838
 30
0.0
 40
1.208333333333357
100
AcDbArc
 50
307.5235132033391
 51
232.4764868046499
  0
ARC
  5
24D
330
22
100
AcDbEntity
  8
_2-D_ハッチ他
  6
Continuous
 62
     4
100
AcDbCircle
 10
1303.157305421886
 20
1064.32508035624
 30
0.0
 40
1.208333333333317
100
AcDbArc
 50
127.5235132061069
 51
52.47648680188081
  0
ARC
  5
24E
330
22
100
AcDbEntity
  8
_2-D_ハッチ他
  6
Continuous
 62
     4
100
AcDbCircle
 10
1295.797504700043
 20
1066.241747022429
 30
0.0
 40
1.208333333333357
100
AcDbArc
 50
307.5235132033391
 51
232.4764868046499
  0
ARC
  5
24F
330
22
100
AcDbEntity
  8
_2-D_ハッチ他
  6
Continuous
 62
     4
100
AcDbCircle
 10
1298.741424988726
 20
1066.241747022633
 30
0.0
 40
1.208333333333357
100
AcDbArc
 50
307.5235132033391
 51
232.4764868046499
  0
ARC
  5
250
330
22
100
AcDbEntity
  8
_2-D_ハッチ他
  6
Continuous
 62
     4
100
AcDbCircle
 10
1297.269464844518
 20
1064.325080355829
 30
0.0
 40
1.208333333333317
100
AcDbArc
 50
127.5235132061069
 51
52.47648680188081
  0
ARC
  5
251
330
22
100
AcDbEntity
  8
_2-D_ハッチ他
  6
Continuous
 62
     4
100
AcDbCircle
 10
1300.213385133201
 20
1064.325080356036
 30
0.0
 40
1.208333333333317
100
AcDbArc
 50
127.5235132061069
 51
52.47648680188081
  0
ARC
  5
252
330
22
100
AcDbEntity
  8
_2-D_ハッチ他
  6
Continuous
 62
     4
100
AcDbCircle
 10
1294.325544555835
 20
1064.325080355624
 30
0.0
 40
1.208333333333317
100
AcDbArc
 50
127.5235132061069
 51
52.47648680188081
  0
ARC
  5
253
330
22
100
AcDbEntity
  8
_2-D_ハッチ他
  6
Continuous
 62
     4
100
AcDbCircle
 10
1292.853584411358
 20
1066.241747022224
 30
0.0
 40
1.208333333333357
100
AcDbArc
 50
307.5235132033391
 51
232.4764868046499
  0
ARC
  5
254
330
22
100
AcDbEntity
  8
_2-D_ハッチ他
  6
Continuous
 62
     4
100
AcDbCircle
 10
1342.900229318976
 20
1066.241747023866
 30
0.0
 40
1.208333333333357
100
AcDbArc
 50
307.5235132033391
 51
232.4764868046499
  0
ARC
  5
255
330
22
100
AcDbEntity
  8
_2-D_ハッチ他
  6
Continuous
 62
     4
100
AcDbCircle
 10
1344.372189463451
 20
1064.325080357266
 30
0.0
 40
1.208333333333317
100
AcDbArc
 50
127.5235132061069
 51
52.47648680188081
  0
ARC
  5
256
330
22
100
AcDbEntity
  8
_2-D_ハッチ他
  6
Continuous
 62
     4
100
AcDbCircle
 10
1339.956309030293
 20
1066.241747023661
 30
0.0
 40
1.208333333333357
100
AcDbArc
 50
307.5235132033391
 51
232.4764868046499
  0
ARC
  5
257
330
22
100
AcDbEntity
  8
_2-D_ハッチ他
  6
Continuous
 62
     4
100
AcDbCircle
 10
1341.428269174768
 20
1064.325080357059
 30
0.0
 40
1.208333333333317
100
AcDbArc
 50
127.5235132061069
 51
52.47648680188081
  0
ARC
  5
258
330
22
100
AcDbEntity
  8
_2-D_ハッチ他
  6
Continuous
 62
     4
100
AcDbCircle
 10
1337.012388741608
 20
1066.241747023454
 30
0.0
 40
1.208333333333357
100
AcDbArc
 50
307.5235132033391
 51
232.4764868046499
  0
ARC
  5
259
330
22
100
AcDbEntity
  8
_2-D_ハッチ他
  6
Continuous
 62
     4
100
AcDbCircle
 10
1338.484348886085
 20
1064.325080356854
 30
0.0
 40
1.208333333333317
100
AcDbArc
 50
127.5235132061069
 51
52.47648680188081
  0
ARC
  5
25A
330
22
100
AcDbEntity
  8
_2-D_ハッチ他
  6
Continuous
 62
     4
100
AcDbCircle
 10
1334.068468452928
 20
1066.24174702325
 30
0.0
 40
1.208333333333357
100
AcDbArc
 50
307.5235132033391
 51
232.4764868046499
  0
ARC
  5
25B
330
22
100
AcDbEntity
  8
_2-D_ハッチ他
  6
Continuous
 62
     4
100
AcDbCircle
 10
1335.5404285974
 20
1064.32508035665
 30
0.0
 40
1.208333333333317
100
AcDbArc
 50
127.5235132061069
 51
52.47648680188081
  0
ARC
  5
25C
330
22
100
AcDbEntity
  8
_2-D_ハッチ他
  6
Continuous
 62
     4
100
AcDbCircle
 10
1331.124548164243
 20
1066.241747023045
 30
0.0
 40
1.208333333333357
100
AcDbArc
 50
307.5235132033391
 51
232.4764868046499
  0
ARC
  5
25D
330
22
100
AcDbEntity
  8
_2-D_ハッチ他
  6
Continuous
 62
     4
100
AcDbCircle
 10
1332.596508308719
 20
1064.325080356445
 30
0.0
 40
1.208333333333317
100
AcDbArc
 50
127.5235132061069
 51
52.47648680188081
  0
ARC
  5
25E
330
22
100
AcDbEntity
  8
_2-D_ハッチ他
  6
Continuous
 62
     4
100
AcDbCircle
 10
1328.180627875559
 20
1066.241747022838
 30
0.0
 40
1.208333333333357
100
AcDbArc
 50
307.5235132033391
 51
232.4764868046499
  0
ARC
  5
25F
330
22
100
AcDbEntity
  8
_2-D_ハッチ他
  6
Continuous
 62
     4
100
AcDbCircle
 10
1329.652588020034
 20
1064.32508035624
 30
0.0
 40
1.208333333333317
100
AcDbArc
 50
127.5235132061069
 51
52.47648680188081
  0
ARC
  5
260
330
22
100
AcDbEntity
  8
_2-D_ハッチ他
  6
Continuous
 62
     4
100
AcDbCircle
 10
1322.292787298191
 20
1066.241747022429
 30
0.0
 40
1.208333333333357
100
AcDbArc
 50
307.5235132033391
 51
232.4764868046499
  0
ARC
  5
261
330
22
100
AcDbEntity
  8
_2-D_ハッチ他
  6
Continuous
 62
     4
100
AcDbCircle
 10
1325.236707586876
 20
1066.241747022633
 30
0.0
 40
1.208333333333357
100
AcDbArc
 50
307.5235132033391
 51
232.4764868046499
  0
ARC
  5
262
330
22
100
AcDbEntity
  8
_2-D_ハッチ他
  6
Continuous
 62
     4
100
AcDbCircle
 10
1323.764747442668
 20
1064.325080355829
 30
0.0
 40
1.208333333333317
100
AcDbArc
 50
127.5235132061069
 51
52.47648680188081
  0
ARC
  5
263
330
22
100
AcDbEntity
  8
_2-D_ハッチ他
  6
Continuous
 62
     4
100
AcDbCircle
 10
1326.708667731351
 20
1064.325080356036
 30
0.0
 40
1.208333333333317
100
AcDbArc
 50
127.5235132061069
 51
52.47648680188081
  0
ARC
  5
264
330
22
100
AcDbEntity
  8
_2-D_ハッチ他
  6
Continuous
 62
     4
100
AcDbCircle
 10
1320.820827153983
 20
1064.325080355624
 30
0.0
 40
1.208333333333317
100
AcDbArc
 50
127.5235132061069
 51
52.47648680188081
  0
ARC
  5
265
330
22
100
AcDbEntity
  8
_2-D_ハッチ他
  6
Continuous
 62
     4
100
AcDbCircle
 10
1319.348867009509
 20
1066.241747022224
 30
0.0
 40
1.208333333333357
100
AcDbArc
 50
307.5235132033391
 51
232.4764868046499
  0
ARC
  5
266
330
22
100
AcDbEntity
  8
_2-D_ハッチ他
  6
Continuous
 62
     4
100
AcDbCircle
 10
1347.316109752136
 20
1064.325080356854
 30
0.0
 40
1.208333333333317
100
AcDbArc
 50
127.5235132061069
 51
52.47648680188081
  0
ARC
  5
267
330
22
100
AcDbEntity
  8
_2-D_ハッチ他
  6
Continuous
 62
     4
100
AcDbCircle
 10
1345.844149607659
 20
1066.241747023454
 30
0.0
 40
1.208333333333357
100
AcDbArc
 50
307.5235132033391
 51
232.4764868046499
  0
ARC
  5
268
330
22
100
AcDbEntity
  8
_2-D_ハッチ他
  6
Continuous
 62
     4
100
AcDbCircle
 10
1372.339432205807
 20
1066.241747023866
 30
0.0
 40
1.208333333333357
100
AcDbArc
 50
307.5235132033391
 51
232.4764868046499
  0
ARC
  5
269
330
22
100
AcDbEntity
  8
_2-D_ハッチ他
  6
Continuous
 62
     4
100
AcDbCircle
 10
1373.811392350284
 20
1064.325080357266
 30
0.0
 40
1.208333333333317
100
AcDbArc
 50
127.5235132061069
 51
52.47648680188081
  0
ARC
  5
26A
330
22
100
AcDbEntity
  8
_2-D_ハッチ他
  6
Continuous
 62
     4
100
AcDbCircle
 10
1369.395511917127
 20
1066.241747023661
 30
0.0
 40
1.208333333333357
100
AcDbArc
 50
307.5235132033391
 51
232.4764868046499
  0
ARC
  5
26B
330
22
100
AcDbEntity
  8
_2-D_ハッチ他
  6
Continuous
 62
     4
100
AcDbCircle
 10
1370.867472061599
 20
1064.325080357059
 30
0.0
 40
1.208333333333317
100
AcDbArc
 50
127.5235132061069
 51
52.47648680188081
  0
ARC
  5
26C
330
22
100
AcDbEntity
  8
_2-D_ハッチ他
  6
Continuous
 62
     4
100
AcDbCircle
 10
1366.451591628441
 20
1066.241747023454
 30
0.0
 40
1.208333333333357
100
AcDbArc
 50
307.5235132033391
 51
232.4764868046499
  0
ARC
  5
26D
330
22
100
AcDbEntity
  8
_2-D_ハッチ他
  6
Continuous
 62
     4
100
AcDbCircle
 10
1367.923551772918
 20
1064.325080356854
 30
0.0
 40
1.208333333333317
100
AcDbArc
 50
127.5235132061069
 51
52.47648680188081
  0
ARC
  5
26E
330
22
100
AcDbEntity
  8
_2-D_ハッチ他
  6
Continuous
 62
     4
100
AcDbCircle
 10
1363.507671339759
 20
1066.24174702325
 30
0.0
 40
1.208333333333357
100
AcDbArc
 50
307.5235132033391
 51
232.4764868046499
  0
ARC
  5
26F
330
22
100
AcDbEntity
  8
_2-D_ハッチ他
  6
Continuous
 62
     4
100
AcDbCircle
 10
1364.979631484233
 20
1064.32508035665
 30
0.0
 40
1.208333333333317
100
AcDbArc
 50
127.5235132061069
 51
52.47648680188081
  0
ARC
  5
270
330
22
100
AcDbEntity
  8
_2-D_ハッチ他
  6
Continuous
 62
     4
100
AcDbCircle
 10
1360.563751051076
 20
1066.241747023045
 30
0.0
 40
1.208333333333357
100
AcDbArc
 50
307.5235132033391
 51
232.4764868046499
  0
ARC
  5
271
330
22
100
AcDbEntity
  8
_2-D_ハッチ他
  6
Continuous
 62
     4
100
AcDbCircle
 10
1362.03571119555
 20
1064.325080356445
 30
0.0
 40
1.208333333333317
100
AcDbArc
 50
127.5235132061069
 51
52.47648680188081
  0
ARC
  5
272
330
22
100
AcDbEntity
  8
_2-D_ハッチ他
  6
Continuous
 62
     4
100
AcDbCircle
 10
1357.619830762391
 20
1066.241747022838
 30
0.0
 40
1.208333333333357
100
AcDbArc
 50
307.5235132033391
 51
232.4764868046499
  0
ARC
  5
273
330
22
100
AcDbEntity
  8
_2-D_ハッチ他
  6
Continuous
 62
     4
100
AcDbCircle
 10
1359.091790906867
 20
1064.32508035624
 30
0.0
 40
1.208333333333317
100
AcDbArc
 50
127.5235132061069
 51
52.47648680188081
  0
ARC
  5
274
330
22
100
AcDbEntity
  8
_2-D_ハッチ他
  6
Continuous
 62
     4
100
AcDbCircle
 10
1351.731990185025
 20
1066.241747022429
 30
0.0
 40
1.208333333333357
100
AcDbArc
 50
307.5235132033391
 51
232.4764868046499
  0
ARC
  5
275
330
22
100
AcDbEntity
  8
_2-D_ハッチ他
  6
Continuous
 62
     4
100
AcDbCircle
 10
1354.67591047371
 20
1066.241747022633
 30
0.0
 40
1.208333333333357
100
AcDbArc
 50
307.5235132033391
 51
232.4764868046499
  0
ARC
  5
276
330
22
100
AcDbEntity
  8
_2-D_ハッチ他
  6
Continuous
 62
     4
100
AcDbCircle
 10
1353.203950329502
 20
1064.325080355829
 30
0.0
 40
1.208333333333317
100
AcDbArc
 50
127.5235132061069
 51
52.47648680188081
  0
ARC
  5
277
330
22
100
AcDbEntity
  8
_2-D_ハッチ他
  6
Continuous
 62
     4
100
AcDbCircle
 10
1356.147870618182
 20
1064.325080356036
 30
0.0
 40
1.208333333333317
100
AcDbArc
 50
127.5235132061069
 51
52.47648680188081
  0
ARC
  5
278
330
22
100
AcDbEntity
  8
_2-D_ハッチ他
  6
Continuous
 62
     4
100
AcDbCircle
 10
1350.260030040817
 20
1064.325080355624
 30
0.0
 40
1.208333333333317
100
AcDbArc
 50
127.5235132061069
 51
52.47648680188081
  0
ARC
  5
279
330
22
100
AcDbEntity
  8
_2-D_ハッチ他
  6
Continuous
 62
     4
100
AcDbCircle
 10
1348.788069896342
 20
1066.241747022224
 30
0.0
 40
1.208333333333357
100
AcDbArc
 50
307.5235132033391
 51
232.4764868046499
  0
ARC
  5
27A
330
22
100
AcDbEntity
  8
_2-D_ハッチ他
  6
Continuous
 62
     4
100
AcDbCircle
 10
1398.834714803962
 20
1066.241747023866
 30
0.0
 40
1.208333333333357
100
AcDbArc
 50
307.5235132033391
 51
232.4764868046499
  0
ARC
  5
27B
330
22
100
AcDbEntity
  8
_2-D_ハッチ他
  6
Continuous
 62
     4
100
AcDbCircle
 10
1400.306674948437
 20
1064.325080357266
 30
0.0
 40
1.208333333333317
100
AcDbArc
 50
127.5235132061069
 51
52.47648680188081
  0
ARC
  5
27C
330
22
100
AcDbEntity
  8
_2-D_ハッチ他
  6
Continuous
 62
     4
100
AcDbCircle
 10
1395.890794515277
 20
1066.241747023661
 30
0.0
 40
1.208333333333357
100
AcDbArc
 50
307.5235132033391
 51
232.4764868046499
  0
ARC
  5
27D
330
22
100
AcDbEntity
  8
_2-D_ハッチ他
  6
Continuous
 62
     4
100
AcDbCircle
 10
1397.362754659754
 20
1064.325080357059
 30
0.0
 40
1.208333333333317
100
AcDbArc
 50
127.5235132061069
 51
52.47648680188081
  0
ARC
  5
27E
330
22
100
AcDbEntity
  8
_2-D_ハッチ他
  6
Continuous
 62
     4
100
AcDbCircle
 10
1392.946874226594
 20
1066.241747023454
 30
0.0
 40
1.208333333333357
100
AcDbArc
 50
307.5235132033391
 51
232.4764868046499
  0
ARC
  5
27F
330
22
100
AcDbEntity
  8
_2-D_ハッチ他
  6
Continuous
 62
     4
100
AcDbCircle
 10
1394.418834371069
 20
1064.325080356854
 30
0.0
 40
1.208333333333317
100
AcDbArc
 50
127.5235132061069
 51
52.47648680188081
  0
ARC
  5
280
330
22
100
AcDbEntity
  8
_2-D_ハッチ他
  6
Continuous
 62
     4
100
AcDbCircle
 10
1390.002953937909
 20
1066.24174702325
 30
0.0
 40
1.208333333333357
100
AcDbArc
 50
307.5235132033391
 51
232.4764868046499
  0
ARC
  5
281
330
22
100
AcDbEntity
  8
_2-D_ハッチ他
  6
Continuous
 62
     4
100
AcDbCircle
 10
1391.474914082388
 20
1064.32508035665
 30
0.0
 40
1.208333333333317
100
AcDbArc
 50
127.5235132061069
 51
52.47648680188081
  0
ARC
  5
282
330
22
100
AcDbEntity
  8
_2-D_ハッチ他
  6
Continuous
 62
     4
100
AcDbCircle
 10
1387.059033649224
 20
1066.241747023045
 30
0.0
 40
1.208333333333357
100
AcDbArc
 50
307.5235132033391
 51
232.4764868046499
  0
ARC
  5
283
330
22
100
AcDbEntity
  8
_2-D_ハッチ他
  6
Continuous
 62
     4
100
AcDbCircle
 10
1388.530993793701
 20
1064.325080356445
 30
0.0
 40
1.208333333333317
100
AcDbArc
 50
127.5235132061069
 51
52.47648680188081
  0
ARC
  5
284
330
22
100
AcDbEntity
  8
_2-D_ハッチ他
  6
Continuous
 62
     4
100
AcDbCircle
 10
1384.115113360543
 20
1066.241747022838
 30
0.0
 40
1.208333333333357
100
AcDbArc
 50
307.5235132033391
 51
232.4764868046499
  0
ARC
  5
285
330
22
100
AcDbEntity
  8
_2-D_ハッチ他
  6
Continuous
 62
     4
100
AcDbCircle
 10
1385.587073505018
 20
1064.32508035624
 30
0.0
 40
1.208333333333317
100
AcDbArc
 50
127.5235132061069
 51
52.47648680188081
  0
ARC
  5
286
330
22
100
AcDbEntity
  8
_2-D_ハッチ他
  6
Continuous
 62
     4
100
AcDbCircle
 10
1378.227272783175
 20
1066.241747022429
 30
0.0
 40
1.208333333333357
100
AcDbArc
 50
307.5235132033391
 51
232.4764868046499
  0
ARC
  5
287
330
22
100
AcDbEntity
  8
_2-D_ハッチ他
  6
Continuous
 62
     4
100
AcDbCircle
 10
1381.171193071859
 20
1066.241747022633
 30
0.0
 40
1.208333333333357
100
AcDbArc
 50
307.5235132033391
 51
232.4764868046499
  0
ARC
  5
288
330
22
100
AcDbEntity
  8
_2-D_ハッチ他
  6
Continuous
 62
     4
100
AcDbCircle
 10
1379.69923292765
 20
1064.325080355829
 30
0.0
 40
1.208333333333317
100
AcDbArc
 50
127.5235132061069
 51
52.47648680188081
  0
ARC
  5
289
330
22
100
AcDbEntity
  8
_2-D_ハッチ他
  6
Continuous
 62
     4
100
AcDbCircle
 10
1382.643153216335
 20
1064.325080356036
 30
0.0
 40
1.208333333333317
100
AcDbArc
 50
127.5235132061069
 51
52.47648680188081
  0
ARC
  5
28A
330
22
100
AcDbEntity
  8
_2-D_ハッチ他
  6
Continuous
 62
     4
100
AcDbCircle
 10
1376.755312638967
 20
1064.325080355624
 30
0.0
 40
1.208333333333317
100
AcDbArc
 50
127.5235132061069
 51
52.47648680188081
  0
ARC
  5
28B
330
22
100
AcDbEntity
  8
_2-D_ハッチ他
  6
Continuous
 62
     4
100
AcDbCircle
 10
1375.283352494492
 20
1066.241747022224
 30
0.0
 40
1.208333333333357
100
AcDbArc
 50
307.5235132033391
 51
232.4764868046499
  0
ARC
  5
28C
330
22
100
AcDbEntity
  8
_2-D_ハッチ他
  6
Continuous
 62
     4
100
AcDbCircle
 10
1401.778635092643
 20
1066.241747022224
 30
0.0
 40
1.208333333333357
100
AcDbArc
 50
307.5235132033391
 51
232.4764868046499
  0
ARC
  5
28D
330
22
100
AcDbEntity
  8
_2-D_ハッチ他
  6
Continuous
 62
     4
100
AcDbCircle
 10
1207.479896039541
 20
1066.241747023045
 30
0.0
 40
1.208333333333357
100
AcDbArc
 50
87.19091393148408
 51
232.4764868046499
  0
ARC
  5
28E
330
22
100
AcDbEntity
  8
_2-D_ハッチ他
  6
Continuous
 62
     4
100
AcDbCircle
 10
1211.895776472701
 20
1064.32508035665
 30
0.0
 40
1.208333333333317
100
AcDbArc
 50
252.8323434548119
 51
52.47648680188081
  0
LINE
  5
28F
330
22
100
AcDbEntity
  8
_2-7_ビス
  6
Continuous
 62
     7
100
AcDbLine
 10
1211.664115059688
 20
1067.783413684766
 30
0.0
 11
1207.41411341009
 21
1067.783413684766
 31
0.0
  0
LINE
  5
290
330
22
100
AcDbEntity
  8
_2-7_ビス
  6
Continuous
 62
     7
100
AcDbLine
 10
1204.539110110894
 20
1070.658416983965
 30
0.0
 11
1207.41411341009
 21
1067.783413684766
 31
0.0
  0
LINE
  5
291
330
22
100
AcDbEntity
  8
_2-7_ビス
  6
Continuous
 62
     7
100
AcDbLine
 10
1214.539118358888
 20
1070.658416983965
 30
0.0
 11
1204.539110110894
 21
1070.658416983965
 31
0.0
  0
LINE
  5
292
330
22
100
AcDbEntity
  8
_2-7_ビス
  6
Continuous
 62
     7
100
AcDbLine
 10
1204.539110110894
 20
1071.158443377546
 30
0.0
 11
1204.539110110894
 21
1070.658416983965
 31
0.0
  0
LINE
  5
293
330
22
100
AcDbEntity
  8
_2-7_ビス
  6
Continuous
 62
     7
100
AcDbLine
 10
1214.539118358888
 20
1070.658416983965
 30
0.0
 11
1214.539118358888
 21
1071.158443377546
 31
0.0
  0
LINE
  5
294
330
22
100
AcDbEntity
  8
_2-7_ビス
  6
Continuous
 62
     7
100
AcDbLine
 10
1214.539118358888
 20
1071.158443377546
 30
0.0
 11
1204.539110110894
 21
1071.158443377546
 31
0.0
  0
LINE
  5
295
330
22
100
AcDbEntity
  8
_2-7_ビス
  6
Continuous
 62
     7
100
AcDbLine
 10
1214.539118358888
 20
1070.658416983965
 30
0.0
 11
1211.664115059688
 21
1067.783413684766
 31
0.0
  0
ARC
  5
296
330
22
100
AcDbEntity
  8
_2-7_ビス
  6
DASHED3
 62
     7
100
AcDbCircle
 10
1209.539114234889
 20
1069.893976395917
 30
0.0
 40
1.840317539266638
100
AcDbArc
 50
217.1175079345703
 51
322.8824768066406
  0
LINE
  5
297
330
22
100
AcDbEntity
  8
_2-7_ビス
  6
DASHED3
 62
     7
100
AcDbLine
 10
1212.089130071039
 20
1070.658416983965
 30
0.0
 11
1211.006605590991
 21
1068.783392239981
 31
0.0
  0
LINE
  5
298
330
22
100
AcDbEntity
  8
_2-7_ビス
  6
DASHED3
 62
     7
100
AcDbLine
 10
1206.989135514715
 20
1070.658416983965
 30
0.0
 11
1208.07165999476
 21
1068.783392239981
 31
0.0
  0
LINE
  5
299
330
22
100
AcDbEntity
  8
_2-7_ビス
  6
DASHED3
 62
     7
100
AcDbLine
 10
1206.989135514715
 20
1070.658416983965
 30
0.0
 11
1206.989135514715
 21
1071.158443377546
 31
0.0
  0
LINE
  5
29A
330
22
100
AcDbEntity
  8
_2-7_ビス
  6
DASHED3
 62
     7
100
AcDbLine
 10
1212.089130071039
 20
1070.658416983965
 30
0.0
 11
1212.089130071039
 21
1071.158443377546
 31
0.0
  0
LINE
  5
29B
330
22
100
AcDbEntity
  8
_2-7_ビス
  6
Continuous
 62
     7
100
AcDbLine
 10
1211.539114234889
 20
1067.783413684766
 30
0.0
 11
1211.539114234887
 21
1062.783413684766
 31
0.0
  0
LINE
  5
29C
330
22
100
AcDbEntity
  8
_2-7_ビス
  6
Continuous
 62
     7
100
AcDbLine
 10
1207.539114234891
 20
1067.783413684766
 30
0.0
 11
1207.539114234889
 21
1062.783413684766
 31
0.0
  0
LINE
  5
29D
330
22
100
AcDbEntity
  8
_2-6_鋼板__アングル
  6
Continuous
 62
     2
100
AcDbLine
 10
1191.023914390465
 20
1071.183406792934
 30
0.0
 11
1171.573592947765
 21
1071.183401850628
 31
0.0
  0
LINE
  5
29E
330
22
100
AcDbEntity
  8
_2-6_鋼板__アングル
  6
Continuous
 62
     2
100
AcDbLine
 10
1191.573591941036
 20
1071.783404885634
 30
0.0
 11
1171.573564281956
 21
1071.783402173638
 31
0.0
  0
LINE
  5
29F
330
22
100
AcDbEntity
  8
_2-6_鋼板__アングル
  6
Continuous
 62
     2
100
AcDbLine
 10
1170.173578822784
 20
1068.883390417228
 30
0.0
 11
1170.173573091732
 21
1069.783409153217
 31
0.0
  0
LINE
  5
2A0
330
22
100
AcDbEntity
  8
_2-6_鋼板__アングル
  6
Continuous
 62
     2
100
AcDbLine
 10
1169.573615920373
 20
1068.883398560246
 30
0.0
 11
1169.573610189321
 21
1069.783417296232
 31
0.0
  0
LINE
  5
2A1
330
22
100
AcDbEntity
  8
_2-6_鋼板__アングル
  6
Continuous
 62
     2
100
AcDbLine
 10
1166.073599922971
 20
1067.783398327855
 30
0.0
 11
1166.073607465927
 21
1067.883392093942
 31
0.0
  0
LINE
  5
2A2
330
22
100
AcDbEntity
  8
_2-6_鋼板__アングル
  6
Continuous
 62
     2
100
AcDbLine
 10
1169.073608763384
 20
1068.38339321516
 30
0.0
 11
1166.573614622915
 21
1068.383397439028
 31
0.0
  0
LINE
  5
2A3
330
22
100
AcDbEntity
  8
_2-6_鋼板__アングル
  6
Continuous
 62
     2
100
AcDbLine
 10
1169.073563199767
 20
1067.783393503927
 30
0.0
 11
1166.073599922971
 21
1067.783398327855
 31
0.0
  0
LINE
  5
2A4
330
22
100
AcDbEntity
  8
_2-6_鋼板__アングル
  6
Continuous
 62
     2
100
AcDbLine
 10
1221.573596161999
 20
1071.783390702159
 30
0.0
 11
1227.573597250902
 21
1071.783417557237
 31
0.0
  0
LINE
  5
2A5
330
22
100
AcDbEntity
  8
_2-6_鋼板__アングル
  6
Continuous
 62
     2
100
AcDbLine
 10
1191.573591941036
 20
1071.783404885634
 30
0.0
 11
1197.573592724051
 21
1071.783394625997
 31
0.0
  0
LINE
  5
2A6
330
22
100
AcDbEntity
  8
_2-6_鋼板__アングル
  6
Continuous
 62
     2
100
AcDbLine
 10
1200.97356003689
 20
1071.183396421949
 30
0.0
 11
1198.12325337681
 21
1071.183392684451
 31
0.0
  0
LINE
  5
2A7
330
22
100
AcDbEntity
  8
_2-6_鋼板__アングル
  6
Continuous
 62
     2
100
AcDbLine
 10
1201.573568808809
 20
1071.783425104879
 30
0.0
 11
1197.573592724051
 21
1071.783394625997
 31
0.0
  0
LINE
  5
2A8
330
22
100
AcDbEntity
  8
_2-6_鋼板__アングル
  6
Continuous
 62
     2
100
AcDbLine
 10
1217.573620383131
 20
1071.783397337992
 30
0.0
 11
1221.573596161999
 21
1071.783390702159
 31
0.0
  0
LINE
  5
2A9
330
22
100
AcDbEntity
  8
_2-6_鋼板__アングル
  6
Continuous
 62
     2
100
AcDbLine
 10
1218.173612257236
 20
1071.183425986675
 30
0.0
 11
1221.023918611428
 21
1071.183392609459
 31
0.0
  0
LINE
  5
2AA
330
22
100
AcDbEntity
  8
_2-6_鋼板__アングル
  6
Continuous
 62
     2
100
AcDbLine
 10
1227.573597250902
 20
1071.783417557237
 30
0.0
 11
1247.573550680557
 21
1071.78342088101
 31
0.0
  0
LINE
  5
2AB
330
22
100
AcDbEntity
  8
_2-6_鋼板__アングル
  6
Continuous
 62
     2
100
AcDbLine
 10
1228.123257903661
 20
1071.183415615689
 30
0.0
 11
1247.573579346362
 21
1071.183420557997
 31
0.0
  0
LINE
  5
2AC
330
22
100
AcDbEntity
  8
_2-6_鋼板__アングル
  6
Continuous
 62
     2
100
AcDbLine
 10
1250.073583442926
 20
1068.383403474797
 30
0.0
 11
1252.573577583397
 21
1068.383399250928
 31
0.0
  0
LINE
  5
2AD
330
22
100
AcDbEntity
  8
_2-6_鋼板__アングル
  6
Continuous
 62
     2
100
AcDbLine
 10
1253.073575385525
 20
1067.783398327853
 30
0.0
 11
1253.073582928481
 21
1067.88339209394
 31
0.0
  0
LINE
  5
2AE
330
22
100
AcDbEntity
  8
_2-6_鋼板__アングル
  6
Continuous
 62
     2
100
AcDbLine
 10
1249.57357809784
 20
1068.883410631785
 30
0.0
 11
1249.573572060898
 21
1069.783392253059
 31
0.0
  0
LINE
  5
2AF
330
22
100
AcDbEntity
  8
_2-6_鋼板__アングル
  6
Continuous
 62
     2
100
AcDbLine
 10
1248.973615195429
 20
1068.883418774801
 30
0.0
 11
1248.973609158487
 21
1069.783400396074
 31
0.0
  0
ARC
  5
2B0
330
22
100
AcDbEntity
  8
_2-6_鋼板__アングル
  6
Continuous
 62
     2
100
AcDbCircle
 10
1171.573560964042
 20
1069.783414284206
 30
0.0
 40
1.400000018042487
100
AcDbArc
 50
89.99999255792813
 51
179.9999925579281
  0
ARC
  5
2B1
330
22
100
AcDbEntity
  8
_2-6_鋼板__アングル
  6
Continuous
 62
     2
100
AcDbCircle
 10
1171.573560964042
 20
1069.783414284206
 30
0.0
 40
2.000000025774981
100
AcDbArc
 50
89.99999255792813
 51
179.9999925579281
  0
ARC
  5
2B2
330
22
100
AcDbEntity
  8
_2-6_鋼板__アングル
  6
Continuous
 62
     2
100
AcDbCircle
 10
1169.073572554625
 20
1068.883399772087
 30
0.0
 40
1.100000014176239
100
AcDbArc
 50
269.9999925579281
 51
359.9999925579281
  0
ARC
  5
2B3
330
22
100
AcDbEntity
  8
_2-6_鋼板__アングル
  6
Continuous
 62
     2
100
AcDbCircle
 10
1169.073572554625
 20
1068.883399772087
 30
0.0
 40
0.5000000064437455
100
AcDbArc
 50
269.9999925579281
 51
359.9999925579281
  0
ARC
  5
2B4
330
22
100
AcDbEntity
  8
_2-6_鋼板__アングル
  6
Continuous
 62
     2
100
AcDbCircle
 10
1166.573576602249
 20
1067.88339149388
 30
0.0
 40
0.5000000064437455
100
AcDbArc
 50
89.99999255792813
 51
179.9999925579281
  0
ARC
  5
2B5
330
22
100
AcDbEntity
  8
_2-6_鋼板__アングル
  6
Continuous
 62
     2
100
AcDbCircle
 10
1224.573559744684
 20
1071.783422992943
 30
0.0
 40
3.000000038662472
100
AcDbArc
 50
179.9999925579281
 51
359.9999925579281
  0
ARC
  5
2B6
330
22
100
AcDbEntity
  8
_2-6_鋼板__アングル
  6
Continuous
 62
     2
100
AcDbCircle
 10
1224.573559744684
 20
1071.783422992943
 30
0.0
 40
3.600000046394967
100
AcDbArc
 50
189.5940629924984
 51
350.4059221233579
  0
ARC
  5
2B7
330
22
100
AcDbEntity
  8
_2-6_鋼板__アングル
  6
Continuous
 62
     2
100
AcDbCircle
 10
1194.573555217831
 20
1071.783400061706
 30
0.0
 40
3.600000046394967
100
AcDbArc
 50
189.5940629924984
 51
350.4059221233579
  0
ARC
  5
2B8
330
22
100
AcDbEntity
  8
_2-6_鋼板__アングル
  6
Continuous
 62
     2
100
AcDbCircle
 10
1194.573555217831
 20
1071.783400061706
 30
0.0
 40
3.000000038662472
100
AcDbArc
 50
179.9999925579281
 51
359.9999925579281
  0
ARC
  5
2B9
330
22
100
AcDbEntity
  8
_2-6_鋼板__アングル
  6
Continuous
 62
     2
100
AcDbCircle
 10
1247.573621286177
 20
1069.783395265083
 30
0.0
 40
2.000000025774981
100
AcDbArc
 50
359.9999925579281
 51
89.99999255792813
  0
ARC
  5
2BA
330
22
100
AcDbEntity
  8
_2-6_鋼板__アングル
  6
Continuous
 62
     2
100
AcDbCircle
 10
1252.573613792157
 20
1067.883392694002
 30
0.0
 40
0.5000000064437455
100
AcDbArc
 50
359.9999925579281
 51
89.99999255792813
  0
ARC
  5
2BB
330
22
100
AcDbEntity
  8
_2-6_鋼板__アングル
  6
Continuous
 62
     2
100
AcDbCircle
 10
1250.073621463588
 20
1068.883409419943
 30
0.0
 40
0.5000000064437455
100
AcDbArc
 50
179.9999925579281
 51
269.9999925579281
  0
ARC
  5
2BC
330
22
100
AcDbEntity
  8
_2-6_鋼板__アングル
  6
Continuous
 62
     2
100
AcDbCircle
 10
1247.573621286177
 20
1069.783395265083
 30
0.0
 40
1.400000018042487
100
AcDbArc
 50
359.9999925579281
 51
89.99999255792813
  0
ARC
  5
2BD
330
22
100
AcDbEntity
  8
_2-6_鋼板__アングル
  6
Continuous
 62
     2
100
AcDbCircle
 10
1250.073621463588
 20
1068.883409419943
 30
0.0
 40
1.100000014176239
100
AcDbArc
 50
179.9999925579281
 51
269.9999925579281
  0
LINE
  5
2BE
330
22
100
AcDbEntity
  8
_2-6_鋼板__アングル
  6
Continuous
 62
     2
100
AcDbLine
 10
1205.573615171833
 20
1069.783392488347
 30
0.0
 11
1206.573551938467
 21
1068.783415900864
 31
0.0
  0
LINE
  5
2BF
330
22
100
AcDbEntity
  8
_2-6_鋼板__アングル
  6
Continuous
 62
     2
100
AcDbLine
 10
1205.573615171833
 20
1069.783392488347
 30
0.0
 11
1213.573567035456
 21
1069.783416331397
 31
0.0
  0
LINE
  5
2C0
330
22
100
AcDbEntity
  8
_2-6_鋼板__アングル
  6
Continuous
 62
     2
100
AcDbLine
 10
1201.573568787343
 20
1071.783424740105
 30
0.0
 11
1217.573620361667
 21
1071.783396973221
 31
0.0
  0
LINE
  5
2C1
330
22
100
AcDbEntity
  8
_2-6_鋼板__アングル
  6
Continuous
 62
     2
100
AcDbLine
 10
1205.973619223076
 20
1068.534886796576
 30
0.0
 11
1205.973587224151
 21
1067.783411541806
 31
0.0
  0
LINE
  5
2C2
330
22
100
AcDbEntity
  8
_2-6_鋼板__アングル
  6
Continuous
 62
     2
100
AcDbLine
 10
1205.325032666798
 20
1069.183399704806
 30
0.0
 11
1205.973619223076
 21
1068.534886796576
 31
0.0
  0
LINE
  5
2C3
330
22
100
AcDbEntity
  8
_2-6_鋼板__アングル
  6
Continuous
 62
     2
100
AcDbLine
 10
1205.325032666798
 20
1069.183399704806
 30
0.0
 11
1200.973556697508
 21
1069.183408167741
 31
0.0
  0
LINE
  5
2C4
330
22
100
AcDbEntity
  8
_2-6_鋼板__アングル
  6
Continuous
 62
     2
100
AcDbLine
 10
1200.973560015424
 20
1071.183396057176
 30
0.0
 11
1200.973556697508
 21
1069.183408167741
 31
0.0
  0
LINE
  5
2C5
330
22
100
AcDbEntity
  8
_2-6_鋼板__アングル
  6
Continuous
 62
     2
100
AcDbLine
 10
1201.573568787343
 20
1071.783424740105
 30
0.0
 11
1201.573565163539
 21
1069.783399735958
 31
0.0
  0
LINE
  5
2C6
330
22
100
AcDbEntity
  8
_2-6_鋼板__アングル
  6
Continuous
 62
     2
100
AcDbLine
 10
1205.573615171833
 20
1069.783392488347
 30
0.0
 11
1201.573565163539
 21
1069.783399735958
 31
0.0
  0
LINE
  5
2C7
330
22
100
AcDbEntity
  8
_2-6_鋼板__アングル
  6
Continuous
 62
     2
100
AcDbLine
 10
1213.173620346228
 20
1068.53489675384
 30
0.0
 11
1213.173588347302
 21
1067.78342149907
 31
0.0
  0
LINE
  5
2C8
330
22
100
AcDbEntity
  8
_2-6_鋼板__アングル
  6
Continuous
 62
     2
100
AcDbLine
 10
1213.822132642678
 20
1069.183409080692
 30
0.0
 11
1213.173620346228
 21
1068.53489675384
 31
0.0
  0
LINE
  5
2C9
330
22
100
AcDbEntity
  8
_2-6_鋼板__アングル
  6
Continuous
 62
     2
100
AcDbLine
 10
1213.822132642678
 20
1069.183409080692
 30
0.0
 11
1218.173608611968
 21
1069.183400617755
 31
0.0
  0
LINE
  5
2CA
330
22
100
AcDbEntity
  8
_2-6_鋼板__アングル
  6
Continuous
 62
     2
100
AcDbLine
 10
1218.173612235772
 20
1071.183425621902
 30
0.0
 11
1218.173608611968
 21
1069.183400617755
 31
0.0
  0
LINE
  5
2CB
330
22
100
AcDbEntity
  8
_2-6_鋼板__アングル
  6
Continuous
 62
     2
100
AcDbLine
 10
1217.573620361667
 20
1071.783396973221
 30
0.0
 11
1217.573617043748
 21
1069.783409083786
 31
0.0
  0
LINE
  5
2CC
330
22
100
AcDbEntity
  8
_2-6_鋼板__アングル
  6
Continuous
 62
     2
100
AcDbLine
 10
1217.573617043748
 20
1069.783409083786
 30
0.0
 11
1213.573567035456
 21
1069.783416331397
 31
0.0
  0
LINE
  5
2CD
330
22
100
AcDbEntity
  8
_2-6_鋼板__アングル
  6
Continuous
 62
     2
100
AcDbLine
 10
1213.573567035456
 20
1069.783416331397
 30
0.0
 11
1212.573552721482
 21
1068.783405641227
 31
0.0
  0
LINE
  5
2CE
330
22
100
AcDbEntity
  8
_2-6_鋼板__アングル
  6
Continuous
 62
     2
100
AcDbLine
 10
1212.573552721482
 20
1068.783405641227
 30
0.0
 11
1212.573550909577
 21
1067.783393139154
 31
0.0
  0
LINE
  5
2CF
330
22
100
AcDbEntity
  8
_2-6_鋼板__アングル
  6
Continuous
 62
     2
100
AcDbLine
 10
1206.573551938467
 20
1068.783415900864
 30
0.0
 11
1206.573550126562
 21
1067.783403398791
 31
0.0
  0
LINE
  5
2D0
330
22
100
AcDbEntity
  8
_2-6_鋼板__アングル
  6
Continuous
 62
     2
100
AcDbLine
 10
1219.503264828471
 20
1067.783418654054
 30
0.0
 11
1213.173588368769
 21
1067.783421863843
 31
0.0
  0
LINE
  5
2D1
330
22
100
AcDbEntity
  8
_2-6_鋼板__アングル
  6
Continuous
 62
     2
100
AcDbLine
 10
1235.478261589277
 20
1067.783426621049
 30
0.0
 11
1253.073575385525
 21
1067.783398327853
 31
0.0
  0
LINE
  5
2D2
330
22
100
AcDbEntity
  8
_2-6_鋼板__アングル
  6
Continuous
 62
     2
100
AcDbLine
 10
1169.073563199767
 20
1067.783393503927
 30
0.0
 11
1235.478261589277
 21
1067.783426621049
 31
0.0
  0
LINE
  5
2D3
330
22
100
AcDbEntity
  8
_2-4_OUT_LINE
  6
Continuous
 62
     2
100
AcDbLine
 10
1249.920885155951
 20
1076.78342127111
 30
0.0
 11
1255.21098901217
 21
1072.783413684766
 31
0.0
  0
LINE
  5
2D4
330
22
100
AcDbEntity
  8
_2-4_OUT_LINE
  6
Continuous
 62
     2
100
AcDbLine
 10
1169.157325562891
 20
1076.783407849088
 30
0.0
 11
1249.920885155951
 21
1076.78342127111
 31
0.0
  0
LINE
  5
2D5
330
22
100
AcDbEntity
  8
_2-4_OUT_LINE
  6
Continuous
 62
     2
100
AcDbLine
 10
1169.157325562891
 20
1076.783407849088
 30
0.0
 11
1163.867239457612
 21
1072.783413684766
 31
0.0
  0
LINE
  5
2D6
330
22
100
AcDbEntity
  8
_2-4_OUT_LINE
  6
Continuous
 62
     2
100
AcDbLine
 10
1059.539116936988
 20
1072.783413684766
 30
0.0
 11
1059.539115585939
 21
1067.783413684766
 31
0.0
  0
LINE
  5
2D7
330
22
100
AcDbEntity
  8
_2-4_OUT_LINE
  6
Continuous
 62
     2
100
AcDbLine
 10
969.3679591495961
 20
1067.783413684766
 30
0.0
 11
1059.539115585939
 21
1067.783413684766
 31
0.0
  0
LINE
  5
2D8
330
22
100
AcDbEntity
  8
_2-4_OUT_LINE
  6
Continuous
 62
     2
100
AcDbLine
 10
1059.539116936988
 20
1072.783413684766
 30
0.0
 11
1163.867239457612
 21
1072.783413684766
 31
0.0
  0
ARC
  5
2D9
330
22
100
AcDbEntity
  8
_2-1_
  6
Continuous
 62
     4
100
AcDbCircle
 10
830.9641254674229
 20
798.2154404246438
 30
0.0
 40
56.08129991196989
100
AcDbArc
 50
59.3676787552047
 51
120.6323212447958
  0
LINE
  5
2DA
330
22
100
AcDbEntity
  8
_2-A_MOJI
  6
Continuous
 62
     7
100
AcDbLine
 10
1327.835816675228
 20
1105.572292305005
 30
0.0
 11
1288.565153946603
 21
1105.572292305005
 31
0.0
  0
LINE
  5
2DB
330
22
100
AcDbEntity
  8
_2-A_MOJI
  6
Continuous
 62
     7
100
AcDbLine
 10
1327.835816675228
 20
1155.572292305005
 30
0.0
 11
1317.432667406084
 21
1155.572292305005
 31
0.0
  0
LINE
  5
2DC
330
22
100
AcDbEntity
  8
_2-A_MOJI
  6
Continuous
 62
     7
100
AcDbLine
 10
1265.952276033132
 20
1066.40563885352
 30
0.0
 11
1317.432667406084
 21
1155.572292305005
 31
0.0
  0
TEXT
  5
2DD
330
22
100
AcDbEntity
  8
_2-A_MOJI
 62
     7
100
AcDbText
 10
1337.83581667523
 20
1098.072292305005
 30
0.0
 40
15.0
  1
ラジアルシート
100
AcDbText
  0
TEXT
  5
2DE
330
22
100
AcDbEntity
  8
_2-A_MOJI
 62
     7
100
AcDbText
 10
1337.83581667523
 20
1078.072292305005
 30
0.0
 40
15.0
  1
Ｌ６００
100
AcDbText
  0
TEXT
  5
2DF
330
22
100
AcDbEntity
  8
_2-A_MOJI
 62
     7
100
AcDbText
 10
1337.83581667523
 20
1128.072292305005
 30
0.0
 40
15.0
  1
機械的固定工法
100
AcDbText
  0
TEXT
  5
2E0
330
22
100
AcDbEntity
  8
_2-A_MOJI
 62
     7
100
AcDbText
 10
1337.83581667523
 20
1148.072292305005
 30
0.0
 40
15.0
  1
塩ビシート
100
AcDbText
  0
LINE
  5
2E1
330
22
100
AcDbEntity
  8
_2-A_MOJI
  6
Continuous
 62
     7
100
AcDbLine
 10
967.0445872185464
 20
1255.572292305005
 30
0.0
 11
927.6694846980959
 21
1255.572292305005
 31
0.0
  0
LINE
  5
2E2
330
22
100
AcDbEntity
  8
_2-A_MOJI
  6
Continuous
 62
     7
100
AcDbLine
 10
891.4278471794673
 20
1192.799934773245
 30
0.0
 11
927.6694846980959
 21
1255.572292305005
 31
0.0
  0
TEXT
  5
2E3
330
22
100
AcDbEntity
  8
_2-A_MOJI
 62
     7
100
AcDbText
 10
977.0445872185463
 20
1248.072292305005
 30
0.0
 40
15.0
  1
タテドレイン
100
AcDbText
  0
LINE
  5
2E4
330
22
100
AcDbEntity
  8
_2-4_OUT_LINE
  6
Continuous
 62
     2
100
AcDbLine
 10
1255.21098901217
 20
1072.783413684766
 30
0.0
 11
1436.946620867606
 21
1072.783413684766
 31
0.0
  0
ARC
  5
2E5
330
22
100
AcDbEntity
  8
_2-D_ハッチ他
  6
Continuous
 62
     4
100
AcDbCircle
 10
1416.498236536062
 20
1066.241747023866
 30
0.0
 40
1.208333333333357
100
AcDbArc
 50
307.5235132033391
 51
232.4764868046499
  0
ARC
  5
2E6
330
22
100
AcDbEntity
  8
_2-D_ハッチ他
  6
Continuous
 62
     4
100
AcDbCircle
 10
1417.970196680536
 20
1064.325080357266
 30
0.0
 40
1.208333333333317
100
AcDbArc
 50
127.5235132061069
 51
52.47648680188081
  0
ARC
  5
2E7
330
22
100
AcDbEntity
  8
_2-D_ハッチ他
  6
Continuous
 62
     4
100
AcDbCircle
 10
1413.554316247379
 20
1066.241747023661
 30
0.0
 40
1.208333333333357
100
AcDbArc
 50
307.5235132033391
 51
232.4764868046499
  0
ARC
  5
2E8
330
22
100
AcDbEntity
  8
_2-D_ハッチ他
  6
Continuous
 62
     4
100
AcDbCircle
 10
1415.026276391853
 20
1064.325080357059
 30
0.0
 40
1.208333333333317
100
AcDbArc
 50
127.5235132061069
 51
52.47648680188081
  0
ARC
  5
2E9
330
22
100
AcDbEntity
  8
_2-D_ハッチ他
  6
Continuous
 62
     4
100
AcDbCircle
 10
1410.610395958693
 20
1066.241747023454
 30
0.0
 40
1.208333333333357
100
AcDbArc
 50
307.5235132033391
 51
232.4764868046499
  0
ARC
  5
2EA
330
22
100
AcDbEntity
  8
_2-D_ハッチ他
  6
Continuous
 62
     4
100
AcDbCircle
 10
1412.08235610317
 20
1064.325080356854
 30
0.0
 40
1.208333333333317
100
AcDbArc
 50
127.5235132061069
 51
52.47648680188081
  0
ARC
  5
2EB
330
22
100
AcDbEntity
  8
_2-D_ハッチ他
  6
Continuous
 62
     4
100
AcDbCircle
 10
1407.666475670013
 20
1066.24174702325
 30
0.0
 40
1.208333333333357
100
AcDbArc
 50
307.5235132033391
 51
232.4764868046499
  0
ARC
  5
2EC
330
22
100
AcDbEntity
  8
_2-D_ハッチ他
  6
Continuous
 62
     4
100
AcDbCircle
 10
1409.138435814485
 20
1064.32508035665
 30
0.0
 40
1.208333333333317
100
AcDbArc
 50
127.5235132061069
 51
52.47648680188081
  0
ARC
  5
2ED
330
22
100
AcDbEntity
  8
_2-D_ハッチ他
  6
Continuous
 62
     4
100
AcDbCircle
 10
1404.722555381328
 20
1066.241747023045
 30
0.0
 40
1.208333333333357
100
AcDbArc
 50
307.5235132033391
 51
232.4764868046499
  0
ARC
  5
2EE
330
22
100
AcDbEntity
  8
_2-D_ハッチ他
  6
Continuous
 62
     4
100
AcDbCircle
 10
1406.194515525805
 20
1064.325080356445
 30
0.0
 40
1.208333333333317
100
AcDbArc
 50
127.5235132061069
 51
52.47648680188081
  0
ARC
  5
2EF
330
22
100
AcDbEntity
  8
_2-D_ハッチ他
  6
Continuous
 62
     4
100
AcDbCircle
 10
1403.25059523712
 20
1064.32508035624
 30
0.0
 40
1.208333333333317
100
AcDbArc
 50
127.5235132061069
 51
52.47648680188081
  0
ARC
  5
2F0
330
22
100
AcDbEntity
  8
_2-D_ハッチ他
  6
Continuous
 62
     4
100
AcDbCircle
 10
1420.914116969221
 20
1064.325080356854
 30
0.0
 40
1.208333333333317
100
AcDbArc
 50
127.5235132061069
 51
52.47648680188081
  0
ARC
  5
2F1
330
22
100
AcDbEntity
  8
_2-D_ハッチ他
  6
Continuous
 62
     4
100
AcDbCircle
 10
1419.442156824745
 20
1066.241747023454
 30
0.0
 40
1.208333333333357
100
AcDbArc
 50
307.5235132033391
 51
232.4764868046499
  0
ARC
  5
2F2
330
22
100
AcDbEntity
  8
_2-D_ハッチ他
  6
Continuous
 62
     4
100
AcDbCircle
 10
1437.105678556847
 20
1066.24174702325
 30
0.0
 40
1.208333333333357
100
AcDbArc
 50
307.5235132033391
 51
232.4764868046499
  0
ARC
  5
2F3
330
22
100
AcDbEntity
  8
_2-D_ハッチ他
  6
Continuous
 62
     4
100
AcDbCircle
 10
1434.161758268161
 20
1066.241747023045
 30
0.0
 40
1.208333333333357
100
AcDbArc
 50
307.5235132033391
 51
232.4764868046499
  0
ARC
  5
2F4
330
22
100
AcDbEntity
  8
_2-D_ハッチ他
  6
Continuous
 62
     4
100
AcDbCircle
 10
1435.633718412638
 20
1064.325080356445
 30
0.0
 40
1.208333333333317
100
AcDbArc
 50
127.5235132061069
 51
52.47648680188081
  0
ARC
  5
2F5
330
22
100
AcDbEntity
  8
_2-D_ハッチ他
  6
Continuous
 62
     4
100
AcDbCircle
 10
1431.217837979478
 20
1066.241747022838
 30
0.0
 40
1.208333333333357
100
AcDbArc
 50
307.5235132033391
 51
232.4764868046499
  0
ARC
  5
2F6
330
22
100
AcDbEntity
  8
_2-D_ハッチ他
  6
Continuous
 62
     4
100
AcDbCircle
 10
1432.689798123953
 20
1064.32508035624
 30
0.0
 40
1.208333333333317
100
AcDbArc
 50
127.5235132061069
 51
52.47648680188081
  0
ARC
  5
2F7
330
22
100
AcDbEntity
  8
_2-D_ハッチ他
  6
Continuous
 62
     4
100
AcDbCircle
 10
1425.32999740211
 20
1066.241747022429
 30
0.0
 40
1.208333333333357
100
AcDbArc
 50
307.5235132033391
 51
232.4764868046499
  0
ARC
  5
2F8
330
22
100
AcDbEntity
  8
_2-D_ハッチ他
  6
Continuous
 62
     4
100
AcDbCircle
 10
1428.273917690796
 20
1066.241747022633
 30
0.0
 40
1.208333333333357
100
AcDbArc
 50
307.5235132033391
 51
232.4764868046499
  0
ARC
  5
2F9
330
22
100
AcDbEntity
  8
_2-D_ハッチ他
  6
Continuous
 62
     4
100
AcDbCircle
 10
1426.801957546587
 20
1064.325080355829
 30
0.0
 40
1.208333333333317
100
AcDbArc
 50
127.5235132061069
 51
52.47648680188081
  0
ARC
  5
2FA
330
22
100
AcDbEntity
  8
_2-D_ハッチ他
  6
Continuous
 62
     4
100
AcDbCircle
 10
1429.74587783527
 20
1064.325080356036
 30
0.0
 40
1.208333333333317
100
AcDbArc
 50
127.5235132061069
 51
52.47648680188081
  0
ARC
  5
2FB
330
22
100
AcDbEntity
  8
_2-D_ハッチ他
  6
Continuous
 62
     4
100
AcDbCircle
 10
1423.858037257904
 20
1064.325080355624
 30
0.0
 40
1.208333333333317
100
AcDbArc
 50
127.5235132061069
 51
52.47648680188081
  0
ARC
  5
2FC
330
22
100
AcDbEntity
  8
_2-D_ハッチ他
  6
Continuous
 62
     4
100
AcDbCircle
 10
1422.38607711343
 20
1066.241747022224
 30
0.0
 40
1.208333333333357
100
AcDbArc
 50
307.5235132033391
 51
232.4764868046499
  0
LINE
  5
2FD
330
22
100
AcDbEntity
  8
_2-4_OUT_LINE
  6
Continuous
 62
     2
100
AcDbLine
 10
749.7105192186076
 20
1067.783473038359
 30
0.0
 11
686.9466208676056
 21
1067.7835069572
 31
0.0
  0
LINE
  5
2FE
330
22
100
AcDbEntity
  8
_2-E_CON他
  6
Continuous
 62
     4
100
AcDbLine
 10
1312.381417296305
 20
912.7834136847667
 30
0.0
 11
1436.946620867606
 21
1037.348617256068
 31
0.0
  0
LINE
  5
2FF
330
22
100
AcDbEntity
  8
_2-E_CON他
  6
Continuous
 62
     4
100
AcDbLine
 10
1319.452485108169
 20
912.7834136847667
 30
0.0
 11
1436.946620867606
 21
1030.277549444201
 31
0.0
  0
LINE
  5
300
330
22
100
AcDbEntity
  8
_2-E_CON他
  6
Continuous
 62
     4
100
AcDbLine
 10
1326.523552920033
 20
912.7834136847667
 30
0.0
 11
1436.946620867606
 21
1023.206481632336
 31
0.0
  0
LINE
  5
301
330
22
100
AcDbEntity
  8
_2-E_CON他
  6
Continuous
 62
     4
100
AcDbLine
 10
1126.523552920033
 20
912.7834136847667
 30
0.0
 11
1276.523552920033
 21
1062.783413684766
 31
0.0
  0
LINE
  5
302
330
22
100
AcDbEntity
  8
_2-E_CON他
  6
Continuous
 62
     4
100
AcDbLine
 10
1112.381417296305
 20
912.7834136847667
 30
0.0
 11
1262.381417296305
 21
1062.783413684766
 31
0.0
  0
LINE
  5
303
330
22
100
AcDbEntity
  8
_2-E_CON他
  6
Continuous
 62
     4
100
AcDbLine
 10
1119.452485108169
 20
912.7834136847667
 30
0.0
 11
1269.452485108169
 21
1062.783413684766
 31
0.0
  0
LINE
  5
304
330
22
100
AcDbEntity
  8
_2-E_CON他
  6
Continuous
 62
     4
100
AcDbLine
 10
686.9466208676056
 20
964.332865339465
 30
0.0
 11
771.1946995939313
 21
1048.58094406579
 31
0.0
  0
LINE
  5
305
330
22
100
AcDbEntity
  8
_2-E_CON他
  6
Continuous
 62
     4
100
AcDbLine
 10
686.9466208676056
 20
971.4039331513294
 30
0.0
 11
768.6937566443464
 21
1053.15106892807
 31
0.0
  0
LINE
  5
306
330
22
100
AcDbEntity
  8
_2-E_CON他
  6
Continuous
 62
     4
100
AcDbLine
 10
686.9466208676056
 20
978.4750009631938
 30
0.0
 11
763.2970664360588
 21
1054.825446531647
 31
0.0
  0
LINE
  5
307
330
22
100
AcDbEntity
  8
_2-E_CON他
  6
Continuous
 62
     4
100
AcDbLine
 10
929.5391205289492
 20
929.941116917409
 30
0.0
 11
1062.381417296305
 21
1062.783413684766
 31
0.0
  0
LINE
  5
308
330
22
100
AcDbEntity
  8
_2-E_CON他
  6
Continuous
 62
     4
100
AcDbLine
 10
929.5391205289492
 20
922.8700491055445
 30
0.0
 11
1069.452485108169
 21
1062.783413684766
 31
0.0
  0
LINE
  5
309
330
22
100
AcDbEntity
  8
_2-E_CON他
  6
Continuous
 62
     4
100
AcDbLine
 10
929.5391205289492
 20
915.7989812936801
 30
0.0
 11
1076.523552920033
 21
1062.783413684766
 31
0.0
  0
LINE
  5
30A
330
22
100
AcDbEntity
  8
_2-D_ハッチ他
  6
Continuous
 62
     4
100
AcDbLine
 10
980.3838730344216
 20
1054.786898912279
 30
0.0
 11
982.0391944663256
 21
1056.442220344185
 31
0.0
  0
LINE
  5
30B
330
22
100
AcDbEntity
  8
_2-D_ハッチ他
  6
Continuous
 62
     4
100
AcDbLine
 10
976.8483391284883
 20
1054.786898912279
 30
0.0
 11
982.0391944663256
 21
1059.977754250119
 31
0.0
  0
LINE
  5
30C
330
22
100
AcDbEntity
  8
_2-D_ハッチ他
  6
Continuous
 62
     4
100
AcDbLine
 10
973.3128052225552
 20
1054.786898912281
 30
0.0
 11
981.3093199950404
 21
1062.783413684766
 31
0.0
  0
LINE
  5
30D
330
22
100
AcDbEntity
  8
_2-D_ハッチ他
  6
Continuous
 62
     4
100
AcDbLine
 10
971.7878541268525
 20
1056.797481722512
 30
0.0
 11
977.773786089107
 21
1062.783413684766
 31
0.0
  0
LINE
  5
30E
330
22
100
AcDbEntity
  8
_2-D_ハッチ他
  6
Continuous
 62
     4
100
AcDbLine
 10
971.3949927282431
 20
1059.940154229836
 30
0.0
 11
974.2382521831737
 21
1062.783413684766
 31
0.0
  0
LINE
  5
30F
330
22
100
AcDbEntity
  8
_2-D_ハッチ他
  6
Continuous
 62
     4
100
AcDbLine
 10
918.35477557578
 20
1040.487509183735
 30
0.0
 11
921.2613314445423
 21
1043.394065052497
 31
0.0
  0
LINE
  5
310
330
22
100
AcDbEntity
  8
_2-D_ハッチ他
  6
Continuous
 62
     4
100
AcDbLine
 10
916.3664123767981
 20
1040.266912937716
 30
0.0
 11
920.9957425007852
 21
1044.8962430617
 31
0.0
  0
LINE
  5
311
330
22
100
AcDbEntity
  8
_2-D_ハッチ他
  6
Continuous
 62
     4
100
AcDbLine
 10
916.1174117015608
 20
1041.785679215447
 30
0.0
 11
919.2279755478114
 21
1044.8962430617
 31
0.0
  0
LINE
  5
312
330
22
100
AcDbEntity
  8
_2-D_ハッチ他
  6
Continuous
 62
     4
100
AcDbLine
 10
916.2703754721896
 20
1043.70640993904
 30
0.0
 11
917.4602085948542
 21
1044.896243061702
 31
0.0
  0
LINE
  5
313
330
22
100
AcDbEntity
  8
_2-D_ハッチ他
  6
Continuous
 62
     4
100
AcDbLine
 10
738.6945792730024
 20
1054.786964219094
 30
0.0
 11
737.039258735664
 21
1056.442286545568
 31
0.0
  0
LINE
  5
314
330
22
100
AcDbEntity
  8
_2-D_ハッチ他
  6
Continuous
 62
     4
100
AcDbLine
 10
742.2301131789359
 20
1054.786962308423
 30
0.0
 11
737.0392606463374
 21
1059.977820451501
 31
0.0
  0
LINE
  5
315
330
22
100
AcDbEntity
  8
_2-D_ハッチ他
  6
Continuous
 62
     4
100
AcDbLine
 10
745.7656470848669
 20
1054.786960397752
 30
0.0
 11
737.7691366338548
 21
1062.783479491711
 31
0.0
  0
LINE
  5
316
330
22
100
AcDbEntity
  8
_2-D_ハッチ他
  6
Continuous
 62
     4
100
AcDbLine
 10
747.290599267127
 20
1056.797542383869
 30
0.0
 11
741.3046705397881
 21
1062.783477581039
 31
0.0
  0
LINE
  5
317
330
22
100
AcDbEntity
  8
_2-D_ハッチ他
  6
Continuous
 62
     4
100
AcDbLine
 10
747.6834623640995
 20
1059.940214678883
 30
0.0
 11
744.8402044457216
 21
1062.783475670369
 31
0.0
  0
LINE
  5
318
330
22
100
AcDbEntity
  8
_2-D_ハッチ他
  6
Continuous
 62
     4
100
AcDbLine
 10
795.5412100029243
 20
1051.847382913167
 30
0.0
 11
798.1016452817324
 21
1049.286947634357
 31
0.0
  0
LINE
  5
319
330
22
100
AcDbEntity
  8
_2-D_ハッチ他
  6
Continuous
 62
     4
100
AcDbLine
 10
795.8324065105571
 20
1053.323953358496
 30
0.0
 11
799.8694122346925
 21
1049.286947634361
 31
0.0
  0
LINE
  5
31A
330
22
100
AcDbEntity
  8
_2-D_ハッチ他
  6
Continuous
 62
     4
100
AcDbLine
 10
796.1236030181899
 20
1054.800523803835
 30
0.0
 11
800.5391146964385
 21
1050.385012125586
 31
0.0
  0
LINE
  5
31B
330
22
100
AcDbEntity
  8
_2-D_ハッチ他
  6
Continuous
 62
     4
100
AcDbLine
 10
798.0053318802621
 20
1054.686561894724
 30
0.0
 11
800.5391146964385
 21
1052.152779078548
 31
0.0
  0
LINE
  5
31C
330
22
100
AcDbEntity
  8
_2-A_MOJI
  6
Continuous
 62
     7
100
AcDbLine
 10
977.967363404406
 20
1057.863763681477
 30
0.0
 11
1014.179188963845
 21
995.1430419777027
 31
0.0
  0
LINE
  5
31D
330
22
100
AcDbEntity
  8
_2-A_MOJI
  6
Continuous
 62
     7
100
AcDbLine
 10
919.3661015687453
 20
1042.480932449618
 30
0.0
 11
946.6966453755743
 21
995.1430419777027
 31
0.0
  0
LINE
  5
31E
330
22
100
AcDbEntity
  8
_2-3_
  6
Continuous
 62
     3
100
AcDbLine
 10
916.6891994534161
 20
912.7834136847667
 30
0.0
 11
1436.946620867606
 21
912.7834136847667
 31
0.0
  0
LINE
  5
31F
330
22
100
AcDbEntity
  8
_2-3_
  6
Continuous
 62
     3
100
AcDbLine
 10
802.389195149732
 20
912.7834136847667
 30
0.0
 11
686.9466208676056
 21
912.7834136847667
 31
0.0
  0
POINT
  5
320
330
22
100
AcDbEntity
  8
_2-B_DIM
 62
     1
100
AcDbPoint
 10
1059.539115585939
 20
1019.916056876827
 30
0.0
  0
LINE
  5
321
330
22
100
AcDbEntity
  8
_2-B_DIM
  6
Continuous
 62
     7
100
AcDbLine
 10
1059.539115585939
 20
1019.916056876827
 30
0.0
 11
1059.539115585939
 21
1051.379396263709
 31
0.0
  0
POINT
  5
322
330
22
100
AcDbEntity
  8
_2-B_DIM
 62
     1
100
AcDbPoint
 10
1100.275700830096
 20
1019.916056876827
 30
0.0
  0
LINE
  5
323
330
22
100
AcDbEntity
  8
_2-B_DIM
  6
Continuous
 62
     7
100
AcDbLine
 10
1100.275700830096
 20
1019.916056876827
 30
0.0
 11
1100.275700830096
 21
1051.379396263709
 31
0.0
  0
LINE
  5
324
330
22
100
AcDbEntity
  8
_2-B_DIM
  6
Continuous
 62
     7
100
AcDbLine
 10
1059.539115585939
 20
1019.916056876827
 30
0.0
 11
1100.275700830096
 21
1019.916056876827
 31
0.0
  0
ARC
  5
325
330
22
100
AcDbEntity
  8
_2-3_
  6
Continuous
 62
     3
100
AcDbCircle
 10
888.1140121809735
 20
894.726264936159
 30
0.0
 40
56.08129991196989
100
AcDbArc
 50
239.3676477914423
 51
300.6322902810333
  0
ARC
  5
326
330
22
100
AcDbEntity
  8
_2-3_
  6
Continuous
 62
     3
100
AcDbCircle
 10
830.9641254674229
 20
894.7262803786175
 30
0.0
 40
56.08129991196989
100
AcDbArc
 50
239.3676787552042
 51
300.6323212447953
  0
LINE
  5
327
330
22
100
AcDbEntity
  8
_2-1_
  6
Continuous
 62
     4
100
AcDbLine
 10
916.6891994534161
 20
983.9621130537732
 30
0.0
 11
916.6891994534161
 21
912.7834136847667
 31
0.0
  0
LINE
  5
328
330
22
100
AcDbEntity
  8
_2-1_
  6
Continuous
 62
     4
100
AcDbLine
 10
802.389195149732
 20
983.9621130537732
 30
0.0
 11
802.389195149732
 21
912.7834136847667
 31
0.0
  0
LINE
  5
329
330
22
100
AcDbEntity
  8
_2-3_
  6
Continuous
 62
     3
100
AcDbLine
 10
802.389195149732
 20
912.7834136847667
 30
0.0
 11
802.389195149732
 21
846.4708604016294
 31
0.0
  0
LINE
  5
32A
330
22
100
AcDbEntity
  8
_2-3_
  6
Continuous
 62
     3
100
AcDbLine
 10
916.6891994534161
 20
912.7834136847667
 30
0.0
 11
916.6891994534161
 21
846.4708604016294
 31
0.0
  0
LINE
  5
32B
330
22
100
AcDbEntity
  8
_2-1_
  6
Continuous
 62
     4
100
AcDbLine
 10
806.8891046132662
 20
1028.18691384115
 30
0.0
 11
806.8891046132662
 21
848.8662604642851
 31
0.0
  0
LINE
  5
32C
330
22
100
AcDbEntity
  8
_2-1_
  6
Continuous
 62
     4
100
AcDbLine
 10
912.1891041890844
 20
1028.18691384115
 30
0.0
 11
912.1891041890844
 21
844.0754787170153
 31
0.0
  0
LINE
  5
32D
330
22
100
AcDbEntity
  8
_2-4_OUT_LINE
  6
Continuous
 62
     2
100
AcDbLine
 10
969.3679591495961
 20
1067.783413684766
 30
0.0
 11
962.0391535938383
 21
1065.819684780371
 31
0.0
  0
LINE
  5
32E
330
22
100
AcDbEntity
  8
_2-4_OUT_LINE
  6
Continuous
 62
     2
100
AcDbLine
 10
944.5391903423265
 20
1061.130590846971
 30
0.0
 11
962.0391479240733
 21
1065.819707453813
 31
0.0
  0
LINE
  5
32F
330
22
100
AcDbEntity
  8
_2-4_OUT_LINE
  6
Continuous
 62
     2
100
AcDbLine
 10
941.5391268327736
 20
1059.809175590164
 30
0.0
 11
943.5390246607463
 21
1060.345025084065
 31
0.0
  0
LINE
  5
330
330
22
100
AcDbEntity
  8
_2-4_OUT_LINE
  6
Continuous
 62
     2
100
AcDbLine
 10
943.5390246607463
 20
1060.345025084065
 30
0.0
 11
944.5391903423265
 21
1061.130590846971
 31
0.0
  0
LINE
  5
331
330
22
100
AcDbEntity
  8
_2-4_OUT_LINE
  6
Continuous
 62
     2
100
AcDbLine
 10
941.5391268327736
 20
1059.809175590164
 30
0.0
 11
940.5390850183893
 21
1060.058644124771
 31
0.0
  0
LINE
  5
332
330
22
100
AcDbEntity
  8
_2-4_OUT_LINE
  6
Continuous
 62
     2
100
AcDbLine
 10
922.8522118364812
 20
1055.319732904767
 30
0.0
 11
940.5390850183893
 21
1060.058644124771
 31
0.0
  0
ARC
  5
333
330
22
100
AcDbEntity
  8
_2-4_OUT_LINE
  6
Continuous
 62
     2
100
AcDbCircle
 10
924.5983057779554
 20
1047.505241873773
 30
0.0
 40
8.000000366315418
100
AcDbArc
 50
105.0000915527344
 51
175.4457550048828
  0
LINE
  5
334
330
22
100
AcDbEntity
  8
_2-4_OUT_LINE
  6
Continuous
 62
     2
100
AcDbLine
 10
915.9931619004341
 20
1040.225503172159
 30
0.0
 11
916.6234987404109
 21
1048.140497224507
 31
0.0
  0
LINE
  5
335
330
22
100
AcDbEntity
  8
_2-4_OUT_LINE
  6
Continuous
 62
     2
100
AcDbLine
 10
750.4742289981859
 20
1067.578724572481
 30
0.0
 11
757.0391299356414
 21
1065.819735952404
 31
0.0
  0
LINE
  5
336
330
22
100
AcDbEntity
  8
_2-4_OUT_LINE
  6
Continuous
 62
     2
100
AcDbLine
 10
774.539080393621
 20
1061.130590846971
 30
0.0
 11
757.0391228118765
 21
1065.819707453813
 31
0.0
  0
LINE
  5
337
330
22
100
AcDbEntity
  8
_2-4_OUT_LINE
  6
Continuous
 62
     2
100
AcDbLine
 10
775.5391841416044
 20
1060.345025084065
 30
0.0
 11
774.539080393621
 21
1061.130590846971
 31
0.0
  0
LINE
  5
338
330
22
100
AcDbEntity
  8
_2-4_OUT_LINE
  6
Continuous
 62
     2
100
AcDbLine
 10
777.5391439031741
 20
1059.809175590164
 30
0.0
 11
775.5391841416044
 21
1060.345025084065
 31
0.0
  0
LINE
  5
339
330
22
100
AcDbEntity
  8
_2-4_OUT_LINE
  6
Continuous
 62
     2
100
AcDbLine
 10
777.5391439031741
 20
1059.809175590164
 30
0.0
 11
778.5391237839611
 21
1060.058644124771
 31
0.0
  0
LINE
  5
33A
330
22
100
AcDbEntity
  8
_2-4_OUT_LINE
  6
Continuous
 62
     2
100
AcDbLine
 10
796.2259969658694
 20
1055.319732904767
 30
0.0
 11
778.5391237839611
 21
1060.058644124771
 31
0.0
  0
ARC
  5
33B
330
22
100
AcDbEntity
  8
_2-4_OUT_LINE
  6
Continuous
 62
     2
100
AcDbCircle
 10
794.4799030243952
 20
1047.505241873773
 30
0.0
 40
8.000000366315418
100
AcDbArc
 50
40.76435434552685
 51
74.99990844726562
  0
LINE
  5
33C
330
22
100
AcDbEntity
  8
_2-A_MOJI
  6
Continuous
 62
     7
100
AcDbLine
 10
1210.909942485699
 20
1020.545085366963
 30
0.0
 11
1225.575819074455
 21
995.1430419777027
 31
0.0
  0
LINE
  5
33D
330
22
100
AcDbEntity
  8
_2-A_MOJI
  6
Continuous
 62
     7
100
AcDbLine
 10
1253.359938181376
 20
995.1430419777027
 30
0.0
 11
1225.575819074455
 21
995.1430419777027
 31
0.0
  0
LINE
  5
33E
330
22
100
AcDbEntity
  8
_2-2_IN_LINE
  6
Continuous
 62
     7
100
AcDbLine
 10
749.1801827020948
 20
1062.749082330703
 30
0.0
 11
795.2563645483284
 21
1050.402991078664
 31
0.0
  0
LINE
  5
33F
330
22
100
AcDbEntity
  8
_2-2_IN_LINE
  6
Continuous
 62
     7
100
AcDbLine
 10
969.8980880338572
 20
1062.749082330703
 30
0.0
 11
931.1375028380862
 21
1052.36331333722
 31
0.0
  0
LINE
  5
340
330
22
100
AcDbEntity
  8
_2-2_IN_LINE
  6
Continuous
 62
     7
100
AcDbLine
 10
796.2259969658694
 20
1055.319732904767
 30
0.0
 11
795.2563648848617
 21
1050.403018465772
 31
0.0
  0
LINE
  5
341
330
22
100
AcDbEntity
  8
_2-2_IN_LINE
  6
Continuous
 62
     7
100
AcDbLine
 10
916.3651317847886
 20
1044.896243061702
 30
0.0
 11
921.3809623795933
 21
1044.896243061702
 31
0.0
  0
LINE
  5
342
330
22
100
AcDbEntity
  8
_2-2_IN_LINE
  6
Continuous
 62
     7
100
AcDbLine
 10
972.0391944663257
 20
1054.786898912281
 30
0.0
 11
982.0391944663256
 21
1054.786898912281
 31
0.0
  0
LINE
  5
343
330
22
100
AcDbEntity
  8
_2-2_IN_LINE
  6
Continuous
 62
     7
100
AcDbLine
 10
982.0391944663256
 20
1054.786898912281
 30
0.0
 11
982.0391944663256
 21
1062.783413684766
 31
0.0
  0
LINE
  5
344
330
22
100
AcDbEntity
  8
_2-2_IN_LINE
  6
Continuous
 62
     7
100
AcDbLine
 10
1100.275702181146
 20
1067.783413684766
 30
0.0
 11
1100.275700830096
 21
1062.783413684766
 31
0.0
  0
LINE
  5
345
330
22
100
AcDbEntity
  8
_2-2_IN_LINE
  6
Continuous
 62
     7
100
AcDbLine
 10
1248.243345579022
 20
1071.783420970896
 30
0.0
 11
1253.533449038199
 21
1067.783413684766
 31
0.0
  0
LINE
  5
346
330
22
100
AcDbEntity
  8
_2-2_IN_LINE
  6
Continuous
 62
     7
100
AcDbLine
 10
1170.834882890757
 20
1071.783420970896
 30
0.0
 11
1165.544779431578
 21
1067.783413684766
 31
0.0
  0
LINE
  5
347
330
22
100
AcDbEntity
  8
_2-2_IN_LINE
  6
Continuous
 62
     7
100
AcDbLine
 10
1065.53624900392
 20
1072.783413684766
 30
0.0
 11
1065.518030216396
 21
1072.914318631448
 31
0.0
  0
LINE
  5
348
330
22
100
AcDbEntity
  8
_2-2_IN_LINE
  6
Continuous
 62
     7
100
AcDbLine
 10
1065.518030216396
 20
1072.914318631448
 30
0.0
 11
1065.484963436737
 21
1073.139392566467
 31
0.0
  0
LINE
  5
349
330
22
100
AcDbEntity
  8
_2-2_IN_LINE
  6
Continuous
 62
     7
100
AcDbLine
 10
1065.484963436737
 20
1073.139392566467
 30
0.0
 11
1065.44729922087
 21
1073.362732476725
 31
0.0
  0
LINE
  5
34A
330
22
100
AcDbEntity
  8
_2-2_IN_LINE
  6
Continuous
 62
     7
100
AcDbLine
 10
1065.44729922087
 20
1073.362732476725
 30
0.0
 11
1065.402127799047
 21
1073.583240878196
 31
0.0
  0
LINE
  5
34B
330
22
100
AcDbEntity
  8
_2-2_IN_LINE
  6
Continuous
 62
     7
100
AcDbLine
 10
1065.402127799047
 20
1073.583240878196
 30
0.0
 11
1065.346539401516
 21
1073.799820286853
 31
0.0
  0
LINE
  5
34C
330
22
100
AcDbEntity
  8
_2-2_IN_LINE
  6
Continuous
 62
     7
100
AcDbLine
 10
1065.346539401516
 20
1073.799820286853
 30
0.0
 11
1065.277624258526
 21
1074.011373218672
 31
0.0
  0
LINE
  5
34D
330
22
100
AcDbEntity
  8
_2-2_IN_LINE
  6
Continuous
 62
     7
100
AcDbLine
 10
1065.277624258526
 20
1074.011373218672
 30
0.0
 11
1065.230400560235
 21
1074.131338321665
 31
0.0
  0
LINE
  5
34E
330
22
100
AcDbEntity
  8
_2-2_IN_LINE
  6
Continuous
 62
     7
100
AcDbLine
 10
1065.230400560235
 20
1074.131338321665
 30
0.0
 11
1065.189459498969
 21
1074.223455161256
 31
0.0
  0
LINE
  5
34F
330
22
100
AcDbEntity
  8
_2-2_IN_LINE
  6
Continuous
 62
     7
100
AcDbLine
 10
1065.189459498969
 20
1074.223455161256
 30
0.0
 11
1065.111044326289
 21
1074.379169464268
 31
0.0
  0
LINE
  5
350
330
22
100
AcDbEntity
  8
_2-2_IN_LINE
  6
Continuous
 62
     7
100
AcDbLine
 10
1065.111044326289
 20
1074.379169464268
 30
0.0
 11
1065.023937311961
 21
1074.53117306715
 31
0.0
  0
LINE
  5
351
330
22
100
AcDbEntity
  8
_2-2_IN_LINE
  6
Continuous
 62
     7
100
AcDbLine
 10
1065.023937311961
 20
1074.53117306715
 30
0.0
 11
1064.929552322814
 21
1074.67972558295
 31
0.0
  0
LINE
  5
352
330
22
100
AcDbEntity
  8
_2-2_IN_LINE
  6
Continuous
 62
     7
100
AcDbLine
 10
1064.929552322814
 20
1074.67972558295
 30
0.0
 11
1064.829303225669
 21
1074.825086624721
 31
0.0
  0
LINE
  5
353
330
22
100
AcDbEntity
  8
_2-2_IN_LINE
  6
Continuous
 62
     7
100
AcDbLine
 10
1064.829303225669
 20
1074.825086624721
 30
0.0
 11
1064.724603887351
 21
1074.967515805517
 31
0.0
  0
LINE
  5
354
330
22
100
AcDbEntity
  8
_2-2_IN_LINE
  6
Continuous
 62
     7
100
AcDbLine
 10
1064.724603887351
 20
1074.967515805517
 30
0.0
 11
1064.662396307675
 21
1075.048883652722
 31
0.0
  0
LINE
  5
355
330
22
100
AcDbEntity
  8
_2-2_IN_LINE
  6
Continuous
 62
     7
100
AcDbLine
 10
1064.662396307675
 20
1075.048883652722
 30
0.0
 11
1064.588180033737
 21
1075.143567245524
 31
0.0
  0
LINE
  5
356
330
22
100
AcDbEntity
  8
_2-2_IN_LINE
  6
Continuous
 62
     7
100
AcDbLine
 10
1064.588180033737
 20
1075.143567245524
 30
0.0
 11
1064.457955093634
 21
1075.304286039388
 31
0.0
  0
LINE
  5
357
330
22
100
AcDbEntity
  8
_2-2_IN_LINE
  6
Continuous
 62
     7
100
AcDbLine
 10
1064.457955093634
 20
1075.304286039388
 30
0.0
 11
1064.325103274412
 21
1075.462152801778
 31
0.0
  0
LINE
  5
358
330
22
100
AcDbEntity
  8
_2-2_IN_LINE
  6
Continuous
 62
     7
100
AcDbLine
 10
1064.325103274412
 20
1075.462152801778
 30
0.0
 11
1064.189905136285
 21
1075.617573295243
 31
0.0
  0
LINE
  5
359
330
22
100
AcDbEntity
  8
_2-2_IN_LINE
  6
Continuous
 62
     7
100
AcDbLine
 10
1064.189905136285
 20
1075.617573295243
 30
0.0
 11
1064.052641239462
 21
1075.770953282333
 31
0.0
  0
LINE
  5
35A
330
22
100
AcDbEntity
  8
_2-2_IN_LINE
  6
Continuous
 62
     7
100
AcDbLine
 10
1064.052641239462
 20
1075.770953282333
 30
0.0
 11
1063.913592144153
 21
1075.922698525586
 31
0.0
  0
LINE
  5
35B
330
22
100
AcDbEntity
  8
_2-2_IN_LINE
  6
Continuous
 62
     7
100
AcDbLine
 10
1063.913592144153
 20
1075.922698525586
 30
0.0
 11
1063.83223624624
 21
1076.010121618594
 31
0.0
  0
LINE
  5
35C
330
22
100
AcDbEntity
  8
_2-2_IN_LINE
  6
Continuous
 62
     7
100
AcDbLine
 10
1063.83223624624
 20
1076.010121618594
 30
0.0
 11
1063.746601172828
 21
1076.101191792993
 31
0.0
  0
LINE
  5
35D
330
22
100
AcDbEntity
  8
_2-2_IN_LINE
  6
Continuous
 62
     7
100
AcDbLine
 10
1063.746601172828
 20
1076.101191792993
 30
0.0
 11
1063.597403814519
 21
1076.256893541824
 31
0.0
  0
LINE
  5
35E
330
22
100
AcDbEntity
  8
_2-2_IN_LINE
  6
Continuous
 62
     7
100
AcDbLine
 10
1063.597403814519
 20
1076.256893541824
 30
0.0
 11
1063.445653600949
 21
1076.410239520225
 31
0.0
  0
LINE
  5
35F
330
22
100
AcDbEntity
  8
_2-2_IN_LINE
  6
Continuous
 62
     7
100
AcDbLine
 10
1063.445653600949
 20
1076.410239520225
 30
0.0
 11
1063.290664521445
 21
1076.560427159144
 31
0.0
  0
LINE
  5
360
330
22
100
AcDbEntity
  8
_2-2_IN_LINE
  6
Continuous
 62
     7
100
AcDbLine
 10
1063.290664521445
 20
1076.560427159144
 30
0.0
 11
1063.131750565339
 21
1076.706653889543
 31
0.0
  0
LINE
  5
361
330
22
100
AcDbEntity
  8
_2-2_IN_LINE
  6
Continuous
 62
     7
100
AcDbLine
 10
1063.131750565339
 20
1076.706653889543
 30
0.0
 11
1062.96822572196
 21
1076.848117142369
 31
0.0
  0
LINE
  5
362
330
22
100
AcDbEntity
  8
_2-2_IN_LINE
  6
Continuous
 62
     7
100
AcDbLine
 10
1062.96822572196
 20
1076.848117142369
 30
0.0
 11
1062.870998280372
 21
1076.92766694965
 31
0.0
  0
LINE
  5
363
330
22
100
AcDbEntity
  8
_2-2_IN_LINE
  6
Continuous
 62
     7
100
AcDbLine
 10
1062.870998280372
 20
1076.92766694965
 30
0.0
 11
1062.783344580829
 21
1076.996392302146
 31
0.0
  0
LINE
  5
364
330
22
100
AcDbEntity
  8
_2-2_IN_LINE
  6
Continuous
 62
     7
100
AcDbLine
 10
1062.783344580829
 20
1076.996392302146
 30
0.0
 11
1062.628731480907
 21
1077.110605069947
 31
0.0
  0
LINE
  5
365
330
22
100
AcDbEntity
  8
_2-2_IN_LINE
  6
Continuous
 62
     7
100
AcDbLine
 10
1062.628731480907
 20
1077.110605069947
 30
0.0
 11
1062.469766337721
 21
1077.218577758878
 31
0.0
  0
LINE
  5
366
330
22
100
AcDbEntity
  8
_2-2_IN_LINE
  6
Continuous
 62
     7
100
AcDbLine
 10
1062.469766337721
 20
1077.218577758878
 30
0.0
 11
1062.306519680493
 21
1077.319352990304
 31
0.0
  0
LINE
  5
367
330
22
100
AcDbEntity
  8
_2-2_IN_LINE
  6
Continuous
 62
     7
100
AcDbLine
 10
1062.306519680493
 20
1077.319352990304
 30
0.0
 11
1062.139062038462
 21
1077.411973385589
 31
0.0
  0
LINE
  5
368
330
22
100
AcDbEntity
  8
_2-2_IN_LINE
  6
Continuous
 62
     7
100
AcDbLine
 10
1062.139062038462
 20
1077.411973385589
 30
0.0
 11
1061.967463940858
 21
1077.495481566101
 31
0.0
  0
LINE
  5
369
330
22
100
AcDbEntity
  8
_2-2_IN_LINE
  6
Continuous
 62
     7
100
AcDbLine
 10
1061.967463940858
 20
1077.495481566101
 30
0.0
 11
1061.86606767969
 21
1077.539363837022
 31
0.0
  0
LINE
  5
36A
330
22
100
AcDbEntity
  8
_2-2_IN_LINE
  6
Continuous
 62
     7
100
AcDbLine
 10
1061.86606767969
 20
1077.539363837022
 30
0.0
 11
1061.75216218695
 21
1077.583892550284
 31
0.0
  0
LINE
  5
36B
330
22
100
AcDbEntity
  8
_2-2_IN_LINE
  6
Continuous
 62
     7
100
AcDbLine
 10
1061.75216218695
 20
1077.583892550284
 30
0.0
 11
1061.552273729095
 21
1077.6512031787
 31
0.0
  0
LINE
  5
36C
330
22
100
AcDbEntity
  8
_2-2_IN_LINE
  6
Continuous
 62
     7
100
AcDbLine
 10
1061.552273729095
 20
1077.6512031787
 30
0.0
 11
1061.348571630236
 21
1077.707806730197
 31
0.0
  0
LINE
  5
36D
330
22
100
AcDbEntity
  8
_2-2_IN_LINE
  6
Continuous
 62
     7
100
AcDbLine
 10
1061.348571630236
 20
1077.707806730197
 30
0.0
 11
1061.141772553427
 21
1077.755181603929
 31
0.0
  0
LINE
  5
36E
330
22
100
AcDbEntity
  8
_2-2_IN_LINE
  6
Continuous
 62
     7
100
AcDbLine
 10
1061.141772553427
 20
1077.755181603929
 30
0.0
 11
1060.93259316172
 21
1077.794806199037
 31
0.0
  0
LINE
  5
36F
330
22
100
AcDbEntity
  8
_2-2_IN_LINE
  6
Continuous
 62
     7
100
AcDbLine
 10
1060.93259316172
 20
1077.794806199037
 30
0.0
 11
1060.721750118163
 21
1077.828158914673
 31
0.0
  0
LINE
  5
370
330
22
100
AcDbEntity
  8
_2-2_IN_LINE
  6
Continuous
 62
     7
100
AcDbLine
 10
1060.721750118163
 20
1077.828158914673
 30
0.0
 11
1060.598981270135
 21
1077.845212280708
 31
0.0
  0
LINE
  5
371
330
22
100
AcDbEntity
  8
_2-2_IN_LINE
  6
Continuous
 62
     7
100
AcDbLine
 10
1060.598981270135
 20
1077.845212280708
 30
0.0
 11
1060.450524300051
 21
1077.863929279976
 31
0.0
  0
LINE
  5
372
330
22
100
AcDbEntity
  8
_2-2_IN_LINE
  6
Continuous
 62
     7
100
AcDbLine
 10
1060.450524300051
 20
1077.863929279976
 30
0.0
 11
1060.194204034766
 21
1077.890836041064
 31
0.0
  0
LINE
  5
373
330
22
100
AcDbEntity
  8
_2-2_IN_LINE
  6
Continuous
 62
     7
100
AcDbLine
 10
1060.194204034766
 20
1077.890836041064
 30
0.0
 11
1059.937808706185
 21
1077.909694288364
 31
0.0
  0
LINE
  5
374
330
22
100
AcDbEntity
  8
_2-2_IN_LINE
  6
Continuous
 62
     7
100
AcDbLine
 10
1059.937808706185
 20
1077.909694288364
 30
0.0
 11
1059.681780869554
 21
1077.919040379549
 31
0.0
  0
LINE
  5
375
330
22
100
AcDbEntity
  8
_2-2_IN_LINE
  6
Continuous
 62
     7
100
AcDbLine
 10
1059.681780869554
 20
1077.919040379549
 30
0.0
 11
1059.426563080121
 21
1077.917410672302
 31
0.0
  0
LINE
  5
376
330
22
100
AcDbEntity
  8
_2-2_IN_LINE
  6
Continuous
 62
     7
100
AcDbLine
 10
1059.426563080121
 20
1077.917410672302
 30
0.0
 11
1059.172597893129
 21
1077.903341524299
 31
0.0
  0
LINE
  5
377
330
22
100
AcDbEntity
  8
_2-2_IN_LINE
  6
Continuous
 62
     7
100
AcDbLine
 10
1059.172597893129
 20
1077.903341524299
 30
0.0
 11
1059.026046416892
 21
1077.88890491552
 31
0.0
  0
LINE
  5
378
330
22
100
AcDbEntity
  8
_2-2_IN_LINE
  6
Continuous
 62
     7
100
AcDbLine
 10
1059.026046416892
 20
1077.88890491552
 30
0.0
 11
1058.918702225327
 21
1077.875215129435
 31
0.0
  0
LINE
  5
379
330
22
100
AcDbEntity
  8
_2-2_IN_LINE
  6
Continuous
 62
     7
100
AcDbLine
 10
1058.918702225327
 20
1077.875215129435
 30
0.0
 11
1058.734252164557
 21
1077.846255498195
 31
0.0
  0
LINE
  5
37A
330
22
100
AcDbEntity
  8
_2-2_IN_LINE
  6
Continuous
 62
     7
100
AcDbLine
 10
1058.734252164557
 20
1077.846255498195
 30
0.0
 11
1058.550281307115
 21
1077.811940016656
 31
0.0
  0
LINE
  5
37B
330
22
100
AcDbEntity
  8
_2-2_IN_LINE
  6
Continuous
 62
     7
100
AcDbLine
 10
1058.550281307115
 20
1077.811940016656
 30
0.0
 11
1058.366425271259
 21
1077.773925190629
 31
0.0
  0
LINE
  5
37C
330
22
100
AcDbEntity
  8
_2-2_IN_LINE
  6
Continuous
 62
     7
100
AcDbLine
 10
1058.366425271259
 20
1077.773925190629
 30
0.0
 11
1058.182319675237
 21
1077.733867525921
 31
0.0
  0
LINE
  5
37D
330
22
100
AcDbEntity
  8
_2-2_IN_LINE
  6
Continuous
 62
     7
100
AcDbLine
 10
1058.182319675237
 20
1077.733867525921
 30
0.0
 11
1057.997600137309
 21
1077.693423528346
 31
0.0
  0
LINE
  5
37E
330
22
100
AcDbEntity
  8
_2-2_IN_LINE
  6
Continuous
 62
     7
100
AcDbLine
 10
1057.997600137309
 20
1077.693423528346
 30
0.0
 11
1057.890037911774
 21
1077.670441741458
 31
0.0
  0
LINE
  5
37F
330
22
100
AcDbEntity
  8
_2-2_IN_LINE
  6
Continuous
 62
     7
100
AcDbLine
 10
1057.890037911774
 20
1077.670441741458
 30
0.0
 11
1057.767926680443
 21
1077.64516801996
 31
0.0
  0
LINE
  5
380
330
22
100
AcDbEntity
  8
_2-2_IN_LINE
  6
Continuous
 62
     7
100
AcDbLine
 10
1057.767926680443
 20
1077.64516801996
 30
0.0
 11
1057.55712865688
 21
1077.601818503726
 31
0.0
  0
LINE
  5
381
330
22
100
AcDbEntity
  8
_2-2_IN_LINE
  6
Continuous
 62
     7
100
AcDbLine
 10
1057.55712865688
 20
1077.601818503726
 30
0.0
 11
1057.347423433045
 21
1077.555685345578
 31
0.0
  0
LINE
  5
382
330
22
100
AcDbEntity
  8
_2-2_IN_LINE
  6
Continuous
 62
     7
100
AcDbLine
 10
1057.347423433045
 20
1077.555685345578
 30
0.0
 11
1057.140466483778
 21
1077.503199303873
 31
0.0
  0
LINE
  5
383
330
22
100
AcDbEntity
  8
_2-2_IN_LINE
  6
Continuous
 62
     7
100
AcDbLine
 10
1057.140466483778
 20
1077.503199303873
 30
0.0
 11
1056.937913283922
 21
1077.440791136975
 31
0.0
  0
LINE
  5
384
330
22
100
AcDbEntity
  8
_2-2_IN_LINE
  6
Continuous
 62
     7
100
AcDbLine
 10
1056.937913283922
 20
1077.440791136975
 30
0.0
 11
1056.741419308322
 21
1077.36489160324
 31
0.0
  0
LINE
  5
385
330
22
100
AcDbEntity
  8
_2-2_IN_LINE
  6
Continuous
 62
     7
100
AcDbLine
 10
1056.741419308322
 20
1077.36489160324
 30
0.0
 11
1056.6308814822
 21
1077.313281662584
 31
0.0
  0
LINE
  5
386
330
22
100
AcDbEntity
  8
_2-2_IN_LINE
  6
Continuous
 62
     7
100
AcDbLine
 10
1056.6308814822
 20
1077.313281662584
 30
0.0
 11
1056.531559251022
 21
1077.260196190661
 31
0.0
  0
LINE
  5
387
330
22
100
AcDbEntity
  8
_2-2_IN_LINE
  6
Continuous
 62
     7
100
AcDbLine
 10
1056.531559251022
 20
1077.260196190661
 30
0.0
 11
1056.366135335833
 21
1077.156909909563
 31
0.0
  0
LINE
  5
388
330
22
100
AcDbEntity
  8
_2-2_IN_LINE
  6
Continuous
 62
     7
100
AcDbLine
 10
1056.366135335833
 20
1077.156909909563
 30
0.0
 11
1056.208083764471
 21
1077.04036027783
 31
0.0
  0
LINE
  5
389
330
22
100
AcDbEntity
  8
_2-2_IN_LINE
  6
Continuous
 62
     7
100
AcDbLine
 10
1056.208083764471
 20
1077.04036027783
 30
0.0
 11
1056.057408718055
 21
1076.912433604515
 31
0.0
  0
LINE
  5
38A
330
22
100
AcDbEntity
  8
_2-2_IN_LINE
  6
Continuous
 62
     7
100
AcDbLine
 10
1056.057408718055
 20
1076.912433604515
 30
0.0
 11
1055.914114377689
 21
1076.775016198669
 31
0.0
  0
LINE
  5
38B
330
22
100
AcDbEntity
  8
_2-2_IN_LINE
  6
Continuous
 62
     7
100
AcDbLine
 10
1055.914114377689
 20
1076.775016198669
 30
0.0
 11
1055.778204924485
 21
1076.629994369338
 31
0.0
  0
LINE
  5
38C
330
22
100
AcDbEntity
  8
_2-2_IN_LINE
  6
Continuous
 62
     7
100
AcDbLine
 10
1055.778204924485
 20
1076.629994369338
 30
0.0
 11
1055.702762844497
 21
1076.543140665342
 31
0.0
  0
LINE
  5
38D
330
22
100
AcDbEntity
  8
_2-2_IN_LINE
  6
Continuous
 62
     7
100
AcDbLine
 10
1055.702762844497
 20
1076.543140665342
 30
0.0
 11
1055.618467820128
 21
1076.44057327735
 31
0.0
  0
LINE
  5
38E
330
22
100
AcDbEntity
  8
_2-2_IN_LINE
  6
Continuous
 62
     7
100
AcDbLine
 10
1055.618467820128
 20
1076.44057327735
 30
0.0
 11
1055.480295960859
 21
1076.259288267614
 31
0.0
  0
LINE
  5
38F
330
22
100
AcDbEntity
  8
_2-2_IN_LINE
  6
Continuous
 62
     7
100
AcDbLine
 10
1055.480295960859
 20
1076.259288267614
 30
0.0
 11
1055.350185693841
 21
1076.073063592993
 31
0.0
  0
LINE
  5
390
330
22
100
AcDbEntity
  8
_2-2_IN_LINE
  6
Continuous
 62
     7
100
AcDbLine
 10
1055.350185693841
 20
1076.073063592993
 30
0.0
 11
1055.226965791854
 21
1075.882697531903
 31
0.0
  0
LINE
  5
391
330
22
100
AcDbEntity
  8
_2-2_IN_LINE
  6
Continuous
 62
     7
100
AcDbLine
 10
1055.226965791854
 20
1075.882697531903
 30
0.0
 11
1055.109465027684
 21
1075.68898836276
 31
0.0
  0
LINE
  5
392
330
22
100
AcDbEntity
  8
_2-2_IN_LINE
  6
Continuous
 62
     7
100
AcDbLine
 10
1055.109465027684
 20
1075.68898836276
 30
0.0
 11
1054.996512174115
 21
1075.492734363979
 31
0.0
  0
LINE
  5
393
330
22
100
AcDbEntity
  8
_2-2_IN_LINE
  6
Continuous
 62
     7
100
AcDbLine
 10
1054.996512174115
 20
1075.492734363979
 30
0.0
 11
1054.932621847255
 21
1075.37805556695
 31
0.0
  0
LINE
  5
394
330
22
100
AcDbEntity
  8
_2-2_IN_LINE
  6
Continuous
 62
     7
100
AcDbLine
 10
1054.932621847255
 20
1075.37805556695
 30
0.0
 11
1054.865354479751
 21
1075.254988974813
 31
0.0
  0
LINE
  5
395
330
22
100
AcDbEntity
  8
_2-2_IN_LINE
  6
Continuous
 62
     7
100
AcDbLine
 10
1054.865354479751
 20
1075.254988974813
 30
0.0
 11
1054.75137323854
 21
1075.041782218445
 31
0.0
  0
LINE
  5
396
330
22
100
AcDbEntity
  8
_2-2_IN_LINE
  6
Continuous
 62
     7
100
AcDbLine
 10
1054.75137323854
 20
1075.041782218445
 30
0.0
 11
1054.639258690178
 21
1074.827485218908
 31
0.0
  0
LINE
  5
397
330
22
100
AcDbEntity
  8
_2-2_IN_LINE
  6
Continuous
 62
     7
100
AcDbLine
 10
1054.639258690178
 20
1074.827485218908
 30
0.0
 11
1054.528242080931
 21
1074.612335957833
 31
0.0
  0
LINE
  5
398
330
22
100
AcDbEntity
  8
_2-2_IN_LINE
  6
Continuous
 62
     7
100
AcDbLine
 10
1054.528242080931
 20
1074.612335957833
 30
0.0
 11
1054.417554657071
 21
1074.396572416853
 31
0.0
  0
LINE
  5
399
330
22
100
AcDbEntity
  8
_2-2_IN_LINE
  6
Continuous
 62
     7
100
AcDbLine
 10
1054.417554657071
 20
1074.396572416853
 30
0.0
 11
1054.306427664875
 21
1074.180432577597
 31
0.0
  0
LINE
  5
39A
330
22
100
AcDbEntity
  8
_2-2_IN_LINE
  6
Continuous
 62
     7
100
AcDbLine
 10
1054.306427664875
 20
1074.180432577597
 30
0.0
 11
1054.241469670245
 21
1074.054992828098
 31
0.0
  0
LINE
  5
39B
330
22
100
AcDbEntity
  8
_2-2_IN_LINE
  6
Continuous
 62
     7
100
AcDbLine
 10
1054.241469670245
 20
1074.054992828098
 30
0.0
 11
1054.153056216068
 21
1073.886164645091
 31
0.0
  0
LINE
  5
39C
330
22
100
AcDbEntity
  8
_2-2_IN_LINE
  6
Continuous
 62
     7
100
AcDbLine
 10
1054.153056216068
 20
1073.886164645091
 30
0.0
 11
1053.996551400138
 21
1073.596768879203
 31
0.0
  0
LINE
  5
39D
330
22
100
AcDbEntity
  8
_2-2_IN_LINE
  6
Continuous
 62
     7
100
AcDbLine
 10
1053.996551400138
 20
1073.596768879203
 30
0.0
 11
1053.832329806909
 21
1073.31206070295
 31
0.0
  0
LINE
  5
39E
330
22
100
AcDbEntity
  8
_2-2_IN_LINE
  6
Continuous
 62
     7
100
AcDbLine
 10
1053.832329806909
 20
1073.31206070295
 30
0.0
 11
1053.657405819525
 21
1073.035007274934
 31
0.0
  0
LINE
  5
39F
330
22
100
AcDbEntity
  8
_2-2_IN_LINE
  6
Continuous
 62
     7
100
AcDbLine
 10
1053.657405819525
 20
1073.035007274934
 30
0.0
 11
1053.468793821124
 21
1072.768575753748
 31
0.0
  0
LINE
  5
3A0
330
22
100
AcDbEntity
  8
_2-2_IN_LINE
  6
Continuous
 62
     7
100
AcDbLine
 10
1053.468793821124
 20
1072.768575753748
 30
0.0
 11
1053.263508194849
 21
1072.515733297989
 31
0.0
  0
LINE
  5
3A1
330
22
100
AcDbEntity
  8
_2-2_IN_LINE
  6
Continuous
 62
     7
100
AcDbLine
 10
1053.263508194849
 20
1072.515733297989
 30
0.0
 11
1053.135626187024
 21
1072.376480398208
 31
0.0
  0
LINE
  5
3A2
330
22
100
AcDbEntity
  8
_2-2_IN_LINE
  6
Continuous
 62
     7
100
AcDbLine
 10
1053.135626187024
 20
1072.376480398208
 30
0.0
 11
1053.08941101472
 21
1072.329375392298
 31
0.0
  0
LINE
  5
3A3
330
22
100
AcDbEntity
  8
_2-2_IN_LINE
  6
Continuous
 62
     7
100
AcDbLine
 10
1053.08941101472
 20
1072.329375392298
 30
0.0
 11
1053.007711753179
 21
1072.250030297263
 31
0.0
  0
LINE
  5
3A4
330
22
100
AcDbEntity
  8
_2-2_IN_LINE
  6
Continuous
 62
     7
100
AcDbLine
 10
1053.007711753179
 20
1072.250030297263
 30
0.0
 11
1052.923509360847
 21
1072.173230187822
 31
0.0
  0
LINE
  5
3A5
330
22
100
AcDbEntity
  8
_2-2_IN_LINE
  6
Continuous
 62
     7
100
AcDbLine
 10
1052.923509360847
 20
1072.173230187822
 30
0.0
 11
1052.836863385354
 21
1072.099181284495
 31
0.0
  0
LINE
  5
3A6
330
22
100
AcDbEntity
  8
_2-2_IN_LINE
  6
Continuous
 62
     7
100
AcDbLine
 10
1052.836863385354
 20
1072.099181284495
 30
0.0
 11
1052.747833374318
 21
1072.028089807806
 31
0.0
  0
LINE
  5
3A7
330
22
100
AcDbEntity
  8
_2-2_IN_LINE
  6
Continuous
 62
     7
100
AcDbLine
 10
1052.747833374318
 20
1072.028089807806
 30
0.0
 11
1052.656478875364
 21
1071.960161978276
 31
0.0
  0
LINE
  5
3A8
330
22
100
AcDbEntity
  8
_2-2_IN_LINE
  6
Continuous
 62
     7
100
AcDbLine
 10
1052.656478875364
 20
1071.960161978276
 30
0.0
 11
1052.602451650472
 21
1071.922294681887
 31
0.0
  0
LINE
  5
3A9
330
22
100
AcDbEntity
  8
_2-2_IN_LINE
  6
Continuous
 62
     7
100
AcDbLine
 10
1052.602451650472
 20
1071.922294681887
 30
0.0
 11
1052.512850239383
 21
1071.863001991507
 31
0.0
  0
LINE
  5
3AA
330
22
100
AcDbEntity
  8
_2-2_IN_LINE
  6
Continuous
 62
     7
100
AcDbLine
 10
1052.512850239383
 20
1071.863001991507
 30
0.0
 11
1052.35465879521
 21
1071.766588727314
 31
0.0
  0
LINE
  5
3AB
330
22
100
AcDbEntity
  8
_2-2_IN_LINE
  6
Continuous
 62
     7
100
AcDbLine
 10
1052.35465879521
 20
1071.766588727314
 30
0.0
 11
1052.193247508179
 21
1071.675260318242
 31
0.0
  0
LINE
  5
3AC
330
22
100
AcDbEntity
  8
_2-2_IN_LINE
  6
Continuous
 62
     7
100
AcDbLine
 10
1052.193247508179
 20
1071.675260318242
 30
0.0
 11
1052.030327559886
 21
1071.586369609792
 31
0.0
  0
LINE
  5
3AD
330
22
100
AcDbEntity
  8
_2-2_IN_LINE
  6
Continuous
 62
     7
100
AcDbLine
 10
1052.030327559886
 20
1071.586369609792
 30
0.0
 11
1051.867610131934
 21
1071.497269447456
 31
0.0
  0
LINE
  5
3AE
330
22
100
AcDbEntity
  8
_2-2_IN_LINE
  6
Continuous
 62
     7
100
AcDbLine
 10
1051.867610131934
 20
1071.497269447456
 30
0.0
 11
1051.706806405922
 21
1071.405312676731
 31
0.0
  0
LINE
  5
3AF
330
22
100
AcDbEntity
  8
_2-2_IN_LINE
  6
Continuous
 62
     7
100
AcDbLine
 10
1051.706806405922
 20
1071.405312676731
 30
0.0
 11
1051.615091397597
 21
1071.349625735219
 31
0.0
  0
LINE
  5
3B0
330
22
100
AcDbEntity
  8
_2-2_IN_LINE
  6
Continuous
 62
     7
100
AcDbLine
 10
1051.615091397597
 20
1071.349625735219
 30
0.0
 11
1051.522680405198
 21
1071.290260965347
 31
0.0
  0
LINE
  5
3B1
330
22
100
AcDbEntity
  8
_2-2_IN_LINE
  6
Continuous
 62
     7
100
AcDbLine
 10
1051.522680405198
 20
1071.290260965347
 30
0.0
 11
1051.366737403045
 21
1071.182759203579
 31
0.0
  0
LINE
  5
3B2
330
22
100
AcDbEntity
  8
_2-2_IN_LINE
  6
Continuous
 62
     7
100
AcDbLine
 10
1051.366737403045
 20
1071.182759203579
 30
0.0
 11
1051.214414860821
 21
1071.06977601361
 31
0.0
  0
LINE
  5
3B3
330
22
100
AcDbEntity
  8
_2-2_IN_LINE
  6
Continuous
 62
     7
100
AcDbLine
 10
1051.214414860821
 20
1071.06977601361
 30
0.0
 11
1051.064938372086
 21
1070.952515961214
 31
0.0
  0
LINE
  5
3B4
330
22
100
AcDbEntity
  8
_2-2_IN_LINE
  6
Continuous
 62
     7
100
AcDbLine
 10
1051.064938372086
 20
1070.952515961214
 30
0.0
 11
1050.917533530393
 21
1070.832183612167
 31
0.0
  0
LINE
  5
3B5
330
22
100
AcDbEntity
  8
_2-2_IN_LINE
  6
Continuous
 62
     7
100
AcDbLine
 10
1050.917533530393
 20
1070.832183612167
 30
0.0
 11
1050.771425929296
 21
1070.709983532242
 31
0.0
  0
LINE
  5
3B6
330
22
100
AcDbEntity
  8
_2-2_IN_LINE
  6
Continuous
 62
     7
100
AcDbLine
 10
1050.771425929296
 20
1070.709983532242
 30
0.0
 11
1050.686972759894
 21
1070.638726353149
 31
0.0
  0
LINE
  5
3B7
330
22
100
AcDbEntity
  8
_2-2_IN_LINE
  6
Continuous
 62
     7
100
AcDbLine
 10
1050.686972759894
 20
1070.638726353149
 30
0.0
 11
1050.581130896275
 21
1070.549245769247
 31
0.0
  0
LINE
  5
3B8
330
22
100
AcDbEntity
  8
_2-2_IN_LINE
  6
Continuous
 62
     7
100
AcDbLine
 10
1050.581130896275
 20
1070.549245769247
 30
0.0
 11
1050.399558117964
 21
1070.394162715453
 31
0.0
  0
LINE
  5
3B9
330
22
100
AcDbEntity
  8
_2-2_IN_LINE
  6
Continuous
 62
     7
100
AcDbLine
 10
1050.399558117964
 20
1070.394162715453
 30
0.0
 11
1050.22038346534
 21
1070.236773547212
 31
0.0
  0
LINE
  5
3BA
330
22
100
AcDbEntity
  8
_2-2_IN_LINE
  6
Continuous
 62
     7
100
AcDbLine
 10
1050.22038346534
 20
1070.236773547212
 30
0.0
 11
1050.045051339115
 21
1070.075583349286
 31
0.0
  0
LINE
  5
3BB
330
22
100
AcDbEntity
  8
_2-2_IN_LINE
  6
Continuous
 62
     7
100
AcDbLine
 10
1050.045051339115
 20
1070.075583349286
 30
0.0
 11
1049.875006140006
 21
1069.909097206436
 31
0.0
  0
LINE
  5
3BC
330
22
100
AcDbEntity
  8
_2-2_IN_LINE
  6
Continuous
 62
     7
100
AcDbLine
 10
1049.875006140006
 20
1069.909097206436
 30
0.0
 11
1049.711692268728
 21
1069.735820203427
 31
0.0
  0
LINE
  5
3BD
330
22
100
AcDbEntity
  8
_2-2_IN_LINE
  6
Continuous
 62
     7
100
AcDbLine
 10
1049.711692268728
 20
1069.735820203427
 30
0.0
 11
1049.620623686789
 21
1069.631618895216
 31
0.0
  0
LINE
  5
3BE
330
22
100
AcDbEntity
  8
_2-2_IN_LINE
  6
Continuous
 62
     7
100
AcDbLine
 10
1049.620623686789
 20
1069.631618895216
 30
0.0
 11
1049.568964414151
 21
1069.569531619692
 31
0.0
  0
LINE
  5
3BF
330
22
100
AcDbEntity
  8
_2-2_IN_LINE
  6
Continuous
 62
     7
100
AcDbLine
 10
1049.568964414151
 20
1069.569531619692
 30
0.0
 11
1049.482639303845
 21
1069.460058879855
 31
0.0
  0
LINE
  5
3C0
330
22
100
AcDbEntity
  8
_2-2_IN_LINE
  6
Continuous
 62
     7
100
AcDbLine
 10
1049.482639303845
 20
1069.460058879855
 30
0.0
 11
1049.400279431715
 21
1069.347557622097
 31
0.0
  0
LINE
  5
3C1
330
22
100
AcDbEntity
  8
_2-2_IN_LINE
  6
Continuous
 62
     7
100
AcDbLine
 10
1049.400279431715
 20
1069.347557622097
 30
0.0
 11
1049.322458740968
 21
1069.232076689384
 31
0.0
  0
LINE
  5
3C2
330
22
100
AcDbEntity
  8
_2-2_IN_LINE
  6
Continuous
 62
     7
100
AcDbLine
 10
1049.322458740968
 20
1069.232076689384
 30
0.0
 11
1049.249751174824
 21
1069.113664924691
 31
0.0
  0
LINE
  5
3C3
330
22
100
AcDbEntity
  8
_2-2_IN_LINE
  6
Continuous
 62
     7
100
AcDbLine
 10
1049.249751174824
 20
1069.113664924691
 30
0.0
 11
1049.182730676494
 21
1068.992371170988
 31
0.0
  0
LINE
  5
3C4
330
22
100
AcDbEntity
  8
_2-2_IN_LINE
  6
Continuous
 62
     7
100
AcDbLine
 10
1049.182730676494
 20
1068.992371170988
 30
0.0
 11
1049.146690765409
 21
1068.920719513145
 31
0.0
  0
LINE
  5
3C5
330
22
100
AcDbEntity
  8
_2-2_IN_LINE
  6
Continuous
 62
     7
100
AcDbLine
 10
1049.146690765409
 20
1068.920719513145
 30
0.0
 11
1049.100038912051
 21
1068.819243622096
 31
0.0
  0
LINE
  5
3C6
330
22
100
AcDbEntity
  8
_2-2_IN_LINE
  6
Continuous
 62
     7
100
AcDbLine
 10
1049.100038912051
 20
1068.819243622096
 30
0.0
 11
1049.028552153699
 21
1068.640479243047
 31
0.0
  0
LINE
  5
3C7
330
22
100
AcDbEntity
  8
_2-2_IN_LINE
  6
Continuous
 62
     7
100
AcDbLine
 10
1049.028552153699
 20
1068.640479243047
 30
0.0
 11
1048.966600815078
 21
1068.457658824897
 31
0.0
  0
LINE
  5
3C8
330
22
100
AcDbEntity
  8
_2-2_IN_LINE
  6
Continuous
 62
     7
100
AcDbLine
 10
1048.966600815078
 20
1068.457658824897
 30
0.0
 11
1048.912102926808
 21
1068.271667965706
 31
0.0
  0
LINE
  5
3C9
330
22
100
AcDbEntity
  8
_2-2_IN_LINE
  6
Continuous
 62
     7
100
AcDbLine
 10
1048.912102926808
 20
1068.271667965706
 30
0.0
 11
1048.862976519521
 21
1068.083392263531
 31
0.0
  0
LINE
  5
3CA
330
22
100
AcDbEntity
  8
_2-2_IN_LINE
  6
Continuous
 62
     7
100
AcDbLine
 10
1048.862976519521
 20
1068.083392263531
 30
0.0
 11
1048.817139623842
 21
1067.893717316428
 31
0.0
  0
LINE
  5
3CB
330
22
100
AcDbEntity
  8
_2-2_IN_LINE
  6
Continuous
 62
     7
100
AcDbLine
 10
1048.817139623842
 20
1067.893717316428
 30
0.0
 11
1048.791241074372
 21
1067.783413684766
 31
0.0
  0
LINE
  5
3CC
330
22
100
AcDbEntity
  8
_2-2_IN_LINE
  6
Continuous
 62
     7
100
AcDbLine
 10
970.1568466082347
 20
1062.783413684766
 30
0.0
 11
1436.946620867606
 21
1062.783413684766
 31
0.0
  0
LINE
  5
3CD
330
22
100
AcDbEntity
  8
_2-2_IN_LINE
  6
Continuous
 62
     7
100
AcDbLine
 10
1059.539115585939
 20
1067.783413684766
 30
0.0
 11
1436.946620867606
 21
1067.783413684766
 31
0.0
  0
LINE
  5
3CE
330
22
100
AcDbEntity
  8
_2-2_IN_LINE
  6
Continuous
 62
     7
100
AcDbLine
 10
748.9216290578691
 20
1062.783473464691
 30
0.0
 11
686.9466208676056
 21
1062.7835069572
 31
0.0
  0
LINE
  5
3CF
330
22
100
AcDbEntity
  8
_2-2_IN_LINE
  6
Continuous
 62
     7
100
AcDbLine
 10
737.0392578410965
 20
1054.786965113664
 30
0.0
 11
737.0392621625695
 21
1062.783479886149
 31
0.0
  0
LINE
  5
3D0
330
22
100
AcDbEntity
  8
_2-2_IN_LINE
  6
Continuous
 62
     7
100
AcDbLine
 10
747.0392578410942
 20
1054.786959709469
 30
0.0
 11
737.0392578410965
 21
1054.786965113664
 31
0.0
  0
TEXT
  5
3D1
330
22
100
AcDbEntity
  8
_2-A_MOJI
 62
     7
100
AcDbText
 10
1263.359938181376
 20
987.6430419777028
 30
0.0
 40
15.0
  1
ＥＬ-2001注入
100
AcDbText
  0
TEXT
  5
3D2
330
22
100
AcDbEntity
  8
_2-B_DIM
 62
     7
100
AcDbText
 10
1061.109737323014
 20
1022.416056876827
 30
0.0
 40
15.0
  1
40以上
100
AcDbText
  0
LINE
  5
3D3
330
22
100
AcDbEntity
  8
_2-7_ビス
  6
Continuous
 62
     7
100
AcDbLine
 10
1212.539114234889
 20
1058.687928511854
 30
0.0
 11
1212.539114234889
 21
1062.783413684766
 31
0.0
  0
LINE
  5
3D4
330
22
100
AcDbEntity
  8
_2-7_ビス
  6
Continuous
 62
     7
100
AcDbLine
 10
1212.539114234889
 20
1062.783413684766
 30
0.0
 11
1209.539114234889
 21
1062.783413684766
 31
0.0
  0
LINE
  5
3D5
330
22
100
AcDbEntity
  8
_2-7_ビス
  6
Continuous
 62
     7
100
AcDbLine
 10
1212.539114234889
 20
1058.687928511854
 30
0.0
 11
1213.289114234889
 21
1057.863367591651
 31
0.0
  0
LINE
  5
3D6
330
22
100
AcDbEntity
  8
_2-7_ビス
  6
Continuous
 62
     7
100
AcDbLine
 10
1213.289114234889
 20
1057.863367591651
 30
0.0
 11
1213.289114234889
 21
1055.764761864536
 31
0.0
  0
LINE
  5
3D7
330
22
100
AcDbEntity
  8
_2-7_ビス
  6
Continuous
 62
     7
100
AcDbLine
 10
1213.289114234889
 20
1055.764761864536
 30
0.0
 11
1212.740894984888
 21
1051.647168551287
 31
0.0
  0
LINE
  5
3D8
330
22
100
AcDbEntity
  8
_2-7_ビス
  6
Continuous
 62
     7
100
AcDbLine
 10
1212.740894984888
 20
1051.647168551287
 30
0.0
 11
1212.498971234888
 21
1051.239554042766
 31
0.0
  0
LINE
  5
3D9
330
22
100
AcDbEntity
  8
_2-7_ビス
  6
Continuous
 62
     7
100
AcDbLine
 10
1212.498971234888
 20
1051.239554042766
 30
0.0
 11
1212.539114234889
 21
1051.239554042766
 31
0.0
  0
LINE
  5
3DA
330
22
100
AcDbEntity
  8
_2-7_ビス
  6
Continuous
 62
     7
100
AcDbLine
 10
1212.539114234889
 20
1051.239554042766
 30
0.0
 11
1212.539114234889
 21
1049.425518956166
 31
0.0
  0
LINE
  5
3DB
330
22
100
AcDbEntity
  8
_2-7_ビス
  6
Continuous
 62
     7
100
AcDbLine
 10
1212.539114234889
 20
1049.425518956166
 30
0.0
 11
1212.106101674321
 21
1048.600957553166
 31
0.0
  0
LINE
  5
3DC
330
22
100
AcDbEntity
  8
_2-7_ビス
  6
Continuous
 62
     7
100
AcDbLine
 10
1212.236005484889
 20
1048.353589132266
 30
0.0
 11
1213.214114234888
 21
1048.353589132266
 31
0.0
  0
LINE
  5
3DD
330
22
100
AcDbEntity
  8
_2-7_ビス
  6
Continuous
 62
     7
100
AcDbLine
 10
1213.214114234888
 20
1048.353589132266
 30
0.0
 11
1213.214114234888
 21
1044.120198538387
 31
0.0
  0
LINE
  5
3DE
330
22
100
AcDbEntity
  8
_2-7_ビス
  6
Continuous
 62
     7
100
AcDbLine
 10
1213.214114234888
 20
1044.120198538387
 30
0.0
 11
1212.712644734888
 21
1043.158852293366
 31
0.0
  0
LINE
  5
3DF
330
22
100
AcDbEntity
  8
_2-7_ビス
  6
Continuous
 62
     7
100
AcDbLine
 10
1212.712644734888
 20
1043.158852293366
 30
0.0
 11
1212.707864234889
 21
1043.158852293366
 31
0.0
  0
LINE
  5
3E0
330
22
100
AcDbEntity
  8
_2-7_ビス
  6
Continuous
 62
     7
100
AcDbLine
 10
1212.707860061604
 20
1043.158852647148
 30
0.0
 11
1212.707864234889
 21
1043.158852293366
 31
0.0
  0
LINE
  5
3E1
330
22
100
AcDbEntity
  8
_2-7_ビス
  6
Continuous
 62
     7
100
AcDbLine
 10
1212.707860061604
 20
1043.158852647148
 30
0.0
 11
1212.707864234889
 21
1043.158852293366
 31
0.0
  0
LINE
  5
3E2
330
22
100
AcDbEntity
  8
_2-7_ビス
  6
Continuous
 62
     7
100
AcDbLine
 10
1212.675272984889
 20
1042.086922469466
 30
0.0
 11
1213.214114234888
 21
1042.086922469466
 31
0.0
  0
LINE
  5
3E3
330
22
100
AcDbEntity
  8
_2-7_ビス
  6
Continuous
 62
     7
100
AcDbLine
 10
1213.214114234888
 20
1042.086922469466
 30
0.0
 11
1213.214114234888
 21
1036.289689332692
 31
0.0
  0
LINE
  5
3E4
330
22
100
AcDbEntity
  8
_2-7_ビス
  6
Continuous
 62
     7
100
AcDbLine
 10
1213.214114234888
 20
1036.289689332692
 30
0.0
 11
1212.707867047828
 21
1035.325537962928
 31
0.0
  0
LINE
  5
3E5
330
22
100
AcDbEntity
  8
_2-7_ビス
  6
Continuous
 62
     7
100
AcDbLine
 10
1212.707864234889
 20
1035.325518964866
 30
0.0
 11
1212.704272604533
 21
1035.802970362106
 31
0.0
  0
LINE
  5
3E6
330
22
100
AcDbEntity
  8
_2-7_ビス
  6
Continuous
 62
     7
100
AcDbLine
 10
1212.704272604533
 20
1035.802970362106
 30
0.0
 11
1212.383592596909
 21
1035.820255806666
 31
0.0
  0
LINE
  5
3E7
330
22
100
AcDbEntity
  8
_2-7_ビス
  6
Continuous
 62
     7
100
AcDbLine
 10
1212.224930556742
 20
1036.067624227566
 30
0.0
 11
1212.675272984889
 21
1036.892185630566
 31
0.0
  0
LINE
  5
3E8
330
22
100
AcDbEntity
  8
_2-7_ビス
  6
Continuous
 62
     7
100
AcDbLine
 10
1212.675272984889
 20
1036.892185630566
 30
0.0
 11
1212.675273137012
 21
1037.369637099561
 31
0.0
  0
LINE
  5
3E9
330
22
100
AcDbEntity
  8
_2-7_ビス
  6
Continuous
 62
     7
100
AcDbLine
 10
1212.675273137012
 20
1037.369637099561
 30
0.0
 11
1212.32724073489
 21
1037.386922472366
 31
0.0
  0
LINE
  5
3EA
330
22
100
AcDbEntity
  8
_2-7_ビス
  6
Continuous
 62
     7
100
AcDbLine
 10
1212.167650985168
 20
1037.634290893266
 30
0.0
 11
1212.675272984889
 21
1038.458852296266
 31
0.0
  0
LINE
  5
3EB
330
22
100
AcDbEntity
  8
_2-7_ビス
  6
Continuous
 62
     7
100
AcDbLine
 10
1212.675272984889
 20
1038.458852296266
 30
0.0
 11
1212.675272984889
 21
1038.936303857374
 31
0.0
  0
LINE
  5
3EC
330
22
100
AcDbEntity
  8
_2-7_ビス
  6
Continuous
 62
     7
100
AcDbLine
 10
1212.675272984889
 20
1038.936303857374
 30
0.0
 11
1212.32724073489
 21
1038.953589138066
 31
0.0
  0
LINE
  5
3ED
330
22
100
AcDbEntity
  8
_2-7_ビス
  6
Continuous
 62
     7
100
AcDbLine
 10
1212.167650985168
 20
1039.200957558966
 30
0.0
 11
1212.675272984889
 21
1040.025518961966
 31
0.0
  0
LINE
  5
3EE
330
22
100
AcDbEntity
  8
_2-7_ビス
  6
Continuous
 62
     7
100
AcDbLine
 10
1212.675272984889
 20
1040.025518961966
 30
0.0
 11
1212.675272984889
 21
1040.502970523075
 31
0.0
  0
LINE
  5
3EF
330
22
100
AcDbEntity
  8
_2-7_ビス
  6
Continuous
 62
     7
100
AcDbLine
 10
1212.675272984889
 20
1040.502970523075
 30
0.0
 11
1212.32724073489
 21
1040.520255803767
 31
0.0
  0
LINE
  5
3F0
330
22
100
AcDbEntity
  8
_2-7_ビス
  6
Continuous
 62
     7
100
AcDbLine
 10
1212.167650985168
 20
1040.767624224666
 30
0.0
 11
1212.675273137012
 21
1041.592185627666
 31
0.0
  0
LINE
  5
3F1
330
22
100
AcDbEntity
  8
_2-7_ビス
  6
Continuous
 62
     7
100
AcDbLine
 10
1212.675273137012
 20
1041.592185627666
 30
0.0
 11
1212.675272984889
 21
1042.086922469466
 31
0.0
  0
LINE
  5
3F2
330
22
100
AcDbEntity
  8
_2-7_ビス
  6
Continuous
 62
     7
100
AcDbLine
 10
1212.707860061604
 20
1043.158852647148
 30
0.0
 11
1212.704174860359
 21
1043.636304116142
 31
0.0
  0
LINE
  5
3F3
330
22
100
AcDbEntity
  8
_2-7_ビス
  6
Continuous
 62
     7
100
AcDbLine
 10
1212.704174860359
 20
1043.636304116142
 30
0.0
 11
1212.38672998489
 21
1043.653589135167
 31
0.0
  0
LINE
  5
3F4
330
22
100
AcDbEntity
  8
_2-7_ビス
  6
Continuous
 62
     7
100
AcDbLine
 10
1212.224637844569
 20
1043.900957556066
 30
0.0
 11
1212.675273137012
 21
1044.725518959066
 31
0.0
  0
LINE
  5
3F5
330
22
100
AcDbEntity
  8
_2-7_ビス
  6
Continuous
 62
     7
100
AcDbLine
 10
1212.675273137012
 20
1044.725518959066
 30
0.0
 11
1212.675273137012
 21
1045.20297042806
 31
0.0
  0
LINE
  5
3F6
330
22
100
AcDbEntity
  8
_2-7_ビス
  6
Continuous
 62
     7
100
AcDbLine
 10
1212.675273137012
 20
1045.20297042806
 30
0.0
 11
1212.32724073489
 21
1045.220255800866
 31
0.0
  0
LINE
  5
3F7
330
22
100
AcDbEntity
  8
_2-7_ビス
  6
Continuous
 62
     7
100
AcDbLine
 10
1212.167650985168
 20
1045.467624221766
 30
0.0
 11
1212.675272984889
 21
1046.292185624766
 31
0.0
  0
LINE
  5
3F8
330
22
100
AcDbEntity
  8
_2-7_ビス
  6
Continuous
 62
     7
100
AcDbLine
 10
1212.675272984889
 20
1046.292185624766
 30
0.0
 11
1212.675273137012
 21
1046.76963709376
 31
0.0
  0
LINE
  5
3F9
330
22
100
AcDbEntity
  8
_2-7_ビス
  6
Continuous
 62
     7
100
AcDbLine
 10
1212.675273137012
 20
1046.76963709376
 30
0.0
 11
1212.326354642401
 21
1046.787154047726
 31
0.0
  0
LINE
  5
3FA
330
22
100
AcDbEntity
  8
_2-7_ビス
  6
Continuous
 62
     7
100
AcDbLine
 10
1212.167650985168
 20
1047.034290887466
 30
0.0
 11
1212.675273137012
 21
1047.858852290466
 31
0.0
  0
LINE
  5
3FB
330
22
100
AcDbEntity
  8
_2-7_ビス
  6
Continuous
 62
     7
100
AcDbLine
 10
1212.675273137012
 20
1047.858852290466
 30
0.0
 11
1212.675272979382
 21
1048.353589132266
 31
0.0
  0
LINE
  5
3FC
330
22
100
AcDbEntity
  8
_2-7_ビス
  6
Continuous
 62
     7
100
AcDbLine
 10
1212.675272984889
 20
1034.253589140966
 30
0.0
 11
1213.214114234888
 21
1034.253589140966
 31
0.0
  0
LINE
  5
3FD
330
22
100
AcDbEntity
  8
_2-7_ビス
  6
Continuous
 62
     7
100
AcDbLine
 10
1213.214114234888
 20
1034.253589140966
 30
0.0
 11
1213.214114234888
 21
1031.005347406129
 31
0.0
  0
LINE
  5
3FE
330
22
100
AcDbEntity
  8
_2-7_ビス
  6
Continuous
 62
     7
100
AcDbLine
 10
1213.214114234888
 20
1031.005347406129
 30
0.0
 11
1212.708328484889
 21
1027.492185636366
 31
0.0
  0
LINE
  5
3FF
330
22
100
AcDbEntity
  8
_2-7_ビス
  6
Continuous
 62
     7
100
AcDbLine
 10
1212.708328484889
 20
1027.492185636366
 30
0.0
 11
1212.707593967225
 21
1027.969636720507
 31
0.0
  0
LINE
  5
400
330
22
100
AcDbEntity
  8
_2-7_ビス
  6
Continuous
 62
     7
100
AcDbLine
 10
1212.707593967225
 20
1027.969636720507
 30
0.0
 11
1212.398905484888
 21
1027.986922478166
 31
0.0
  0
LINE
  5
401
330
22
100
AcDbEntity
  8
_2-7_ビス
  6
Continuous
 62
     7
100
AcDbLine
 10
1212.708328484889
 20
1027.492185636366
 30
0.0
 11
1212.274851674322
 21
1026.667624233366
 31
0.0
  0
LINE
  5
402
330
22
100
AcDbEntity
  8
_2-7_ビス
  6
Continuous
 62
     7
100
AcDbLine
 10
1212.2543489201
 20
1028.234290899066
 30
0.0
 11
1212.704951253561
 21
1029.058852302066
 31
0.0
  0
LINE
  5
403
330
22
100
AcDbEntity
  8
_2-7_ビス
  6
Continuous
 62
     7
100
AcDbLine
 10
1212.704951253561
 20
1029.058852302066
 30
0.0
 11
1212.702866349299
 21
1029.536303386206
 31
0.0
  0
LINE
  5
404
330
22
100
AcDbEntity
  8
_2-7_ビス
  6
Continuous
 62
     7
100
AcDbLine
 10
1212.702866349299
 20
1029.536303386206
 30
0.0
 11
1212.380539484888
 21
1029.553589143866
 31
0.0
  0
LINE
  5
405
330
22
100
AcDbEntity
  8
_2-7_ビス
  6
Continuous
 62
     7
100
AcDbLine
 10
1212.232033989071
 20
1029.800957564766
 30
0.0
 11
1212.695901848394
 21
1030.625518582912
 31
0.0
  0
LINE
  5
406
330
22
100
AcDbEntity
  8
_2-7_ビス
  6
Continuous
 62
     7
100
AcDbLine
 10
1212.695901848394
 20
1030.625518582912
 30
0.0
 11
1212.691839007698
 21
1031.102970051907
 31
0.0
  0
LINE
  5
407
330
22
100
AcDbEntity
  8
_2-7_ビス
  6
Continuous
 62
     7
100
AcDbLine
 10
1212.691839007698
 20
1031.102970051907
 30
0.0
 11
1212.357185652431
 21
1031.120255809566
 31
0.0
  0
LINE
  5
408
330
22
100
AcDbEntity
  8
_2-7_ビス
  6
Continuous
 62
     7
100
AcDbLine
 10
1212.199931036262
 20
1031.367624230466
 30
0.0
 11
1212.680133660468
 21
1032.192185248612
 31
0.0
  0
LINE
  5
409
330
22
100
AcDbEntity
  8
_2-7_ビス
  6
Continuous
 62
     7
100
AcDbLine
 10
1212.680133660468
 20
1032.192185248612
 30
0.0
 11
1212.675272984889
 21
1032.669637194574
 31
0.0
  0
LINE
  5
40A
330
22
100
AcDbEntity
  8
_2-7_ビス
  6
Continuous
 62
     7
100
AcDbLine
 10
1212.675272984889
 20
1032.669637194574
 30
0.0
 11
1212.32724073489
 21
1032.686922475266
 31
0.0
  0
LINE
  5
40B
330
22
100
AcDbEntity
  8
_2-7_ビス
  6
Continuous
 62
     7
100
AcDbLine
 10
1212.167650985168
 20
1032.934290896166
 30
0.0
 11
1212.675273137012
 21
1033.758852299166
 31
0.0
  0
LINE
  5
40C
330
22
100
AcDbEntity
  8
_2-7_ビス
  6
Continuous
 62
     7
100
AcDbLine
 10
1212.675273137012
 20
1033.758852299166
 30
0.0
 11
1212.675272984889
 21
1034.253589140966
 31
0.0
  0
LINE
  5
40D
330
22
100
AcDbEntity
  8
_2-7_ビス
  6
Continuous
 62
     7
100
AcDbLine
 10
1212.404755484888
 20
1026.420255812466
 30
0.0
 11
1212.539114234889
 21
1026.420255812466
 31
0.0
  0
LINE
  5
40E
330
22
100
AcDbEntity
  8
_2-7_ビス
  6
Continuous
 62
     7
100
AcDbLine
 10
1212.539114234889
 20
1026.420255812466
 30
0.0
 11
1212.539114234889
 21
1025.636922479616
 31
0.0
  0
LINE
  5
40F
330
22
100
AcDbEntity
  8
_2-7_ビス
  6
Continuous
 62
     7
100
AcDbLine
 10
1212.539114234889
 20
1025.636922479616
 30
0.0
 11
1212.389114234889
 21
1025.636922479616
 31
0.0
  0
LINE
  5
410
330
22
100
AcDbEntity
  8
_2-7_ビス
  6
Continuous
 62
     7
100
AcDbLine
 10
1212.389114234889
 20
1025.636922479616
 30
0.0
 11
1212.389114234889
 21
1024.029027743766
 31
0.0
  0
LINE
  5
411
330
22
100
AcDbEntity
  8
_2-7_ビス
  6
Continuous
 62
     7
100
AcDbLine
 10
1212.389114234889
 20
1024.029027743766
 30
0.0
 11
1212.382647424088
 21
1024.029027743766
 31
0.0
  0
LINE
  5
412
330
22
100
AcDbEntity
  8
_2-7_ビス
  6
Continuous
 62
     7
100
AcDbLine
 10
1212.332372234889
 20
1023.699203182566
 30
0.0
 11
1212.33237208835
 21
1017.748761589746
 31
0.0
  0
LINE
  5
413
330
22
100
AcDbEntity
  8
_2-7_ビス
  6
Continuous
 62
     7
100
AcDbLine
 10
1212.33237208835
 20
1017.748761589746
 30
0.0
 11
1211.891934734889
 21
1017.097340765587
 31
0.0
  0
LINE
  5
414
330
22
100
AcDbEntity
  8
_2-7_ビス
  6
Continuous
 62
     7
100
AcDbLine
 10
1211.891934734889
 20
1017.097340765587
 30
0.0
 11
1210.889114234888
 21
1015.783413713767
 31
0.0
  0
LINE
  5
415
330
22
100
AcDbEntity
  8
_2-7_ビス
  6
Continuous
 62
     7
100
AcDbLine
 10
1210.889114234888
 20
1015.783413713767
 30
0.0
 11
1210.739735755394
 21
1015.783413713767
 31
0.0
  0
LINE
  5
416
330
22
100
AcDbEntity
  8
_2-7_ビス
  6
Continuous
 62
     7
100
AcDbLine
 10
1210.739735755394
 20
1015.783413713767
 30
0.0
 11
1211.824829864709
 21
1017.748761589746
 31
0.0
  0
LINE
  5
417
330
22
100
AcDbEntity
  8
_2-7_ビス
  6
Continuous
 62
     7
100
AcDbLine
 10
1211.824829864709
 20
1017.748761589746
 30
0.0
 11
1211.824829984889
 21
1021.720255815366
 31
0.0
  0
LINE
  5
418
330
22
100
AcDbEntity
  8
_2-7_ビス
  6
Continuous
 62
     7
100
AcDbLine
 10
1211.241466484889
 20
1021.720255815366
 30
0.0
 11
1211.241466758321
 21
1017.748761742445
 31
0.0
  0
LINE
  5
419
330
22
100
AcDbEntity
  8
_2-7_ビス
  6
Continuous
 62
     7
100
AcDbLine
 10
1211.241466758321
 20
1017.748761742445
 30
0.0
 11
1210.156372393088
 21
1015.783413713767
 31
0.0
  0
LINE
  5
41A
330
22
100
AcDbEntity
  8
_2-7_ビス
  6
Continuous
 62
     7
100
AcDbLine
 10
1210.156372393088
 20
1015.783413713767
 30
0.0
 11
1209.539114234889
 21
1015.783413713767
 31
0.0
  0
LINE
  5
41B
330
22
100
AcDbEntity
  8
_2-7_ビス
  6
Continuous
 62
     7
100
AcDbLine
 10
1212.116814339972
 20
1048.621356965832
 30
0.0
 11
1212.116814339972
 21
1048.621356965832
 31
0.0
  0
LINE
  5
41C
330
22
100
AcDbEntity
  8
_2-7_ビス
  6
Continuous
 62
     7
100
AcDbLine
 10
1212.116814339972
 20
1048.621356965832
 30
0.0
 11
1212.103616214617
 21
1048.595097610455
 31
0.0
  0
LINE
  5
41D
330
22
100
AcDbEntity
  8
_2-7_ビス
  6
Continuous
 62
     7
100
AcDbLine
 10
1212.103616214617
 20
1048.595097610455
 30
0.0
 11
1212.094766157246
 21
1048.566717520486
 31
0.0
  0
LINE
  5
41E
330
22
100
AcDbEntity
  8
_2-7_ビス
  6
Continuous
 62
     7
100
AcDbLine
 10
1212.094766157246
 20
1048.566717520486
 30
0.0
 11
1212.090533072373
 21
1048.537079010597
 31
0.0
  0
LINE
  5
41F
330
22
100
AcDbEntity
  8
_2-7_ビス
  6
Continuous
 62
     7
100
AcDbLine
 10
1212.090533072373
 20
1048.537079010597
 30
0.0
 11
1212.09104558014
 21
1048.507082631915
 31
0.0
  0
LINE
  5
420
330
22
100
AcDbEntity
  8
_2-7_ビス
  6
Continuous
 62
     7
100
AcDbLine
 10
1212.09104558014
 20
1048.507082631915
 30
0.0
 11
1212.096288108258
 21
1048.477639809225
 31
0.0
  0
LINE
  5
421
330
22
100
AcDbEntity
  8
_2-7_ビス
  6
Continuous
 62
     7
100
AcDbLine
 10
1212.096288108258
 20
1048.477639809225
 30
0.0
 11
1212.106101365163
 21
1048.449645147796
 31
0.0
  0
LINE
  5
422
330
22
100
AcDbEntity
  8
_2-7_ビス
  6
Continuous
 62
     7
100
AcDbLine
 10
1212.106101365163
 20
1048.449645147796
 30
0.0
 11
1212.12018718001
 21
1048.423949251251
 31
0.0
  0
LINE
  5
423
330
22
100
AcDbEntity
  8
_2-7_ビス
  6
Continuous
 62
     7
100
AcDbLine
 10
1212.12018718001
 20
1048.423949251251
 30
0.0
 11
1212.138117562442
 21
1048.401332876403
 31
0.0
  0
LINE
  5
424
330
22
100
AcDbEntity
  8
_2-7_ビス
  6
Continuous
 62
     7
100
AcDbLine
 10
1212.138117562442
 20
1048.401332876403
 30
0.0
 11
1212.159347706863
 21
1048.382483210356
 31
0.0
  0
LINE
  5
425
330
22
100
AcDbEntity
  8
_2-7_ビス
  6
Continuous
 62
     7
100
AcDbLine
 10
1212.159347706863
 20
1048.382483210356
 30
0.0
 11
1212.183232546077
 21
1048.367972990677
 31
0.0
  0
LINE
  5
426
330
22
100
AcDbEntity
  8
_2-7_ビス
  6
Continuous
 62
     7
100
AcDbLine
 10
1212.183232546077
 20
1048.367972990677
 30
0.0
 11
1212.20904635133
 21
1048.358243103047
 31
0.0
  0
LINE
  5
427
330
22
100
AcDbEntity
  8
_2-7_ビス
  6
Continuous
 62
     7
100
AcDbLine
 10
1212.20904635133
 20
1048.358243103047
 30
0.0
 11
1212.236004783213
 21
1048.353589185178
 31
0.0
  0
LINE
  5
428
330
22
100
AcDbEntity
  8
_2-7_ビス
  6
Continuous
 62
     7
100
AcDbLine
 10
1212.236004783213
 20
1048.353589185178
 30
0.0
 11
1212.236005484889
 21
1048.353589132265
 31
0.0
  0
LINE
  5
429
330
22
100
AcDbEntity
  8
_2-7_ビス
  6
Continuous
 62
     7
100
AcDbLine
 10
1212.167650985167
 20
1047.034290887466
 30
0.0
 11
1212.167650985167
 21
1047.034290887466
 31
0.0
  0
LINE
  5
42A
330
22
100
AcDbEntity
  8
_2-7_ビス
  6
Continuous
 62
     7
100
AcDbLine
 10
1212.167650985167
 20
1047.034290887466
 30
0.0
 11
1212.166979879581
 21
1046.994332733478
 31
0.0
  0
LINE
  5
42B
330
22
100
AcDbEntity
  8
_2-7_ビス
  6
Continuous
 62
     7
100
AcDbLine
 10
1212.166979879581
 20
1046.994332733478
 30
0.0
 11
1212.172630198145
 21
1046.954853511895
 31
0.0
  0
LINE
  5
42C
330
22
100
AcDbEntity
  8
_2-7_ビス
  6
Continuous
 62
     7
100
AcDbLine
 10
1212.172630198145
 20
1046.954853511895
 30
0.0
 11
1212.184430258789
 21
1046.91705277889
 31
0.0
  0
LINE
  5
42D
330
22
100
AcDbEntity
  8
_2-7_ビス
  6
Continuous
 62
     7
100
AcDbLine
 10
1212.184430258789
 20
1046.91705277889
 30
0.0
 11
1212.202021522643
 21
1046.882079090604
 31
0.0
  0
LINE
  5
42E
330
22
100
AcDbEntity
  8
_2-7_ビス
  6
Continuous
 62
     7
100
AcDbLine
 10
1212.202021522643
 20
1046.882079090604
 30
0.0
 11
1212.224869488056
 21
1046.850995104861
 31
0.0
  0
LINE
  5
42F
330
22
100
AcDbEntity
  8
_2-7_ビス
  6
Continuous
 62
     7
100
AcDbLine
 10
1212.224869488056
 20
1046.850995104861
 30
0.0
 11
1212.252279931159
 21
1046.824745292836
 31
0.0
  0
LINE
  5
430
330
22
100
AcDbEntity
  8
_2-7_ビス
  6
Continuous
 62
     7
100
AcDbLine
 10
1212.252279931159
 20
1046.824745292836
 30
0.0
 11
1212.283419999511
 21
1046.804127241787
 31
0.0
  0
LINE
  5
431
330
22
100
AcDbEntity
  8
_2-7_ビス
  6
Continuous
 62
     7
100
AcDbLine
 10
1212.283419999511
 20
1046.804127241787
 30
0.0
 11
1212.317343517891
 21
1046.78976742076
 31
0.0
  0
LINE
  5
432
330
22
100
AcDbEntity
  8
_2-7_ビス
  6
Continuous
 62
     7
100
AcDbLine
 10
1212.317343517891
 20
1046.78976742076
 30
0.0
 11
1212.327240734888
 21
1046.786922466566
 31
0.0
  0
LINE
  5
433
330
22
100
AcDbEntity
  8
_2-7_ビス
  6
Continuous
 62
     7
100
AcDbLine
 10
1212.167650985167
 20
1045.467624221766
 30
0.0
 11
1212.167650985167
 21
1045.467624221766
 31
0.0
  0
LINE
  5
434
330
22
100
AcDbEntity
  8
_2-7_ビス
  6
Continuous
 62
     7
100
AcDbLine
 10
1212.167650985167
 20
1045.467624221766
 30
0.0
 11
1212.166979879581
 21
1045.427666067777
 31
0.0
  0
LINE
  5
435
330
22
100
AcDbEntity
  8
_2-7_ビス
  6
Continuous
 62
     7
100
AcDbLine
 10
1212.166979879581
 20
1045.427666067777
 30
0.0
 11
1212.172630198145
 21
1045.388186846195
 31
0.0
  0
LINE
  5
436
330
22
100
AcDbEntity
  8
_2-7_ビス
  6
Continuous
 62
     7
100
AcDbLine
 10
1212.172630198145
 20
1045.388186846195
 30
0.0
 11
1212.184430258789
 21
1045.350386113189
 31
0.0
  0
LINE
  5
437
330
22
100
AcDbEntity
  8
_2-7_ビス
  6
Continuous
 62
     7
100
AcDbLine
 10
1212.184430258789
 20
1045.350386113189
 30
0.0
 11
1212.202021522643
 21
1045.315412424904
 31
0.0
  0
LINE
  5
438
330
22
100
AcDbEntity
  8
_2-7_ビス
  6
Continuous
 62
     7
100
AcDbLine
 10
1212.202021522643
 20
1045.315412424904
 30
0.0
 11
1212.224869488056
 21
1045.284328439161
 31
0.0
  0
LINE
  5
439
330
22
100
AcDbEntity
  8
_2-7_ビス
  6
Continuous
 62
     7
100
AcDbLine
 10
1212.224869488056
 20
1045.284328439161
 30
0.0
 11
1212.252279931159
 21
1045.258078627136
 31
0.0
  0
LINE
  5
43A
330
22
100
AcDbEntity
  8
_2-7_ビス
  6
Continuous
 62
     7
100
AcDbLine
 10
1212.252279931159
 20
1045.258078627136
 30
0.0
 11
1212.283419999511
 21
1045.237460576087
 31
0.0
  0
LINE
  5
43B
330
22
100
AcDbEntity
  8
_2-7_ビス
  6
Continuous
 62
     7
100
AcDbLine
 10
1212.283419999511
 20
1045.237460576087
 30
0.0
 11
1212.317343517891
 21
1045.22310075506
 31
0.0
  0
LINE
  5
43C
330
22
100
AcDbEntity
  8
_2-7_ビス
  6
Continuous
 62
     7
100
AcDbLine
 10
1212.317343517891
 20
1045.22310075506
 30
0.0
 11
1212.327240734888
 21
1045.220255800866
 31
0.0
  0
LINE
  5
43D
330
22
100
AcDbEntity
  8
_2-7_ビス
  6
Continuous
 62
     7
100
AcDbLine
 10
1212.224637844569
 20
1043.900957556066
 30
0.0
 11
1212.224637844569
 21
1043.900957556066
 31
0.0
  0
LINE
  5
43E
330
22
100
AcDbEntity
  8
_2-7_ビス
  6
Continuous
 62
     7
100
AcDbLine
 10
1212.224637844569
 20
1043.900957556066
 30
0.0
 11
1212.223966738982
 21
1043.860999402077
 31
0.0
  0
LINE
  5
43F
330
22
100
AcDbEntity
  8
_2-7_ビス
  6
Continuous
 62
     7
100
AcDbLine
 10
1212.223966738982
 20
1043.860999402077
 30
0.0
 11
1212.229617057546
 21
1043.821520180495
 31
0.0
  0
LINE
  5
440
330
22
100
AcDbEntity
  8
_2-7_ビス
  6
Continuous
 62
     7
100
AcDbLine
 10
1212.229617057546
 20
1043.821520180495
 30
0.0
 11
1212.241417118191
 21
1043.78371944749
 31
0.0
  0
LINE
  5
441
330
22
100
AcDbEntity
  8
_2-7_ビス
  6
Continuous
 62
     7
100
AcDbLine
 10
1212.241417118191
 20
1043.78371944749
 30
0.0
 11
1212.259008382045
 21
1043.748745759204
 31
0.0
  0
LINE
  5
442
330
22
100
AcDbEntity
  8
_2-7_ビス
  6
Continuous
 62
     7
100
AcDbLine
 10
1212.259008382045
 20
1043.748745759204
 30
0.0
 11
1212.281856347457
 21
1043.717661773461
 31
0.0
  0
LINE
  5
443
330
22
100
AcDbEntity
  8
_2-7_ビス
  6
Continuous
 62
     7
100
AcDbLine
 10
1212.281856347457
 20
1043.717661773461
 30
0.0
 11
1212.309266790561
 21
1043.691411961436
 31
0.0
  0
LINE
  5
444
330
22
100
AcDbEntity
  8
_2-7_ビス
  6
Continuous
 62
     7
100
AcDbLine
 10
1212.309266790561
 20
1043.691411961436
 30
0.0
 11
1212.340406858913
 21
1043.670793910387
 31
0.0
  0
LINE
  5
445
330
22
100
AcDbEntity
  8
_2-7_ビス
  6
Continuous
 62
     7
100
AcDbLine
 10
1212.340406858913
 20
1043.670793910387
 30
0.0
 11
1212.374330377293
 21
1043.65643408936
 31
0.0
  0
LINE
  5
446
330
22
100
AcDbEntity
  8
_2-7_ビス
  6
Continuous
 62
     7
100
AcDbLine
 10
1212.374330377293
 20
1043.65643408936
 30
0.0
 11
1212.38422759429
 21
1043.653589135166
 31
0.0
  0
LINE
  5
447
330
22
100
AcDbEntity
  8
_2-7_ビス
  6
Continuous
 62
     7
100
AcDbLine
 10
1212.167650985167
 20
1040.767624224666
 30
0.0
 11
1212.167650985167
 21
1040.767624224666
 31
0.0
  0
LINE
  5
448
330
22
100
AcDbEntity
  8
_2-7_ビス
  6
Continuous
 62
     7
100
AcDbLine
 10
1212.167650985167
 20
1040.767624224666
 30
0.0
 11
1212.166979879581
 21
1040.727666070678
 31
0.0
  0
LINE
  5
449
330
22
100
AcDbEntity
  8
_2-7_ビス
  6
Continuous
 62
     7
100
AcDbLine
 10
1212.166979879581
 20
1040.727666070678
 30
0.0
 11
1212.172630198145
 21
1040.688186849096
 31
0.0
  0
LINE
  5
44A
330
22
100
AcDbEntity
  8
_2-7_ビス
  6
Continuous
 62
     7
100
AcDbLine
 10
1212.172630198145
 20
1040.688186849096
 30
0.0
 11
1212.184430258789
 21
1040.650386116089
 31
0.0
  0
LINE
  5
44B
330
22
100
AcDbEntity
  8
_2-7_ビス
  6
Continuous
 62
     7
100
AcDbLine
 10
1212.184430258789
 20
1040.650386116089
 30
0.0
 11
1212.202021522643
 21
1040.615412427804
 31
0.0
  0
LINE
  5
44C
330
22
100
AcDbEntity
  8
_2-7_ビス
  6
Continuous
 62
     7
100
AcDbLine
 10
1212.202021522643
 20
1040.615412427804
 30
0.0
 11
1212.224869488056
 21
1040.584328442061
 31
0.0
  0
LINE
  5
44D
330
22
100
AcDbEntity
  8
_2-7_ビス
  6
Continuous
 62
     7
100
AcDbLine
 10
1212.224869488056
 20
1040.584328442061
 30
0.0
 11
1212.252279931159
 21
1040.558078630036
 31
0.0
  0
LINE
  5
44E
330
22
100
AcDbEntity
  8
_2-7_ビス
  6
Continuous
 62
     7
100
AcDbLine
 10
1212.252279931159
 20
1040.558078630036
 30
0.0
 11
1212.283419999511
 21
1040.537460578986
 31
0.0
  0
LINE
  5
44F
330
22
100
AcDbEntity
  8
_2-7_ビス
  6
Continuous
 62
     7
100
AcDbLine
 10
1212.283419999511
 20
1040.537460578986
 30
0.0
 11
1212.317343517891
 21
1040.52310075796
 31
0.0
  0
LINE
  5
450
330
22
100
AcDbEntity
  8
_2-7_ビス
  6
Continuous
 62
     7
100
AcDbLine
 10
1212.317343517891
 20
1040.52310075796
 30
0.0
 11
1212.327240734888
 21
1040.520255803766
 31
0.0
  0
LINE
  5
451
330
22
100
AcDbEntity
  8
_2-7_ビス
  6
Continuous
 62
     7
100
AcDbLine
 10
1212.167650985167
 20
1039.200957558966
 30
0.0
 11
1212.167650985167
 21
1039.200957558966
 31
0.0
  0
LINE
  5
452
330
22
100
AcDbEntity
  8
_2-7_ビス
  6
Continuous
 62
     7
100
AcDbLine
 10
1212.167650985167
 20
1039.200957558966
 30
0.0
 11
1212.166979879581
 21
1039.160999404977
 31
0.0
  0
LINE
  5
453
330
22
100
AcDbEntity
  8
_2-7_ビス
  6
Continuous
 62
     7
100
AcDbLine
 10
1212.166979879581
 20
1039.160999404977
 30
0.0
 11
1212.172630198145
 21
1039.121520183395
 31
0.0
  0
LINE
  5
454
330
22
100
AcDbEntity
  8
_2-7_ビス
  6
Continuous
 62
     7
100
AcDbLine
 10
1212.172630198145
 20
1039.121520183395
 30
0.0
 11
1212.184430258789
 21
1039.083719450389
 31
0.0
  0
LINE
  5
455
330
22
100
AcDbEntity
  8
_2-7_ビス
  6
Continuous
 62
     7
100
AcDbLine
 10
1212.184430258789
 20
1039.083719450389
 30
0.0
 11
1212.202021522643
 21
1039.048745762104
 31
0.0
  0
LINE
  5
456
330
22
100
AcDbEntity
  8
_2-7_ビス
  6
Continuous
 62
     7
100
AcDbLine
 10
1212.202021522643
 20
1039.048745762104
 30
0.0
 11
1212.224869488056
 21
1039.017661776361
 31
0.0
  0
LINE
  5
457
330
22
100
AcDbEntity
  8
_2-7_ビス
  6
Continuous
 62
     7
100
AcDbLine
 10
1212.224869488056
 20
1039.017661776361
 30
0.0
 11
1212.252279931159
 21
1038.991411964336
 31
0.0
  0
LINE
  5
458
330
22
100
AcDbEntity
  8
_2-7_ビス
  6
Continuous
 62
     7
100
AcDbLine
 10
1212.252279931159
 20
1038.991411964336
 30
0.0
 11
1212.283419999511
 21
1038.970793913286
 31
0.0
  0
LINE
  5
459
330
22
100
AcDbEntity
  8
_2-7_ビス
  6
Continuous
 62
     7
100
AcDbLine
 10
1212.283419999511
 20
1038.970793913286
 30
0.0
 11
1212.317343517891
 21
1038.95643409226
 31
0.0
  0
LINE
  5
45A
330
22
100
AcDbEntity
  8
_2-7_ビス
  6
Continuous
 62
     7
100
AcDbLine
 10
1212.317343517891
 20
1038.95643409226
 30
0.0
 11
1212.327240734888
 21
1038.953589138066
 31
0.0
  0
LINE
  5
45B
330
22
100
AcDbEntity
  8
_2-7_ビス
  6
Continuous
 62
     7
100
AcDbLine
 10
1212.167650985167
 20
1037.634290893266
 30
0.0
 11
1212.167650985167
 21
1037.634290893266
 31
0.0
  0
LINE
  5
45C
330
22
100
AcDbEntity
  8
_2-7_ビス
  6
Continuous
 62
     7
100
AcDbLine
 10
1212.167650985167
 20
1037.634290893266
 30
0.0
 11
1212.166979879581
 21
1037.594332739278
 31
0.0
  0
LINE
  5
45D
330
22
100
AcDbEntity
  8
_2-7_ビス
  6
Continuous
 62
     7
100
AcDbLine
 10
1212.166979879581
 20
1037.594332739278
 30
0.0
 11
1212.172630198145
 21
1037.554853517695
 31
0.0
  0
LINE
  5
45E
330
22
100
AcDbEntity
  8
_2-7_ビス
  6
Continuous
 62
     7
100
AcDbLine
 10
1212.172630198145
 20
1037.554853517695
 30
0.0
 11
1212.184430258789
 21
1037.517052784689
 31
0.0
  0
LINE
  5
45F
330
22
100
AcDbEntity
  8
_2-7_ビス
  6
Continuous
 62
     7
100
AcDbLine
 10
1212.184430258789
 20
1037.517052784689
 30
0.0
 11
1212.202021522643
 21
1037.482079096404
 31
0.0
  0
LINE
  5
460
330
22
100
AcDbEntity
  8
_2-7_ビス
  6
Continuous
 62
     7
100
AcDbLine
 10
1212.202021522643
 20
1037.482079096404
 30
0.0
 11
1212.224869488056
 21
1037.45099511066
 31
0.0
  0
LINE
  5
461
330
22
100
AcDbEntity
  8
_2-7_ビス
  6
Continuous
 62
     7
100
AcDbLine
 10
1212.224869488056
 20
1037.45099511066
 30
0.0
 11
1212.252279931159
 21
1037.424745298636
 31
0.0
  0
LINE
  5
462
330
22
100
AcDbEntity
  8
_2-7_ビス
  6
Continuous
 62
     7
100
AcDbLine
 10
1212.252279931159
 20
1037.424745298636
 30
0.0
 11
1212.283419999511
 21
1037.404127247587
 31
0.0
  0
LINE
  5
463
330
22
100
AcDbEntity
  8
_2-7_ビス
  6
Continuous
 62
     7
100
AcDbLine
 10
1212.283419999511
 20
1037.404127247587
 30
0.0
 11
1212.317343517891
 21
1037.389767426559
 31
0.0
  0
LINE
  5
464
330
22
100
AcDbEntity
  8
_2-7_ビス
  6
Continuous
 62
     7
100
AcDbLine
 10
1212.317343517891
 20
1037.389767426559
 30
0.0
 11
1212.327240734888
 21
1037.386922472366
 31
0.0
  0
LINE
  5
465
330
22
100
AcDbEntity
  8
_2-7_ビス
  6
Continuous
 62
     7
100
AcDbLine
 10
1212.224930556742
 20
1036.067624227566
 30
0.0
 11
1212.224930556742
 21
1036.067624227566
 31
0.0
  0
LINE
  5
466
330
22
100
AcDbEntity
  8
_2-7_ビス
  6
Continuous
 62
     7
100
AcDbLine
 10
1212.224930556742
 20
1036.067624227566
 30
0.0
 11
1212.224259451154
 21
1036.027666073577
 31
0.0
  0
LINE
  5
467
330
22
100
AcDbEntity
  8
_2-7_ビス
  6
Continuous
 62
     7
100
AcDbLine
 10
1212.224259451154
 20
1036.027666073577
 30
0.0
 11
1212.229909769719
 21
1035.988186851995
 31
0.0
  0
LINE
  5
468
330
22
100
AcDbEntity
  8
_2-7_ビス
  6
Continuous
 62
     7
100
AcDbLine
 10
1212.229909769719
 20
1035.988186851995
 30
0.0
 11
1212.241709830364
 21
1035.950386118989
 31
0.0
  0
LINE
  5
469
330
22
100
AcDbEntity
  8
_2-7_ビス
  6
Continuous
 62
     7
100
AcDbLine
 10
1212.241709830364
 20
1035.950386118989
 30
0.0
 11
1212.259301094218
 21
1035.915412430704
 31
0.0
  0
LINE
  5
46A
330
22
100
AcDbEntity
  8
_2-7_ビス
  6
Continuous
 62
     7
100
AcDbLine
 10
1212.259301094218
 20
1035.915412430704
 30
0.0
 11
1212.28214905963
 21
1035.88432844496
 31
0.0
  0
LINE
  5
46B
330
22
100
AcDbEntity
  8
_2-7_ビス
  6
Continuous
 62
     7
100
AcDbLine
 10
1212.28214905963
 20
1035.88432844496
 30
0.0
 11
1212.309559502734
 21
1035.858078632936
 31
0.0
  0
LINE
  5
46C
330
22
100
AcDbEntity
  8
_2-7_ビス
  6
Continuous
 62
     7
100
AcDbLine
 10
1212.309559502734
 20
1035.858078632936
 30
0.0
 11
1212.340699571085
 21
1035.837460581886
 31
0.0
  0
LINE
  5
46D
330
22
100
AcDbEntity
  8
_2-7_ビス
  6
Continuous
 62
     7
100
AcDbLine
 10
1212.340699571085
 20
1035.837460581886
 30
0.0
 11
1212.374623089465
 21
1035.823100760859
 31
0.0
  0
LINE
  5
46E
330
22
100
AcDbEntity
  8
_2-7_ビス
  6
Continuous
 62
     7
100
AcDbLine
 10
1212.374623089465
 20
1035.823100760859
 30
0.0
 11
1212.384520306463
 21
1035.820255806666
 31
0.0
  0
LINE
  5
46F
330
22
100
AcDbEntity
  8
_2-7_ビス
  6
Continuous
 62
     7
100
AcDbLine
 10
1212.167650985167
 20
1032.934290896165
 30
0.0
 11
1212.167650985167
 21
1032.934290896165
 31
0.0
  0
LINE
  5
470
330
22
100
AcDbEntity
  8
_2-7_ビス
  6
Continuous
 62
     7
100
AcDbLine
 10
1212.167650985167
 20
1032.934290896165
 30
0.0
 11
1212.166979879581
 21
1032.894332742177
 31
0.0
  0
LINE
  5
471
330
22
100
AcDbEntity
  8
_2-7_ビス
  6
Continuous
 62
     7
100
AcDbLine
 10
1212.166979879581
 20
1032.894332742177
 30
0.0
 11
1212.172630198145
 21
1032.854853520595
 31
0.0
  0
LINE
  5
472
330
22
100
AcDbEntity
  8
_2-7_ビス
  6
Continuous
 62
     7
100
AcDbLine
 10
1212.172630198145
 20
1032.854853520595
 30
0.0
 11
1212.184430258789
 21
1032.817052787589
 31
0.0
  0
LINE
  5
473
330
22
100
AcDbEntity
  8
_2-7_ビス
  6
Continuous
 62
     7
100
AcDbLine
 10
1212.184430258789
 20
1032.817052787589
 30
0.0
 11
1212.202021522643
 21
1032.782079099304
 31
0.0
  0
LINE
  5
474
330
22
100
AcDbEntity
  8
_2-7_ビス
  6
Continuous
 62
     7
100
AcDbLine
 10
1212.202021522643
 20
1032.782079099304
 30
0.0
 11
1212.224869488056
 21
1032.75099511356
 31
0.0
  0
LINE
  5
475
330
22
100
AcDbEntity
  8
_2-7_ビス
  6
Continuous
 62
     7
100
AcDbLine
 10
1212.224869488056
 20
1032.75099511356
 30
0.0
 11
1212.252279931159
 21
1032.724745301536
 31
0.0
  0
LINE
  5
476
330
22
100
AcDbEntity
  8
_2-7_ビス
  6
Continuous
 62
     7
100
AcDbLine
 10
1212.252279931159
 20
1032.724745301536
 30
0.0
 11
1212.283419999511
 21
1032.704127250486
 31
0.0
  0
LINE
  5
477
330
22
100
AcDbEntity
  8
_2-7_ビス
  6
Continuous
 62
     7
100
AcDbLine
 10
1212.283419999511
 20
1032.704127250486
 30
0.0
 11
1212.317343517891
 21
1032.689767429459
 31
0.0
  0
LINE
  5
478
330
22
100
AcDbEntity
  8
_2-7_ビス
  6
Continuous
 62
     7
100
AcDbLine
 10
1212.317343517891
 20
1032.689767429459
 30
0.0
 11
1212.327240734888
 21
1032.686922475265
 31
0.0
  0
LINE
  5
479
330
22
100
AcDbEntity
  8
_2-7_ビス
  6
Continuous
 62
     7
100
AcDbLine
 10
1212.199931036262
 20
1031.367624230466
 30
0.0
 11
1212.199931036262
 21
1031.367624230466
 31
0.0
  0
LINE
  5
47A
330
22
100
AcDbEntity
  8
_2-7_ビス
  6
Continuous
 62
     7
100
AcDbLine
 10
1212.199931036262
 20
1031.367624230466
 30
0.0
 11
1212.199259930675
 21
1031.327666076478
 31
0.0
  0
LINE
  5
47B
330
22
100
AcDbEntity
  8
_2-7_ビス
  6
Continuous
 62
     7
100
AcDbLine
 10
1212.199259930675
 20
1031.327666076478
 30
0.0
 11
1212.204910249239
 21
1031.288186854895
 31
0.0
  0
LINE
  5
47C
330
22
100
AcDbEntity
  8
_2-7_ビス
  6
Continuous
 62
     7
100
AcDbLine
 10
1212.204910249239
 20
1031.288186854895
 30
0.0
 11
1212.216710309884
 21
1031.25038612189
 31
0.0
  0
LINE
  5
47D
330
22
100
AcDbEntity
  8
_2-7_ビス
  6
Continuous
 62
     7
100
AcDbLine
 10
1212.216710309884
 20
1031.25038612189
 30
0.0
 11
1212.234301573738
 21
1031.215412433604
 31
0.0
  0
LINE
  5
47E
330
22
100
AcDbEntity
  8
_2-7_ビス
  6
Continuous
 62
     7
100
AcDbLine
 10
1212.234301573738
 20
1031.215412433604
 30
0.0
 11
1212.25714953915
 21
1031.184328447861
 31
0.0
  0
LINE
  5
47F
330
22
100
AcDbEntity
  8
_2-7_ビス
  6
Continuous
 62
     7
100
AcDbLine
 10
1212.25714953915
 20
1031.184328447861
 30
0.0
 11
1212.284559982254
 21
1031.158078635836
 31
0.0
  0
LINE
  5
480
330
22
100
AcDbEntity
  8
_2-7_ビス
  6
Continuous
 62
     7
100
AcDbLine
 10
1212.284559982254
 20
1031.158078635836
 30
0.0
 11
1212.315700050606
 21
1031.137460584786
 31
0.0
  0
LINE
  5
481
330
22
100
AcDbEntity
  8
_2-7_ビス
  6
Continuous
 62
     7
100
AcDbLine
 10
1212.315700050606
 20
1031.137460584786
 30
0.0
 11
1212.349623568986
 21
1031.12310076376
 31
0.0
  0
LINE
  5
482
330
22
100
AcDbEntity
  8
_2-7_ビス
  6
Continuous
 62
     7
100
AcDbLine
 10
1212.349623568986
 20
1031.12310076376
 30
0.0
 11
1212.359520785983
 21
1031.120255809566
 31
0.0
  0
LINE
  5
483
330
22
100
AcDbEntity
  8
_2-7_ビス
  6
Continuous
 62
     7
100
AcDbLine
 10
1212.232033989071
 20
1029.800957564765
 30
0.0
 11
1212.232033989071
 21
1029.800957564765
 31
0.0
  0
LINE
  5
484
330
22
100
AcDbEntity
  8
_2-7_ビス
  6
Continuous
 62
     7
100
AcDbLine
 10
1212.232033989071
 20
1029.800957564765
 30
0.0
 11
1212.231362883483
 21
1029.760999410777
 31
0.0
  0
LINE
  5
485
330
22
100
AcDbEntity
  8
_2-7_ビス
  6
Continuous
 62
     7
100
AcDbLine
 10
1212.231362883483
 20
1029.760999410777
 30
0.0
 11
1212.237013202047
 21
1029.721520189195
 31
0.0
  0
LINE
  5
486
330
22
100
AcDbEntity
  8
_2-7_ビス
  6
Continuous
 62
     7
100
AcDbLine
 10
1212.237013202047
 20
1029.721520189195
 30
0.0
 11
1212.248813262692
 21
1029.683719456189
 31
0.0
  0
LINE
  5
487
330
22
100
AcDbEntity
  8
_2-7_ビス
  6
Continuous
 62
     7
100
AcDbLine
 10
1212.248813262692
 20
1029.683719456189
 30
0.0
 11
1212.266404526546
 21
1029.648745767904
 31
0.0
  0
LINE
  5
488
330
22
100
AcDbEntity
  8
_2-7_ビス
  6
Continuous
 62
     7
100
AcDbLine
 10
1212.266404526546
 20
1029.648745767904
 30
0.0
 11
1212.289252491959
 21
1029.61766178216
 31
0.0
  0
LINE
  5
489
330
22
100
AcDbEntity
  8
_2-7_ビス
  6
Continuous
 62
     7
100
AcDbLine
 10
1212.289252491959
 20
1029.61766178216
 30
0.0
 11
1212.316662935063
 21
1029.591411970136
 31
0.0
  0
LINE
  5
48A
330
22
100
AcDbEntity
  8
_2-7_ビス
  6
Continuous
 62
     7
100
AcDbLine
 10
1212.316662935063
 20
1029.591411970136
 30
0.0
 11
1212.347803003414
 21
1029.570793919086
 31
0.0
  0
LINE
  5
48B
330
22
100
AcDbEntity
  8
_2-7_ビス
  6
Continuous
 62
     7
100
AcDbLine
 10
1212.347803003414
 20
1029.570793919086
 30
0.0
 11
1212.381726521794
 21
1029.556434098059
 31
0.0
  0
LINE
  5
48C
330
22
100
AcDbEntity
  8
_2-7_ビス
  6
Continuous
 62
     7
100
AcDbLine
 10
1212.381726521794
 20
1029.556434098059
 30
0.0
 11
1212.391623738791
 21
1029.553589143865
 31
0.0
  0
LINE
  5
48D
330
22
100
AcDbEntity
  8
_2-7_ビス
  6
Continuous
 62
     7
100
AcDbLine
 10
1212.2543489201
 20
1028.234290899066
 30
0.0
 11
1212.2543489201
 21
1028.234290899066
 31
0.0
  0
LINE
  5
48E
330
22
100
AcDbEntity
  8
_2-7_ビス
  6
Continuous
 62
     7
100
AcDbLine
 10
1212.2543489201
 20
1028.234290899066
 30
0.0
 11
1212.253677814513
 21
1028.194332745078
 31
0.0
  0
LINE
  5
48F
330
22
100
AcDbEntity
  8
_2-7_ビス
  6
Continuous
 62
     7
100
AcDbLine
 10
1212.253677814513
 20
1028.194332745078
 30
0.0
 11
1212.259328133077
 21
1028.154853523496
 31
0.0
  0
LINE
  5
490
330
22
100
AcDbEntity
  8
_2-7_ビス
  6
Continuous
 62
     7
100
AcDbLine
 10
1212.259328133077
 20
1028.154853523496
 30
0.0
 11
1212.271128193722
 21
1028.11705279049
 31
0.0
  0
LINE
  5
491
330
22
100
AcDbEntity
  8
_2-7_ビス
  6
Continuous
 62
     7
100
AcDbLine
 10
1212.271128193722
 20
1028.11705279049
 30
0.0
 11
1212.288719457576
 21
1028.082079102205
 31
0.0
  0
LINE
  5
492
330
22
100
AcDbEntity
  8
_2-7_ビス
  6
Continuous
 62
     7
100
AcDbLine
 10
1212.288719457576
 20
1028.082079102205
 30
0.0
 11
1212.311567422988
 21
1028.050995116461
 31
0.0
  0
LINE
  5
493
330
22
100
AcDbEntity
  8
_2-7_ビス
  6
Continuous
 62
     7
100
AcDbLine
 10
1212.311567422988
 20
1028.050995116461
 30
0.0
 11
1212.338977866092
 21
1028.024745304437
 31
0.0
  0
LINE
  5
494
330
22
100
AcDbEntity
  8
_2-7_ビス
  6
Continuous
 62
     7
100
AcDbLine
 10
1212.338977866092
 20
1028.024745304437
 30
0.0
 11
1212.370117934443
 21
1028.004127253387
 31
0.0
  0
LINE
  5
495
330
22
100
AcDbEntity
  8
_2-7_ビス
  6
Continuous
 62
     7
100
AcDbLine
 10
1212.370117934443
 20
1028.004127253387
 30
0.0
 11
1212.404041452824
 21
1027.98976743236
 31
0.0
  0
LINE
  5
496
330
22
100
AcDbEntity
  8
_2-7_ビス
  6
Continuous
 62
     7
100
AcDbLine
 10
1212.404041452824
 20
1027.98976743236
 30
0.0
 11
1212.41393866982
 21
1027.986922478167
 31
0.0
  0
LINE
  5
497
330
22
100
AcDbEntity
  8
_2-7_ビス
  6
Continuous
 62
     7
100
AcDbLine
 10
1212.287851499034
 20
1026.692352554336
 30
0.0
 11
1212.287851499034
 21
1026.692352554336
 31
0.0
  0
LINE
  5
498
330
22
100
AcDbEntity
  8
_2-7_ビス
  6
Continuous
 62
     7
100
AcDbLine
 10
1212.287851499034
 20
1026.692352554336
 30
0.0
 11
1212.274189347285
 21
1026.666064552358
 31
0.0
  0
LINE
  5
499
330
22
100
AcDbEntity
  8
_2-7_ビス
  6
Continuous
 62
     7
100
AcDbLine
 10
1212.274189347285
 20
1026.666064552358
 30
0.0
 11
1212.264886837736
 21
1026.637567663045
 31
0.0
  0
LINE
  5
49A
330
22
100
AcDbEntity
  8
_2-7_ビス
  6
Continuous
 62
     7
100
AcDbLine
 10
1212.264886837736
 20
1026.637567663045
 30
0.0
 11
1212.260226622434
 21
1026.607727749957
 31
0.0
  0
LINE
  5
49B
330
22
100
AcDbEntity
  8
_2-7_ビス
  6
Continuous
 62
     7
100
AcDbLine
 10
1212.260226622434
 20
1026.607727749957
 30
0.0
 11
1212.260350299664
 21
1026.577451483753
 31
0.0
  0
LINE
  5
49C
330
22
100
AcDbEntity
  8
_2-7_ビス
  6
Continuous
 62
     7
100
AcDbLine
 10
1212.260350299664
 20
1026.577451483753
 30
0.0
 11
1212.265254111554
 21
1026.547658793462
 31
0.0
  0
LINE
  5
49D
330
22
100
AcDbEntity
  8
_2-7_ビス
  6
Continuous
 62
     7
100
AcDbLine
 10
1212.265254111554
 20
1026.547658793462
 30
0.0
 11
1212.274789058261
 21
1026.519254914903
 31
0.0
  0
LINE
  5
49E
330
22
100
AcDbEntity
  8
_2-7_ビス
  6
Continuous
 62
     7
100
AcDbLine
 10
1212.274789058261
 20
1026.519254914903
 30
0.0
 11
1212.288665425256
 21
1026.493102885552
 31
0.0
  0
LINE
  5
49F
330
22
100
AcDbEntity
  8
_2-7_ビス
  6
Continuous
 62
     7
100
AcDbLine
 10
1212.288665425256
 20
1026.493102885552
 30
0.0
 11
1212.306461586148
 21
1026.469997321588
 31
0.0
  0
LINE
  5
4A0
330
22
100
AcDbEntity
  8
_2-7_ビス
  6
Continuous
 62
     7
100
AcDbLine
 10
1212.306461586148
 20
1026.469997321588
 30
0.0
 11
1212.327636813595
 21
1026.450640273879
 31
0.0
  0
LINE
  5
4A1
330
22
100
AcDbEntity
  8
_2-7_ビス
  6
Continuous
 62
     7
100
AcDbLine
 10
1212.327636813595
 20
1026.450640273879
 30
0.0
 11
1212.351547709025
 21
1026.435619896525
 31
0.0
  0
LINE
  5
4A2
330
22
100
AcDbEntity
  8
_2-7_ビス
  6
Continuous
 62
     7
100
AcDbLine
 10
1212.351547709025
 20
1026.435619896525
 30
0.0
 11
1212.37746775198
 21
1026.425392576093
 31
0.0
  0
LINE
  5
4A3
330
22
100
AcDbEntity
  8
_2-7_ビス
  6
Continuous
 62
     7
100
AcDbLine
 10
1212.37746775198
 20
1026.425392576093
 30
0.0
 11
1212.404609375073
 21
1026.420269064536
 31
0.0
  0
LINE
  5
4A4
330
22
100
AcDbEntity
  8
_2-7_ビス
  6
Continuous
 62
     7
100
AcDbLine
 10
1212.404609375073
 20
1026.420269064536
 30
0.0
 11
1212.404755484889
 21
1026.420255812466
 31
0.0
  0
LINE
  5
4A5
330
22
100
AcDbEntity
  8
_2-7_ビス
  6
Continuous
 62
     7
100
AcDbLine
 10
1212.707864234889
 20
1035.325518964866
 30
0.0
 11
1212.707864234889
 21
1035.325518964866
 31
0.0
  0
LINE
  5
4A6
330
22
100
AcDbEntity
  8
_2-7_ビス
  6
Continuous
 62
     7
100
AcDbLine
 10
1212.707864234889
 20
1035.325518964866
 30
0.0
 11
1212.623538404096
 21
1035.313259008218
 31
0.0
  0
LINE
  5
4A7
330
22
100
AcDbEntity
  8
_2-7_ビス
  6
Continuous
 62
     7
100
AcDbLine
 10
1212.623538404096
 20
1035.313259008218
 30
0.0
 11
1212.542430082638
 21
1035.285086541511
 31
0.0
  0
LINE
  5
4A8
330
22
100
AcDbEntity
  8
_2-7_ビス
  6
Continuous
 62
     7
100
AcDbLine
 10
1212.542430082638
 20
1035.285086541511
 30
0.0
 11
1212.467003705819
 21
1035.241857570889
 31
0.0
  0
LINE
  5
4A9
330
22
100
AcDbEntity
  8
_2-7_ビス
  6
Continuous
 62
     7
100
AcDbLine
 10
1212.467003705819
 20
1035.241857570889
 30
0.0
 11
1212.399551065934
 21
1035.184885586751
 31
0.0
  0
LINE
  5
4AA
330
22
100
AcDbEntity
  8
_2-7_ビス
  6
Continuous
 62
     7
100
AcDbLine
 10
1212.399551065934
 20
1035.184885586751
 30
0.0
 11
1212.34212167731
 21
1035.115901654005
 31
0.0
  0
LINE
  5
4AB
330
22
100
AcDbEntity
  8
_2-7_ビス
  6
Continuous
 62
     7
100
AcDbLine
 10
1212.34212167731
 20
1035.115901654005
 30
0.0
 11
1212.296460502862
 21
1035.037001814538
 31
0.0
  0
LINE
  5
4AC
330
22
100
AcDbEntity
  8
_2-7_ビス
  6
Continuous
 62
     7
100
AcDbLine
 10
1212.296460502862
 20
1035.037001814538
 30
0.0
 11
1212.263954934269
 21
1034.95058340005
 31
0.0
  0
LINE
  5
4AD
330
22
100
AcDbEntity
  8
_2-7_ビス
  6
Continuous
 62
     7
100
AcDbLine
 10
1212.263954934269
 20
1034.95058340005
 30
0.0
 11
1212.245592636783
 21
1034.859272190334
 31
0.0
  0
LINE
  5
4AE
330
22
100
AcDbEntity
  8
_2-7_ビス
  6
Continuous
 62
     7
100
AcDbLine
 10
1212.245592636783
 20
1034.859272190334
 30
0.0
 11
1212.241931539524
 21
1034.765842630292
 31
0.0
  0
LINE
  5
4AF
330
22
100
AcDbEntity
  8
_2-7_ビス
  6
Continuous
 62
     7
100
AcDbLine
 10
1212.241931539524
 20
1034.765842630292
 30
0.0
 11
1212.253082883077
 21
1034.673133529827
 31
0.0
  0
LINE
  5
4B0
330
22
100
AcDbEntity
  8
_2-7_ビス
  6
Continuous
 62
     7
100
AcDbLine
 10
1212.253082883077
 20
1034.673133529827
 30
0.0
 11
1212.278707839513
 21
1034.583961808045
 31
0.0
  0
LINE
  5
4B1
330
22
100
AcDbEntity
  8
_2-7_ビス
  6
Continuous
 62
     7
100
AcDbLine
 10
1212.278707839513
 20
1034.583961808045
 30
0.0
 11
1212.318027807496
 21
1034.501036902589
 31
0.0
  0
LINE
  5
4B2
330
22
100
AcDbEntity
  8
_2-7_ビス
  6
Continuous
 62
     7
100
AcDbLine
 10
1212.318027807496
 20
1034.501036902589
 30
0.0
 11
1212.369848069697
 21
1034.426878444748
 31
0.0
  0
LINE
  5
4B3
330
22
100
AcDbEntity
  8
_2-7_ビス
  6
Continuous
 62
     7
100
AcDbLine
 10
1212.369848069697
 20
1034.426878444748
 30
0.0
 11
1212.43259409367
 21
1034.363739701739
 31
0.0
  0
LINE
  5
4B4
330
22
100
AcDbEntity
  8
_2-7_ビス
  6
Continuous
 62
     7
100
AcDbLine
 10
1212.43259409367
 20
1034.363739701739
 30
0.0
 11
1212.504359373228
 21
1034.313539112318
 31
0.0
  0
LINE
  5
4B5
330
22
100
AcDbEntity
  8
_2-7_ビス
  6
Continuous
 62
     7
100
AcDbLine
 10
1212.504359373228
 20
1034.313539112318
 30
0.0
 11
1212.582963356668
 21
1034.277801995992
 31
0.0
  0
LINE
  5
4B6
330
22
100
AcDbEntity
  8
_2-7_ビス
  6
Continuous
 62
     7
100
AcDbLine
 10
1212.582963356668
 20
1034.277801995992
 30
0.0
 11
1212.666017701726
 21
1034.257614206957
 31
0.0
  0
LINE
  5
4B7
330
22
100
AcDbEntity
  8
_2-7_ビス
  6
Continuous
 62
     7
100
AcDbLine
 10
1212.666017701726
 20
1034.257614206957
 30
0.0
 11
1212.707864234889
 21
1034.253589140966
 31
0.0
  0
LINE
  5
4B8
330
22
100
AcDbEntity
  8
_2-7_ビス
  6
Continuous
 62
     7
100
AcDbLine
 10
1212.707864234889
 20
1043.158852293366
 30
0.0
 11
1212.707864234889
 21
1043.158852293366
 31
0.0
  0
LINE
  5
4B9
330
22
100
AcDbEntity
  8
_2-7_ビス
  6
Continuous
 62
     7
100
AcDbLine
 10
1212.707864234889
 20
1043.158852293366
 30
0.0
 11
1212.623538404096
 21
1043.146592336718
 31
0.0
  0
LINE
  5
4BA
330
22
100
AcDbEntity
  8
_2-7_ビス
  6
Continuous
 62
     7
100
AcDbLine
 10
1212.623538404096
 20
1043.146592336718
 30
0.0
 11
1212.542430082638
 21
1043.118419870012
 31
0.0
  0
LINE
  5
4BB
330
22
100
AcDbEntity
  8
_2-7_ビス
  6
Continuous
 62
     7
100
AcDbLine
 10
1212.542430082638
 20
1043.118419870012
 30
0.0
 11
1212.467003705819
 21
1043.07519089939
 31
0.0
  0
LINE
  5
4BC
330
22
100
AcDbEntity
  8
_2-7_ビス
  6
Continuous
 62
     7
100
AcDbLine
 10
1212.467003705819
 20
1043.07519089939
 30
0.0
 11
1212.399551065934
 21
1043.018218915251
 31
0.0
  0
LINE
  5
4BD
330
22
100
AcDbEntity
  8
_2-7_ビス
  6
Continuous
 62
     7
100
AcDbLine
 10
1212.399551065934
 20
1043.018218915251
 30
0.0
 11
1212.34212167731
 21
1042.949234982505
 31
0.0
  0
LINE
  5
4BE
330
22
100
AcDbEntity
  8
_2-7_ビス
  6
Continuous
 62
     7
100
AcDbLine
 10
1212.34212167731
 20
1042.949234982505
 30
0.0
 11
1212.296460502862
 21
1042.870335143039
 31
0.0
  0
LINE
  5
4BF
330
22
100
AcDbEntity
  8
_2-7_ビス
  6
Continuous
 62
     7
100
AcDbLine
 10
1212.296460502862
 20
1042.870335143039
 30
0.0
 11
1212.263954934269
 21
1042.783916728551
 31
0.0
  0
LINE
  5
4C0
330
22
100
AcDbEntity
  8
_2-7_ビス
  6
Continuous
 62
     7
100
AcDbLine
 10
1212.263954934269
 20
1042.783916728551
 30
0.0
 11
1212.245592636783
 21
1042.692605518834
 31
0.0
  0
LINE
  5
4C1
330
22
100
AcDbEntity
  8
_2-7_ビス
  6
Continuous
 62
     7
100
AcDbLine
 10
1212.245592636783
 20
1042.692605518834
 30
0.0
 11
1212.241931539524
 21
1042.599175958792
 31
0.0
  0
LINE
  5
4C2
330
22
100
AcDbEntity
  8
_2-7_ビス
  6
Continuous
 62
     7
100
AcDbLine
 10
1212.241931539524
 20
1042.599175958792
 30
0.0
 11
1212.253082883077
 21
1042.506466858327
 31
0.0
  0
LINE
  5
4C3
330
22
100
AcDbEntity
  8
_2-7_ビス
  6
Continuous
 62
     7
100
AcDbLine
 10
1212.253082883077
 20
1042.506466858327
 30
0.0
 11
1212.278707839513
 21
1042.417295136545
 31
0.0
  0
LINE
  5
4C4
330
22
100
AcDbEntity
  8
_2-7_ビス
  6
Continuous
 62
     7
100
AcDbLine
 10
1212.278707839513
 20
1042.417295136545
 30
0.0
 11
1212.318027807496
 21
1042.334370231089
 31
0.0
  0
LINE
  5
4C5
330
22
100
AcDbEntity
  8
_2-7_ビス
  6
Continuous
 62
     7
100
AcDbLine
 10
1212.318027807496
 20
1042.334370231089
 30
0.0
 11
1212.369848069697
 21
1042.260211773248
 31
0.0
  0
LINE
  5
4C6
330
22
100
AcDbEntity
  8
_2-7_ビス
  6
Continuous
 62
     7
100
AcDbLine
 10
1212.369848069697
 20
1042.260211773248
 30
0.0
 11
1212.43259409367
 21
1042.197073030239
 31
0.0
  0
LINE
  5
4C7
330
22
100
AcDbEntity
  8
_2-7_ビス
  6
Continuous
 62
     7
100
AcDbLine
 10
1212.43259409367
 20
1042.197073030239
 30
0.0
 11
1212.504359373228
 21
1042.146872440818
 31
0.0
  0
LINE
  5
4C8
330
22
100
AcDbEntity
  8
_2-7_ビス
  6
Continuous
 62
     7
100
AcDbLine
 10
1212.504359373228
 20
1042.146872440818
 30
0.0
 11
1212.582963356668
 21
1042.111135324492
 31
0.0
  0
LINE
  5
4C9
330
22
100
AcDbEntity
  8
_2-7_ビス
  6
Continuous
 62
     7
100
AcDbLine
 10
1212.582963356668
 20
1042.111135324492
 30
0.0
 11
1212.666017701726
 21
1042.090947535457
 31
0.0
  0
LINE
  5
4CA
330
22
100
AcDbEntity
  8
_2-7_ビス
  6
Continuous
 62
     7
100
AcDbLine
 10
1212.666017701726
 20
1042.090947535457
 30
0.0
 11
1212.707864234889
 21
1042.086922469466
 31
0.0
  0
LINE
  5
4CB
330
22
100
AcDbEntity
  8
_2-7_ビス
  6
Continuous
 62
     7
100
AcDbLine
 10
1212.382647424087
 20
1024.029027743766
 30
0.0
 11
1212.382647424087
 21
1024.029027743766
 31
0.0
  0
LINE
  5
4CC
330
22
100
AcDbEntity
  8
_2-7_ビス
  6
Continuous
 62
     7
100
AcDbLine
 10
1212.382647424087
 20
1024.029027743766
 30
0.0
 11
1212.346462210185
 21
1023.895443416999
 31
0.0
  0
LINE
  5
4CD
330
22
100
AcDbEntity
  8
_2-7_ビス
  6
Continuous
 62
     7
100
AcDbLine
 10
1212.346462210185
 20
1023.895443416999
 30
0.0
 11
1212.331925834244
 21
1023.756980364783
 31
0.0
  0
LINE
  5
4CE
330
22
100
AcDbEntity
  8
_2-7_ビス
  6
Continuous
 62
     7
100
AcDbLine
 10
1212.331925834244
 20
1023.756980364783
 30
0.0
 11
1212.332372090999
 21
1023.699203182566
 31
0.0
  0
LINE
  5
4CF
330
22
100
AcDbEntity
  8
_2-7_ビス
  6
Continuous
 62
     7
100
AcDbLine
 10
1211.824829984889
 20
1021.720255815366
 30
0.0
 11
1211.824829984889
 21
1021.720255815366
 31
0.0
  0
LINE
  5
4D0
330
22
100
AcDbEntity
  8
_2-7_ビス
  6
Continuous
 62
     7
100
AcDbLine
 10
1211.824829984889
 20
1021.720255815366
 30
0.0
 11
1211.818789207346
 21
1021.775786390544
 31
0.0
  0
LINE
  5
4D1
330
22
100
AcDbEntity
  8
_2-7_ビス
  6
Continuous
 62
     7
100
AcDbLine
 10
1211.818789207346
 20
1021.775786390544
 30
0.0
 11
1211.804069373396
 21
1021.829320077928
 31
0.0
  0
LINE
  5
4D2
330
22
100
AcDbEntity
  8
_2-7_ビス
  6
Continuous
 62
     7
100
AcDbLine
 10
1211.804069373396
 20
1021.829320077928
 30
0.0
 11
1211.781117737746
 21
1021.879230283518
 31
0.0
  0
LINE
  5
4D3
330
22
100
AcDbEntity
  8
_2-7_ビス
  6
Continuous
 62
     7
100
AcDbLine
 10
1211.781117737746
 20
1021.879230283518
 30
0.0
 11
1211.75063167423
 21
1021.924000510971
 31
0.0
  0
LINE
  5
4D4
330
22
100
AcDbEntity
  8
_2-7_ビス
  6
Continuous
 62
     7
100
AcDbLine
 10
1211.75063167423
 20
1021.924000510971
 30
0.0
 11
1211.713537486461
 21
1021.962270439582
 31
0.0
  0
LINE
  5
4D5
330
22
100
AcDbEntity
  8
_2-7_ビス
  6
Continuous
 62
     7
100
AcDbLine
 10
1211.713537486461
 20
1021.962270439582
 30
0.0
 11
1211.670962262565
 21
1021.992877256935
 31
0.0
  0
LINE
  5
4D6
330
22
100
AcDbEntity
  8
_2-7_ビス
  6
Continuous
 62
     7
100
AcDbLine
 10
1211.670962262565
 20
1021.992877256935
 30
0.0
 11
1211.624199629175
 21
1022.014890990374
 31
0.0
  0
LINE
  5
4D7
330
22
100
AcDbEntity
  8
_2-7_ビス
  6
Continuous
 62
     7
100
AcDbLine
 10
1211.624199629175
 20
1022.014890990374
 30
0.0
 11
1211.574670445244
 21
1022.027642763745
 31
0.0
  0
LINE
  5
4D8
330
22
100
AcDbEntity
  8
_2-7_ビス
  6
Continuous
 62
     7
100
AcDbLine
 10
1211.574670445244
 20
1022.027642763745
 30
0.0
 11
1211.523879629962
 21
1022.030745120869
 31
0.0
  0
LINE
  5
4D9
330
22
100
AcDbEntity
  8
_2-7_ビス
  6
Continuous
 62
     7
100
AcDbLine
 10
1211.523879629962
 20
1022.030745120869
 30
0.0
 11
1211.473370436552
 21
1022.024103798194
 31
0.0
  0
LINE
  5
4DA
330
22
100
AcDbEntity
  8
_2-7_ビス
  6
Continuous
 62
     7
100
AcDbLine
 10
1211.473370436552
 20
1022.024103798194
 30
0.0
 11
1211.424677561294
 21
1022.00792058895
 31
0.0
  0
LINE
  5
4DB
330
22
100
AcDbEntity
  8
_2-7_ビス
  6
Continuous
 62
     7
100
AcDbLine
 10
1211.424677561294
 20
1022.00792058895
 30
0.0
 11
1211.379280512565
 21
1021.982687211759
 31
0.0
  0
LINE
  5
4DC
330
22
100
AcDbEntity
  8
_2-7_ビス
  6
Continuous
 62
     7
100
AcDbLine
 10
1211.379280512565
 20
1021.982687211759
 30
0.0
 11
1211.338558656718
 21
1021.949170370019
 31
0.0
  0
LINE
  5
4DD
330
22
100
AcDbEntity
  8
_2-7_ビス
  6
Continuous
 62
     7
100
AcDbLine
 10
1211.338558656718
 20
1021.949170370019
 30
0.0
 11
1211.303749306737
 21
1021.908388456006
 31
0.0
  0
LINE
  5
4DE
330
22
100
AcDbEntity
  8
_2-7_ビス
  6
Continuous
 62
     7
100
AcDbLine
 10
1211.303749306737
 20
1021.908388456006
 30
0.0
 11
1211.275910127106
 21
1021.861580607541
 31
0.0
  0
LINE
  5
4DF
330
22
100
AcDbEntity
  8
_2-7_ビス
  6
Continuous
 62
     7
100
AcDbLine
 10
1211.275910127106
 20
1021.861580607541
 30
0.0
 11
1211.255886997211
 21
1021.810169057413
 31
0.0
  0
LINE
  5
4E0
330
22
100
AcDbEntity
  8
_2-7_ビス
  6
Continuous
 62
     7
100
AcDbLine
 10
1211.255886997211
 20
1021.810169057413
 30
0.0
 11
1211.244288309722
 21
1021.755715919558
 31
0.0
  0
LINE
  5
4E1
330
22
100
AcDbEntity
  8
_2-7_ビス
  6
Continuous
 62
     7
100
AcDbLine
 10
1211.244288309722
 20
1021.755715919558
 30
0.0
 11
1211.241466484889
 21
1021.699875725013
 31
0.0
  0
LINE
  5
4E2
330
22
100
AcDbEntity
  8
_2-7_ビス
  6
Continuous
 62
     7
100
AcDbLine
 10
1211.241466484889
 20
1021.699875725013
 30
0.0
 11
1211.241466484889
 21
1021.699875725013
 31
0.0
  0
LINE
  5
4E3
330
22
100
AcDbEntity
  8
_2-7_ビス
  6
Continuous
 62
     7
100
AcDbLine
 10
1206.539114234888
 20
1058.687928511854
 30
0.0
 11
1206.539114234888
 21
1062.783413684766
 31
0.0
  0
LINE
  5
4E4
330
22
100
AcDbEntity
  8
_2-7_ビス
  6
Continuous
 62
     7
100
AcDbLine
 10
1206.539114234888
 20
1062.783413684766
 30
0.0
 11
1209.539114234889
 21
1062.783413684766
 31
0.0
  0
LINE
  5
4E5
330
22
100
AcDbEntity
  8
_2-7_ビス
  6
Continuous
 62
     7
100
AcDbLine
 10
1206.539114234888
 20
1058.687928511854
 30
0.0
 11
1205.789114234889
 21
1057.863367591651
 31
0.0
  0
LINE
  5
4E6
330
22
100
AcDbEntity
  8
_2-7_ビス
  6
Continuous
 62
     7
100
AcDbLine
 10
1205.789114234889
 20
1057.863367591651
 30
0.0
 11
1205.789114234889
 21
1055.764761864536
 31
0.0
  0
LINE
  5
4E7
330
22
100
AcDbEntity
  8
_2-7_ビス
  6
Continuous
 62
     7
100
AcDbLine
 10
1205.789114234889
 20
1055.764761864536
 30
0.0
 11
1206.337333484889
 21
1051.647168551287
 31
0.0
  0
LINE
  5
4E8
330
22
100
AcDbEntity
  8
_2-7_ビス
  6
Continuous
 62
     7
100
AcDbLine
 10
1206.337333484889
 20
1051.647168551287
 30
0.0
 11
1206.57925723489
 21
1051.239554042766
 31
0.0
  0
LINE
  5
4E9
330
22
100
AcDbEntity
  8
_2-7_ビス
  6
Continuous
 62
     7
100
AcDbLine
 10
1206.57925723489
 20
1051.239554042766
 30
0.0
 11
1206.539114234888
 21
1051.239554042766
 31
0.0
  0
LINE
  5
4EA
330
22
100
AcDbEntity
  8
_2-7_ビス
  6
Continuous
 62
     7
100
AcDbLine
 10
1206.539114234888
 20
1051.239554042766
 30
0.0
 11
1206.539114234888
 21
1049.425518956166
 31
0.0
  0
LINE
  5
4EB
330
22
100
AcDbEntity
  8
_2-7_ビス
  6
Continuous
 62
     7
100
AcDbLine
 10
1206.539114234888
 20
1049.425518956166
 30
0.0
 11
1206.972126795456
 21
1048.600957553166
 31
0.0
  0
LINE
  5
4EC
330
22
100
AcDbEntity
  8
_2-7_ビス
  6
Continuous
 62
     7
100
AcDbLine
 10
1206.842222984889
 20
1048.353589132266
 30
0.0
 11
1205.864114234889
 21
1048.353589132266
 31
0.0
  0
LINE
  5
4ED
330
22
100
AcDbEntity
  8
_2-7_ビス
  6
Continuous
 62
     7
100
AcDbLine
 10
1205.864114234889
 20
1048.353589132266
 30
0.0
 11
1205.864114234889
 21
1044.120198538387
 31
0.0
  0
LINE
  5
4EE
330
22
100
AcDbEntity
  8
_2-7_ビス
  6
Continuous
 62
     7
100
AcDbLine
 10
1205.864114234889
 20
1044.120198538387
 30
0.0
 11
1206.365583734889
 21
1043.158852293366
 31
0.0
  0
LINE
  5
4EF
330
22
100
AcDbEntity
  8
_2-7_ビス
  6
Continuous
 62
     7
100
AcDbLine
 10
1206.365583734889
 20
1043.158852293366
 30
0.0
 11
1206.370364234889
 21
1043.158852293366
 31
0.0
  0
LINE
  5
4F0
330
22
100
AcDbEntity
  8
_2-7_ビス
  6
Continuous
 62
     7
100
AcDbLine
 10
1206.370368408173
 20
1043.158852647148
 30
0.0
 11
1206.370364234889
 21
1043.158852293366
 31
0.0
  0
LINE
  5
4F1
330
22
100
AcDbEntity
  8
_2-7_ビス
  6
Continuous
 62
     7
100
AcDbLine
 10
1206.370368408173
 20
1043.158852647148
 30
0.0
 11
1206.370364234889
 21
1043.158852293366
 31
0.0
  0
LINE
  5
4F2
330
22
100
AcDbEntity
  8
_2-7_ビス
  6
Continuous
 62
     7
100
AcDbLine
 10
1206.402955484889
 20
1042.086922469466
 30
0.0
 11
1205.864114234889
 21
1042.086922469466
 31
0.0
  0
LINE
  5
4F3
330
22
100
AcDbEntity
  8
_2-7_ビス
  6
Continuous
 62
     7
100
AcDbLine
 10
1205.864114234889
 20
1042.086922469466
 30
0.0
 11
1205.864114234889
 21
1036.289689332692
 31
0.0
  0
LINE
  5
4F4
330
22
100
AcDbEntity
  8
_2-7_ビス
  6
Continuous
 62
     7
100
AcDbLine
 10
1205.864114234889
 20
1036.289689332692
 30
0.0
 11
1206.37036142195
 21
1035.325537962928
 31
0.0
  0
LINE
  5
4F5
330
22
100
AcDbEntity
  8
_2-7_ビス
  6
Continuous
 62
     7
100
AcDbLine
 10
1206.370364234889
 20
1035.325518964866
 30
0.0
 11
1206.373955865245
 21
1035.802970362106
 31
0.0
  0
LINE
  5
4F6
330
22
100
AcDbEntity
  8
_2-7_ビス
  6
Continuous
 62
     7
100
AcDbLine
 10
1206.373955865245
 20
1035.802970362106
 30
0.0
 11
1206.694635872868
 21
1035.820255806666
 31
0.0
  0
LINE
  5
4F7
330
22
100
AcDbEntity
  8
_2-7_ビス
  6
Continuous
 62
     7
100
AcDbLine
 10
1206.853297913036
 20
1036.067624227566
 30
0.0
 11
1206.402955484889
 21
1036.892185630566
 31
0.0
  0
LINE
  5
4F8
330
22
100
AcDbEntity
  8
_2-7_ビス
  6
Continuous
 62
     7
100
AcDbLine
 10
1206.402955484889
 20
1036.892185630566
 30
0.0
 11
1206.402955332766
 21
1037.369637099561
 31
0.0
  0
LINE
  5
4F9
330
22
100
AcDbEntity
  8
_2-7_ビス
  6
Continuous
 62
     7
100
AcDbLine
 10
1206.402955332766
 20
1037.369637099561
 30
0.0
 11
1206.750987734889
 21
1037.386922472366
 31
0.0
  0
LINE
  5
4FA
330
22
100
AcDbEntity
  8
_2-7_ビス
  6
Continuous
 62
     7
100
AcDbLine
 10
1206.910577484609
 20
1037.634290893266
 30
0.0
 11
1206.402955484889
 21
1038.458852296266
 31
0.0
  0
LINE
  5
4FB
330
22
100
AcDbEntity
  8
_2-7_ビス
  6
Continuous
 62
     7
100
AcDbLine
 10
1206.402955484889
 20
1038.458852296266
 30
0.0
 11
1206.402955484889
 21
1038.936303857374
 31
0.0
  0
LINE
  5
4FC
330
22
100
AcDbEntity
  8
_2-7_ビス
  6
Continuous
 62
     7
100
AcDbLine
 10
1206.402955484889
 20
1038.936303857374
 30
0.0
 11
1206.750987734889
 21
1038.953589138066
 31
0.0
  0
LINE
  5
4FD
330
22
100
AcDbEntity
  8
_2-7_ビス
  6
Continuous
 62
     7
100
AcDbLine
 10
1206.910577484609
 20
1039.200957558966
 30
0.0
 11
1206.402955484889
 21
1040.025518961966
 31
0.0
  0
LINE
  5
4FE
330
22
100
AcDbEntity
  8
_2-7_ビス
  6
Continuous
 62
     7
100
AcDbLine
 10
1206.402955484889
 20
1040.025518961966
 30
0.0
 11
1206.402955484889
 21
1040.502970523075
 31
0.0
  0
LINE
  5
4FF
330
22
100
AcDbEntity
  8
_2-7_ビス
  6
Continuous
 62
     7
100
AcDbLine
 10
1206.402955484889
 20
1040.502970523075
 30
0.0
 11
1206.750987734889
 21
1040.520255803767
 31
0.0
  0
LINE
  5
500
330
22
100
AcDbEntity
  8
_2-7_ビス
  6
Continuous
 62
     7
100
AcDbLine
 10
1206.910577484609
 20
1040.767624224666
 30
0.0
 11
1206.402955332766
 21
1041.592185627666
 31
0.0
  0
LINE
  5
501
330
22
100
AcDbEntity
  8
_2-7_ビス
  6
Continuous
 62
     7
100
AcDbLine
 10
1206.402955332766
 20
1041.592185627666
 30
0.0
 11
1206.402955484889
 21
1042.086922469466
 31
0.0
  0
LINE
  5
502
330
22
100
AcDbEntity
  8
_2-7_ビス
  6
Continuous
 62
     7
100
AcDbLine
 10
1206.370368408173
 20
1043.158852647148
 30
0.0
 11
1206.374053609419
 21
1043.636304116142
 31
0.0
  0
LINE
  5
503
330
22
100
AcDbEntity
  8
_2-7_ビス
  6
Continuous
 62
     7
100
AcDbLine
 10
1206.374053609419
 20
1043.636304116142
 30
0.0
 11
1206.691498484888
 21
1043.653589135167
 31
0.0
  0
LINE
  5
504
330
22
100
AcDbEntity
  8
_2-7_ビス
  6
Continuous
 62
     7
100
AcDbLine
 10
1206.85359062521
 20
1043.900957556066
 30
0.0
 11
1206.402955332766
 21
1044.725518959066
 31
0.0
  0
LINE
  5
505
330
22
100
AcDbEntity
  8
_2-7_ビス
  6
Continuous
 62
     7
100
AcDbLine
 10
1206.402955332766
 20
1044.725518959066
 30
0.0
 11
1206.402955332766
 21
1045.20297042806
 31
0.0
  0
LINE
  5
506
330
22
100
AcDbEntity
  8
_2-7_ビス
  6
Continuous
 62
     7
100
AcDbLine
 10
1206.402955332766
 20
1045.20297042806
 30
0.0
 11
1206.750987734889
 21
1045.220255800866
 31
0.0
  0
LINE
  5
507
330
22
100
AcDbEntity
  8
_2-7_ビス
  6
Continuous
 62
     7
100
AcDbLine
 10
1206.910577484609
 20
1045.467624221766
 30
0.0
 11
1206.402955484889
 21
1046.292185624766
 31
0.0
  0
LINE
  5
508
330
22
100
AcDbEntity
  8
_2-7_ビス
  6
Continuous
 62
     7
100
AcDbLine
 10
1206.402955484889
 20
1046.292185624766
 30
0.0
 11
1206.402955332766
 21
1046.76963709376
 31
0.0
  0
LINE
  5
509
330
22
100
AcDbEntity
  8
_2-7_ビス
  6
Continuous
 62
     7
100
AcDbLine
 10
1206.402955332766
 20
1046.76963709376
 30
0.0
 11
1206.751873827377
 21
1046.787154047726
 31
0.0
  0
LINE
  5
50A
330
22
100
AcDbEntity
  8
_2-7_ビス
  6
Continuous
 62
     7
100
AcDbLine
 10
1206.910577484609
 20
1047.034290887466
 30
0.0
 11
1206.402955332766
 21
1047.858852290466
 31
0.0
  0
LINE
  5
50B
330
22
100
AcDbEntity
  8
_2-7_ビス
  6
Continuous
 62
     7
100
AcDbLine
 10
1206.402955332766
 20
1047.858852290466
 30
0.0
 11
1206.402955490396
 21
1048.353589132266
 31
0.0
  0
LINE
  5
50C
330
22
100
AcDbEntity
  8
_2-7_ビス
  6
Continuous
 62
     7
100
AcDbLine
 10
1206.402955484889
 20
1034.253589140966
 30
0.0
 11
1205.864114234889
 21
1034.253589140966
 31
0.0
  0
LINE
  5
50D
330
22
100
AcDbEntity
  8
_2-7_ビス
  6
Continuous
 62
     7
100
AcDbLine
 10
1205.864114234889
 20
1034.253589140966
 30
0.0
 11
1205.864114234889
 21
1031.005347406129
 31
0.0
  0
LINE
  5
50E
330
22
100
AcDbEntity
  8
_2-7_ビス
  6
Continuous
 62
     7
100
AcDbLine
 10
1205.864114234889
 20
1031.005347406129
 30
0.0
 11
1206.369899984889
 21
1027.492185636366
 31
0.0
  0
LINE
  5
50F
330
22
100
AcDbEntity
  8
_2-7_ビス
  6
Continuous
 62
     7
100
AcDbLine
 10
1206.369899984889
 20
1027.492185636366
 30
0.0
 11
1206.370634502553
 21
1027.969636720507
 31
0.0
  0
LINE
  5
510
330
22
100
AcDbEntity
  8
_2-7_ビス
  6
Continuous
 62
     7
100
AcDbLine
 10
1206.370634502553
 20
1027.969636720507
 30
0.0
 11
1206.67932298489
 21
1027.986922478166
 31
0.0
  0
LINE
  5
511
330
22
100
AcDbEntity
  8
_2-7_ビス
  6
Continuous
 62
     7
100
AcDbLine
 10
1206.369899984889
 20
1027.492185636366
 30
0.0
 11
1206.803376795456
 21
1026.667624233366
 31
0.0
  0
LINE
  5
512
330
22
100
AcDbEntity
  8
_2-7_ビス
  6
Continuous
 62
     7
100
AcDbLine
 10
1206.823879549677
 20
1028.234290899066
 30
0.0
 11
1206.373277216217
 21
1029.058852302066
 31
0.0
  0
LINE
  5
513
330
22
100
AcDbEntity
  8
_2-7_ビス
  6
Continuous
 62
     7
100
AcDbLine
 10
1206.373277216217
 20
1029.058852302066
 30
0.0
 11
1206.375362120479
 21
1029.536303386206
 31
0.0
  0
LINE
  5
514
330
22
100
AcDbEntity
  8
_2-7_ビス
  6
Continuous
 62
     7
100
AcDbLine
 10
1206.375362120479
 20
1029.536303386206
 30
0.0
 11
1206.697688984889
 21
1029.553589143866
 31
0.0
  0
LINE
  5
515
330
22
100
AcDbEntity
  8
_2-7_ビス
  6
Continuous
 62
     7
100
AcDbLine
 10
1206.846194480707
 20
1029.800957564766
 30
0.0
 11
1206.382326621383
 21
1030.625518582912
 31
0.0
  0
LINE
  5
516
330
22
100
AcDbEntity
  8
_2-7_ビス
  6
Continuous
 62
     7
100
AcDbLine
 10
1206.382326621383
 20
1030.625518582912
 30
0.0
 11
1206.386389462079
 21
1031.102970051907
 31
0.0
  0
LINE
  5
517
330
22
100
AcDbEntity
  8
_2-7_ビス
  6
Continuous
 62
     7
100
AcDbLine
 10
1206.386389462079
 20
1031.102970051907
 30
0.0
 11
1206.721042817348
 21
1031.120255809566
 31
0.0
  0
LINE
  5
518
330
22
100
AcDbEntity
  8
_2-7_ビス
  6
Continuous
 62
     7
100
AcDbLine
 10
1206.878297433516
 20
1031.367624230466
 30
0.0
 11
1206.39809480931
 21
1032.192185248612
 31
0.0
  0
LINE
  5
519
330
22
100
AcDbEntity
  8
_2-7_ビス
  6
Continuous
 62
     7
100
AcDbLine
 10
1206.39809480931
 20
1032.192185248612
 30
0.0
 11
1206.402955484889
 21
1032.669637194574
 31
0.0
  0
LINE
  5
51A
330
22
100
AcDbEntity
  8
_2-7_ビス
  6
Continuous
 62
     7
100
AcDbLine
 10
1206.402955484889
 20
1032.669637194574
 30
0.0
 11
1206.750987734889
 21
1032.686922475266
 31
0.0
  0
LINE
  5
51B
330
22
100
AcDbEntity
  8
_2-7_ビス
  6
Continuous
 62
     7
100
AcDbLine
 10
1206.910577484609
 20
1032.934290896166
 30
0.0
 11
1206.402955332766
 21
1033.758852299166
 31
0.0
  0
LINE
  5
51C
330
22
100
AcDbEntity
  8
_2-7_ビス
  6
Continuous
 62
     7
100
AcDbLine
 10
1206.402955332766
 20
1033.758852299166
 30
0.0
 11
1206.402955484889
 21
1034.253589140966
 31
0.0
  0
LINE
  5
51D
330
22
100
AcDbEntity
  8
_2-7_ビス
  6
Continuous
 62
     7
100
AcDbLine
 10
1206.673472984889
 20
1026.420255812466
 30
0.0
 11
1206.539114234888
 21
1026.420255812466
 31
0.0
  0
LINE
  5
51E
330
22
100
AcDbEntity
  8
_2-7_ビス
  6
Continuous
 62
     7
100
AcDbLine
 10
1206.539114234888
 20
1026.420255812466
 30
0.0
 11
1206.539114234888
 21
1025.636922479616
 31
0.0
  0
LINE
  5
51F
330
22
100
AcDbEntity
  8
_2-7_ビス
  6
Continuous
 62
     7
100
AcDbLine
 10
1206.539114234888
 20
1025.636922479616
 30
0.0
 11
1206.689114234889
 21
1025.636922479616
 31
0.0
  0
LINE
  5
520
330
22
100
AcDbEntity
  8
_2-7_ビス
  6
Continuous
 62
     7
100
AcDbLine
 10
1206.689114234889
 20
1025.636922479616
 30
0.0
 11
1206.689114234889
 21
1024.029027743766
 31
0.0
  0
LINE
  5
521
330
22
100
AcDbEntity
  8
_2-7_ビス
  6
Continuous
 62
     7
100
AcDbLine
 10
1206.689114234889
 20
1024.029027743766
 30
0.0
 11
1206.69558104569
 21
1024.029027743766
 31
0.0
  0
LINE
  5
522
330
22
100
AcDbEntity
  8
_2-7_ビス
  6
Continuous
 62
     7
100
AcDbLine
 10
1206.745856234888
 20
1023.699203182566
 30
0.0
 11
1206.745856381427
 21
1017.748761589746
 31
0.0
  0
LINE
  5
523
330
22
100
AcDbEntity
  8
_2-7_ビス
  6
Continuous
 62
     7
100
AcDbLine
 10
1206.745856381427
 20
1017.748761589746
 30
0.0
 11
1207.186293734889
 21
1017.097340765587
 31
0.0
  0
LINE
  5
524
330
22
100
AcDbEntity
  8
_2-7_ビス
  6
Continuous
 62
     7
100
AcDbLine
 10
1207.186293734889
 20
1017.097340765587
 30
0.0
 11
1208.189114234889
 21
1015.783413713767
 31
0.0
  0
LINE
  5
525
330
22
100
AcDbEntity
  8
_2-7_ビス
  6
Continuous
 62
     7
100
AcDbLine
 10
1208.189114234889
 20
1015.783413713767
 30
0.0
 11
1208.338492714383
 21
1015.783413713767
 31
0.0
  0
LINE
  5
526
330
22
100
AcDbEntity
  8
_2-7_ビス
  6
Continuous
 62
     7
100
AcDbLine
 10
1208.338492714383
 20
1015.783413713767
 30
0.0
 11
1207.253398605069
 21
1017.748761589746
 31
0.0
  0
LINE
  5
527
330
22
100
AcDbEntity
  8
_2-7_ビス
  6
Continuous
 62
     7
100
AcDbLine
 10
1207.253398605069
 20
1017.748761589746
 30
0.0
 11
1207.253398484888
 21
1021.720255815366
 31
0.0
  0
LINE
  5
528
330
22
100
AcDbEntity
  8
_2-7_ビス
  6
Continuous
 62
     7
100
AcDbLine
 10
1207.836761984888
 20
1021.720255815366
 30
0.0
 11
1207.836761711457
 21
1017.748761742445
 31
0.0
  0
LINE
  5
529
330
22
100
AcDbEntity
  8
_2-7_ビス
  6
Continuous
 62
     7
100
AcDbLine
 10
1207.836761711457
 20
1017.748761742445
 30
0.0
 11
1208.92185607669
 21
1015.783413713767
 31
0.0
  0
LINE
  5
52A
330
22
100
AcDbEntity
  8
_2-7_ビス
  6
Continuous
 62
     7
100
AcDbLine
 10
1208.92185607669
 20
1015.783413713767
 30
0.0
 11
1209.539114234889
 21
1015.783413713767
 31
0.0
  0
LINE
  5
52B
330
22
100
AcDbEntity
  8
_2-7_ビス
  6
Continuous
 62
     7
100
AcDbLine
 10
1206.842222984889
 20
1048.353589132265
 30
0.0
 11
1206.842222984889
 21
1048.353589132265
 31
0.0
  0
LINE
  5
52C
330
22
100
AcDbEntity
  8
_2-7_ビス
  6
Continuous
 62
     7
100
AcDbLine
 10
1206.842222984889
 20
1048.353589132265
 30
0.0
 11
1206.869181435789
 21
1048.358242916981
 31
0.0
  0
LINE
  5
52D
330
22
100
AcDbEntity
  8
_2-7_ビス
  6
Continuous
 62
     7
100
AcDbLine
 10
1206.869181435789
 20
1048.358242916981
 30
0.0
 11
1206.894995280803
 21
1048.367972677111
 31
0.0
  0
LINE
  5
52E
330
22
100
AcDbEntity
  8
_2-7_ビス
  6
Continuous
 62
     7
100
AcDbLine
 10
1206.894995280803
 20
1048.367972677111
 30
0.0
 11
1206.91888017931
 21
1048.382482778817
 31
0.0
  0
LINE
  5
52F
330
22
100
AcDbEntity
  8
_2-7_ビス
  6
Continuous
 62
     7
100
AcDbLine
 10
1206.91888017931
 20
1048.382482778817
 30
0.0
 11
1206.940110400756
 21
1048.401332340002
 31
0.0
  0
LINE
  5
530
330
22
100
AcDbEntity
  8
_2-7_ビス
  6
Continuous
 62
     7
100
AcDbLine
 10
1206.940110400756
 20
1048.401332340002
 30
0.0
 11
1206.958040875607
 21
1048.423948626288
 31
0.0
  0
LINE
  5
531
330
22
100
AcDbEntity
  8
_2-7_ビス
  6
Continuous
 62
     7
100
AcDbLine
 10
1206.958040875607
 20
1048.423948626288
 30
0.0
 11
1206.972126795456
 21
1048.44964445326
 31
0.0
  0
LINE
  5
532
330
22
100
AcDbEntity
  8
_2-7_ビス
  6
Continuous
 62
     7
100
AcDbLine
 10
1206.972126795456
 20
1048.44964445326
 30
0.0
 11
1206.981940166758
 21
1048.477639066218
 31
0.0
  0
LINE
  5
533
330
22
100
AcDbEntity
  8
_2-7_ビス
  6
Continuous
 62
     7
100
AcDbLine
 10
1206.981940166758
 20
1048.477639066218
 30
0.0
 11
1206.987182815189
 21
1048.507081863014
 31
0.0
  0
LINE
  5
534
330
22
100
AcDbEntity
  8
_2-7_ビス
  6
Continuous
 62
     7
100
AcDbLine
 10
1206.987182815189
 20
1048.507081863014
 30
0.0
 11
1206.987695445532
 21
1048.537078239165
 31
0.0
  0
LINE
  5
535
330
22
100
AcDbEntity
  8
_2-7_ビス
  6
Continuous
 62
     7
100
AcDbLine
 10
1206.987695445532
 20
1048.537078239165
 30
0.0
 11
1206.983462481773
 21
1048.566716769961
 31
0.0
  0
LINE
  5
536
330
22
100
AcDbEntity
  8
_2-7_ビス
  6
Continuous
 62
     7
100
AcDbLine
 10
1206.983462481773
 20
1048.566716769961
 30
0.0
 11
1206.974612540373
 21
1048.595096903642
 31
0.0
  0
LINE
  5
537
330
22
100
AcDbEntity
  8
_2-7_ビス
  6
Continuous
 62
     7
100
AcDbLine
 10
1206.974612540373
 20
1048.595096903642
 30
0.0
 11
1206.961414522323
 21
1048.621356324207
 31
0.0
  0
LINE
  5
538
330
22
100
AcDbEntity
  8
_2-7_ビス
  6
Continuous
 62
     7
100
AcDbLine
 10
1206.961414522323
 20
1048.621356324207
 30
0.0
 11
1206.961414129805
 21
1048.621356965832
 31
0.0
  0
LINE
  5
539
330
22
100
AcDbEntity
  8
_2-7_ビス
  6
Continuous
 62
     7
100
AcDbLine
 10
1206.75098773489
 20
1046.786922466566
 30
0.0
 11
1206.75098773489
 21
1046.786922466566
 31
0.0
  0
LINE
  5
53A
330
22
100
AcDbEntity
  8
_2-7_ビス
  6
Continuous
 62
     7
100
AcDbLine
 10
1206.75098773489
 20
1046.786922466566
 30
0.0
 11
1206.785510963224
 21
1046.799436016825
 31
0.0
  0
LINE
  5
53B
330
22
100
AcDbEntity
  8
_2-7_ビス
  6
Continuous
 62
     7
100
AcDbLine
 10
1206.785510963224
 20
1046.799436016825
 30
0.0
 11
1206.817533241577
 21
1046.818350337603
 31
0.0
  0
LINE
  5
53C
330
22
100
AcDbEntity
  8
_2-7_ビス
  6
Continuous
 62
     7
100
AcDbLine
 10
1206.817533241577
 20
1046.818350337603
 30
0.0
 11
1206.846081589225
 21
1046.843090726835
 31
0.0
  0
LINE
  5
53D
330
22
100
AcDbEntity
  8
_2-7_ビス
  6
Continuous
 62
     7
100
AcDbLine
 10
1206.846081589225
 20
1046.843090726835
 30
0.0
 11
1206.87028857907
 21
1046.872905460312
 31
0.0
  0
LINE
  5
53E
330
22
100
AcDbEntity
  8
_2-7_ビス
  6
Continuous
 62
     7
100
AcDbLine
 10
1206.87028857907
 20
1046.872905460312
 30
0.0
 11
1206.889418693975
 21
1046.906888632445
 31
0.0
  0
LINE
  5
53F
330
22
100
AcDbEntity
  8
_2-7_ビス
  6
Continuous
 62
     7
100
AcDbLine
 10
1206.889418693975
 20
1046.906888632445
 30
0.0
 11
1206.902890675079
 21
1046.944007681746
 31
0.0
  0
LINE
  5
540
330
22
100
AcDbEntity
  8
_2-7_ビス
  6
Continuous
 62
     7
100
AcDbLine
 10
1206.902890675079
 20
1046.944007681746
 30
0.0
 11
1206.910295183054
 21
1046.983134764683
 31
0.0
  0
LINE
  5
541
330
22
100
AcDbEntity
  8
_2-7_ビス
  6
Continuous
 62
     7
100
AcDbLine
 10
1206.910295183054
 20
1046.983134764683
 30
0.0
 11
1206.911407235671
 21
1047.023081024642
 31
0.0
  0
LINE
  5
542
330
22
100
AcDbEntity
  8
_2-7_ビス
  6
Continuous
 62
     7
100
AcDbLine
 10
1206.911407235671
 20
1047.023081024642
 30
0.0
 11
1206.91057748461
 21
1047.034290887466
 31
0.0
  0
LINE
  5
543
330
22
100
AcDbEntity
  8
_2-7_ビス
  6
Continuous
 62
     7
100
AcDbLine
 10
1206.75098773489
 20
1045.220255800866
 30
0.0
 11
1206.75098773489
 21
1045.220255800866
 31
0.0
  0
LINE
  5
544
330
22
100
AcDbEntity
  8
_2-7_ビス
  6
Continuous
 62
     7
100
AcDbLine
 10
1206.75098773489
 20
1045.220255800866
 30
0.0
 11
1206.785510963224
 21
1045.232769351125
 31
0.0
  0
LINE
  5
545
330
22
100
AcDbEntity
  8
_2-7_ビス
  6
Continuous
 62
     7
100
AcDbLine
 10
1206.785510963224
 20
1045.232769351125
 30
0.0
 11
1206.817533241577
 21
1045.251683671903
 31
0.0
  0
LINE
  5
546
330
22
100
AcDbEntity
  8
_2-7_ビス
  6
Continuous
 62
     7
100
AcDbLine
 10
1206.817533241577
 20
1045.251683671903
 30
0.0
 11
1206.846081589225
 21
1045.276424061134
 31
0.0
  0
LINE
  5
547
330
22
100
AcDbEntity
  8
_2-7_ビス
  6
Continuous
 62
     7
100
AcDbLine
 10
1206.846081589225
 20
1045.276424061134
 30
0.0
 11
1206.87028857907
 21
1045.306238794611
 31
0.0
  0
LINE
  5
548
330
22
100
AcDbEntity
  8
_2-7_ビス
  6
Continuous
 62
     7
100
AcDbLine
 10
1206.87028857907
 20
1045.306238794611
 30
0.0
 11
1206.889418693975
 21
1045.340221966745
 31
0.0
  0
LINE
  5
549
330
22
100
AcDbEntity
  8
_2-7_ビス
  6
Continuous
 62
     7
100
AcDbLine
 10
1206.889418693975
 20
1045.340221966745
 30
0.0
 11
1206.902890675079
 21
1045.377341016045
 31
0.0
  0
LINE
  5
54A
330
22
100
AcDbEntity
  8
_2-7_ビス
  6
Continuous
 62
     7
100
AcDbLine
 10
1206.902890675079
 20
1045.377341016045
 30
0.0
 11
1206.910295183054
 21
1045.416468098983
 31
0.0
  0
LINE
  5
54B
330
22
100
AcDbEntity
  8
_2-7_ビス
  6
Continuous
 62
     7
100
AcDbLine
 10
1206.910295183054
 20
1045.416468098983
 30
0.0
 11
1206.911407235671
 21
1045.456414358942
 31
0.0
  0
LINE
  5
54C
330
22
100
AcDbEntity
  8
_2-7_ビス
  6
Continuous
 62
     7
100
AcDbLine
 10
1206.911407235671
 20
1045.456414358942
 30
0.0
 11
1206.91057748461
 21
1045.467624221766
 31
0.0
  0
LINE
  5
54D
330
22
100
AcDbEntity
  8
_2-7_ビス
  6
Continuous
 62
     7
100
AcDbLine
 10
1206.694000875488
 20
1043.653589135166
 30
0.0
 11
1206.694000875488
 21
1043.653589135166
 31
0.0
  0
LINE
  5
54E
330
22
100
AcDbEntity
  8
_2-7_ビス
  6
Continuous
 62
     7
100
AcDbLine
 10
1206.694000875488
 20
1043.653589135166
 30
0.0
 11
1206.728524103823
 21
1043.666102685425
 31
0.0
  0
LINE
  5
54F
330
22
100
AcDbEntity
  8
_2-7_ビス
  6
Continuous
 62
     7
100
AcDbLine
 10
1206.728524103823
 20
1043.666102685425
 30
0.0
 11
1206.760546382176
 21
1043.685017006203
 31
0.0
  0
LINE
  5
550
330
22
100
AcDbEntity
  8
_2-7_ビス
  6
Continuous
 62
     7
100
AcDbLine
 10
1206.760546382176
 20
1043.685017006203
 30
0.0
 11
1206.789094729823
 21
1043.709757395435
 31
0.0
  0
LINE
  5
551
330
22
100
AcDbEntity
  8
_2-7_ビス
  6
Continuous
 62
     7
100
AcDbLine
 10
1206.789094729823
 20
1043.709757395435
 30
0.0
 11
1206.813301719668
 21
1043.739572128912
 31
0.0
  0
LINE
  5
552
330
22
100
AcDbEntity
  8
_2-7_ビス
  6
Continuous
 62
     7
100
AcDbLine
 10
1206.813301719668
 20
1043.739572128912
 30
0.0
 11
1206.832431834574
 21
1043.773555301045
 31
0.0
  0
LINE
  5
553
330
22
100
AcDbEntity
  8
_2-7_ビス
  6
Continuous
 62
     7
100
AcDbLine
 10
1206.832431834574
 20
1043.773555301045
 30
0.0
 11
1206.845903815677
 21
1043.810674350345
 31
0.0
  0
LINE
  5
554
330
22
100
AcDbEntity
  8
_2-7_ビス
  6
Continuous
 62
     7
100
AcDbLine
 10
1206.845903815677
 20
1043.810674350345
 30
0.0
 11
1206.853308323652
 21
1043.849801433283
 31
0.0
  0
LINE
  5
555
330
22
100
AcDbEntity
  8
_2-7_ビス
  6
Continuous
 62
     7
100
AcDbLine
 10
1206.853308323652
 20
1043.849801433283
 30
0.0
 11
1206.854420376269
 21
1043.889747693242
 31
0.0
  0
LINE
  5
556
330
22
100
AcDbEntity
  8
_2-7_ビス
  6
Continuous
 62
     7
100
AcDbLine
 10
1206.854420376269
 20
1043.889747693242
 30
0.0
 11
1206.853590625209
 21
1043.900957556066
 31
0.0
  0
LINE
  5
557
330
22
100
AcDbEntity
  8
_2-7_ビス
  6
Continuous
 62
     7
100
AcDbLine
 10
1206.75098773489
 20
1040.520255803766
 30
0.0
 11
1206.75098773489
 21
1040.520255803766
 31
0.0
  0
LINE
  5
558
330
22
100
AcDbEntity
  8
_2-7_ビス
  6
Continuous
 62
     7
100
AcDbLine
 10
1206.75098773489
 20
1040.520255803766
 30
0.0
 11
1206.785510963224
 21
1040.532769354025
 31
0.0
  0
LINE
  5
559
330
22
100
AcDbEntity
  8
_2-7_ビス
  6
Continuous
 62
     7
100
AcDbLine
 10
1206.785510963224
 20
1040.532769354025
 30
0.0
 11
1206.817533241577
 21
1040.551683674803
 31
0.0
  0
LINE
  5
55A
330
22
100
AcDbEntity
  8
_2-7_ビス
  6
Continuous
 62
     7
100
AcDbLine
 10
1206.817533241577
 20
1040.551683674803
 30
0.0
 11
1206.846081589225
 21
1040.576424064034
 31
0.0
  0
LINE
  5
55B
330
22
100
AcDbEntity
  8
_2-7_ビス
  6
Continuous
 62
     7
100
AcDbLine
 10
1206.846081589225
 20
1040.576424064034
 30
0.0
 11
1206.87028857907
 21
1040.606238797512
 31
0.0
  0
LINE
  5
55C
330
22
100
AcDbEntity
  8
_2-7_ビス
  6
Continuous
 62
     7
100
AcDbLine
 10
1206.87028857907
 20
1040.606238797512
 30
0.0
 11
1206.889418693975
 21
1040.640221969645
 31
0.0
  0
LINE
  5
55D
330
22
100
AcDbEntity
  8
_2-7_ビス
  6
Continuous
 62
     7
100
AcDbLine
 10
1206.889418693975
 20
1040.640221969645
 30
0.0
 11
1206.902890675079
 21
1040.677341018945
 31
0.0
  0
LINE
  5
55E
330
22
100
AcDbEntity
  8
_2-7_ビス
  6
Continuous
 62
     7
100
AcDbLine
 10
1206.902890675079
 20
1040.677341018945
 30
0.0
 11
1206.910295183054
 21
1040.716468101883
 31
0.0
  0
LINE
  5
55F
330
22
100
AcDbEntity
  8
_2-7_ビス
  6
Continuous
 62
     7
100
AcDbLine
 10
1206.910295183054
 20
1040.716468101883
 30
0.0
 11
1206.911407235671
 21
1040.756414361842
 31
0.0
  0
LINE
  5
560
330
22
100
AcDbEntity
  8
_2-7_ビス
  6
Continuous
 62
     7
100
AcDbLine
 10
1206.911407235671
 20
1040.756414361842
 30
0.0
 11
1206.91057748461
 21
1040.767624224666
 31
0.0
  0
LINE
  5
561
330
22
100
AcDbEntity
  8
_2-7_ビス
  6
Continuous
 62
     7
100
AcDbLine
 10
1206.75098773489
 20
1038.953589138066
 30
0.0
 11
1206.75098773489
 21
1038.953589138066
 31
0.0
  0
LINE
  5
562
330
22
100
AcDbEntity
  8
_2-7_ビス
  6
Continuous
 62
     7
100
AcDbLine
 10
1206.75098773489
 20
1038.953589138066
 30
0.0
 11
1206.785510963224
 21
1038.966102688325
 31
0.0
  0
LINE
  5
563
330
22
100
AcDbEntity
  8
_2-7_ビス
  6
Continuous
 62
     7
100
AcDbLine
 10
1206.785510963224
 20
1038.966102688325
 30
0.0
 11
1206.817533241577
 21
1038.985017009103
 31
0.0
  0
LINE
  5
564
330
22
100
AcDbEntity
  8
_2-7_ビス
  6
Continuous
 62
     7
100
AcDbLine
 10
1206.817533241577
 20
1038.985017009103
 30
0.0
 11
1206.846081589225
 21
1039.009757398334
 31
0.0
  0
LINE
  5
565
330
22
100
AcDbEntity
  8
_2-7_ビス
  6
Continuous
 62
     7
100
AcDbLine
 10
1206.846081589225
 20
1039.009757398334
 30
0.0
 11
1206.87028857907
 21
1039.039572131811
 31
0.0
  0
LINE
  5
566
330
22
100
AcDbEntity
  8
_2-7_ビス
  6
Continuous
 62
     7
100
AcDbLine
 10
1206.87028857907
 20
1039.039572131811
 30
0.0
 11
1206.889418693975
 21
1039.073555303944
 31
0.0
  0
LINE
  5
567
330
22
100
AcDbEntity
  8
_2-7_ビス
  6
Continuous
 62
     7
100
AcDbLine
 10
1206.889418693975
 20
1039.073555303944
 30
0.0
 11
1206.902890675079
 21
1039.110674353245
 31
0.0
  0
LINE
  5
568
330
22
100
AcDbEntity
  8
_2-7_ビス
  6
Continuous
 62
     7
100
AcDbLine
 10
1206.902890675079
 20
1039.110674353245
 30
0.0
 11
1206.910295183054
 21
1039.149801436183
 31
0.0
  0
LINE
  5
569
330
22
100
AcDbEntity
  8
_2-7_ビス
  6
Continuous
 62
     7
100
AcDbLine
 10
1206.910295183054
 20
1039.149801436183
 30
0.0
 11
1206.911407235671
 21
1039.189747696142
 31
0.0
  0
LINE
  5
56A
330
22
100
AcDbEntity
  8
_2-7_ビス
  6
Continuous
 62
     7
100
AcDbLine
 10
1206.911407235671
 20
1039.189747696142
 30
0.0
 11
1206.91057748461
 21
1039.200957558966
 31
0.0
  0
LINE
  5
56B
330
22
100
AcDbEntity
  8
_2-7_ビス
  6
Continuous
 62
     7
100
AcDbLine
 10
1206.75098773489
 20
1037.386922472366
 30
0.0
 11
1206.75098773489
 21
1037.386922472366
 31
0.0
  0
LINE
  5
56C
330
22
100
AcDbEntity
  8
_2-7_ビス
  6
Continuous
 62
     7
100
AcDbLine
 10
1206.75098773489
 20
1037.386922472366
 30
0.0
 11
1206.785510963224
 21
1037.399436022625
 31
0.0
  0
LINE
  5
56D
330
22
100
AcDbEntity
  8
_2-7_ビス
  6
Continuous
 62
     7
100
AcDbLine
 10
1206.785510963224
 20
1037.399436022625
 30
0.0
 11
1206.817533241577
 21
1037.418350343403
 31
0.0
  0
LINE
  5
56E
330
22
100
AcDbEntity
  8
_2-7_ビス
  6
Continuous
 62
     7
100
AcDbLine
 10
1206.817533241577
 20
1037.418350343403
 30
0.0
 11
1206.846081589225
 21
1037.443090732634
 31
0.0
  0
LINE
  5
56F
330
22
100
AcDbEntity
  8
_2-7_ビス
  6
Continuous
 62
     7
100
AcDbLine
 10
1206.846081589225
 20
1037.443090732634
 30
0.0
 11
1206.87028857907
 21
1037.472905466112
 31
0.0
  0
LINE
  5
570
330
22
100
AcDbEntity
  8
_2-7_ビス
  6
Continuous
 62
     7
100
AcDbLine
 10
1206.87028857907
 20
1037.472905466112
 30
0.0
 11
1206.889418693975
 21
1037.506888638245
 31
0.0
  0
LINE
  5
571
330
22
100
AcDbEntity
  8
_2-7_ビス
  6
Continuous
 62
     7
100
AcDbLine
 10
1206.889418693975
 20
1037.506888638245
 30
0.0
 11
1206.902890675079
 21
1037.544007687545
 31
0.0
  0
LINE
  5
572
330
22
100
AcDbEntity
  8
_2-7_ビス
  6
Continuous
 62
     7
100
AcDbLine
 10
1206.902890675079
 20
1037.544007687545
 30
0.0
 11
1206.910295183054
 21
1037.583134770483
 31
0.0
  0
LINE
  5
573
330
22
100
AcDbEntity
  8
_2-7_ビス
  6
Continuous
 62
     7
100
AcDbLine
 10
1206.910295183054
 20
1037.583134770483
 30
0.0
 11
1206.911407235671
 21
1037.623081030442
 31
0.0
  0
LINE
  5
574
330
22
100
AcDbEntity
  8
_2-7_ビス
  6
Continuous
 62
     7
100
AcDbLine
 10
1206.911407235671
 20
1037.623081030442
 30
0.0
 11
1206.91057748461
 21
1037.634290893266
 31
0.0
  0
LINE
  5
575
330
22
100
AcDbEntity
  8
_2-7_ビス
  6
Continuous
 62
     7
100
AcDbLine
 10
1206.693708163315
 20
1035.820255806666
 30
0.0
 11
1206.693708163315
 21
1035.820255806666
 31
0.0
  0
LINE
  5
576
330
22
100
AcDbEntity
  8
_2-7_ビス
  6
Continuous
 62
     7
100
AcDbLine
 10
1206.693708163315
 20
1035.820255806666
 30
0.0
 11
1206.72823139165
 21
1035.832769356924
 31
0.0
  0
LINE
  5
577
330
22
100
AcDbEntity
  8
_2-7_ビス
  6
Continuous
 62
     7
100
AcDbLine
 10
1206.72823139165
 20
1035.832769356924
 30
0.0
 11
1206.760253670003
 21
1035.851683677703
 31
0.0
  0
LINE
  5
578
330
22
100
AcDbEntity
  8
_2-7_ビス
  6
Continuous
 62
     7
100
AcDbLine
 10
1206.760253670003
 20
1035.851683677703
 30
0.0
 11
1206.788802017651
 21
1035.876424066934
 31
0.0
  0
LINE
  5
579
330
22
100
AcDbEntity
  8
_2-7_ビス
  6
Continuous
 62
     7
100
AcDbLine
 10
1206.788802017651
 20
1035.876424066934
 30
0.0
 11
1206.813009007496
 21
1035.906238800412
 31
0.0
  0
LINE
  5
57A
330
22
100
AcDbEntity
  8
_2-7_ビス
  6
Continuous
 62
     7
100
AcDbLine
 10
1206.813009007496
 20
1035.906238800412
 30
0.0
 11
1206.832139122401
 21
1035.940221972545
 31
0.0
  0
LINE
  5
57B
330
22
100
AcDbEntity
  8
_2-7_ビス
  6
Continuous
 62
     7
100
AcDbLine
 10
1206.832139122401
 20
1035.940221972545
 30
0.0
 11
1206.845611103505
 21
1035.977341021845
 31
0.0
  0
LINE
  5
57C
330
22
100
AcDbEntity
  8
_2-7_ビス
  6
Continuous
 62
     7
100
AcDbLine
 10
1206.845611103505
 20
1035.977341021845
 30
0.0
 11
1206.85301561148
 21
1036.016468104782
 31
0.0
  0
LINE
  5
57D
330
22
100
AcDbEntity
  8
_2-7_ビス
  6
Continuous
 62
     7
100
AcDbLine
 10
1206.85301561148
 20
1036.016468104782
 30
0.0
 11
1206.854127664097
 21
1036.056414364742
 31
0.0
  0
LINE
  5
57E
330
22
100
AcDbEntity
  8
_2-7_ビス
  6
Continuous
 62
     7
100
AcDbLine
 10
1206.854127664097
 20
1036.056414364742
 30
0.0
 11
1206.853297913036
 21
1036.067624227566
 31
0.0
  0
LINE
  5
57F
330
22
100
AcDbEntity
  8
_2-7_ビス
  6
Continuous
 62
     7
100
AcDbLine
 10
1206.75098773489
 20
1032.686922475265
 30
0.0
 11
1206.75098773489
 21
1032.686922475265
 31
0.0
  0
LINE
  5
580
330
22
100
AcDbEntity
  8
_2-7_ビス
  6
Continuous
 62
     7
100
AcDbLine
 10
1206.75098773489
 20
1032.686922475265
 30
0.0
 11
1206.785510963224
 21
1032.699436025525
 31
0.0
  0
LINE
  5
581
330
22
100
AcDbEntity
  8
_2-7_ビス
  6
Continuous
 62
     7
100
AcDbLine
 10
1206.785510963224
 20
1032.699436025525
 30
0.0
 11
1206.817533241577
 21
1032.718350346303
 31
0.0
  0
LINE
  5
582
330
22
100
AcDbEntity
  8
_2-7_ビス
  6
Continuous
 62
     7
100
AcDbLine
 10
1206.817533241577
 20
1032.718350346303
 30
0.0
 11
1206.846081589225
 21
1032.743090735534
 31
0.0
  0
LINE
  5
583
330
22
100
AcDbEntity
  8
_2-7_ビス
  6
Continuous
 62
     7
100
AcDbLine
 10
1206.846081589225
 20
1032.743090735534
 30
0.0
 11
1206.87028857907
 21
1032.772905469011
 31
0.0
  0
LINE
  5
584
330
22
100
AcDbEntity
  8
_2-7_ビス
  6
Continuous
 62
     7
100
AcDbLine
 10
1206.87028857907
 20
1032.772905469011
 30
0.0
 11
1206.889418693975
 21
1032.806888641145
 31
0.0
  0
LINE
  5
585
330
22
100
AcDbEntity
  8
_2-7_ビス
  6
Continuous
 62
     7
100
AcDbLine
 10
1206.889418693975
 20
1032.806888641145
 30
0.0
 11
1206.902890675079
 21
1032.844007690445
 31
0.0
  0
LINE
  5
586
330
22
100
AcDbEntity
  8
_2-7_ビス
  6
Continuous
 62
     7
100
AcDbLine
 10
1206.902890675079
 20
1032.844007690445
 30
0.0
 11
1206.910295183054
 21
1032.883134773382
 31
0.0
  0
LINE
  5
587
330
22
100
AcDbEntity
  8
_2-7_ビス
  6
Continuous
 62
     7
100
AcDbLine
 10
1206.910295183054
 20
1032.883134773382
 30
0.0
 11
1206.911407235671
 21
1032.923081033342
 31
0.0
  0
LINE
  5
588
330
22
100
AcDbEntity
  8
_2-7_ビス
  6
Continuous
 62
     7
100
AcDbLine
 10
1206.911407235671
 20
1032.923081033342
 30
0.0
 11
1206.91057748461
 21
1032.934290896165
 31
0.0
  0
LINE
  5
589
330
22
100
AcDbEntity
  8
_2-7_ビス
  6
Continuous
 62
     7
100
AcDbLine
 10
1206.718707683795
 20
1031.120255809566
 30
0.0
 11
1206.718707683795
 21
1031.120255809566
 31
0.0
  0
LINE
  5
58A
330
22
100
AcDbEntity
  8
_2-7_ビス
  6
Continuous
 62
     7
100
AcDbLine
 10
1206.718707683795
 20
1031.120255809566
 30
0.0
 11
1206.75323091213
 21
1031.132769359825
 31
0.0
  0
LINE
  5
58B
330
22
100
AcDbEntity
  8
_2-7_ビス
  6
Continuous
 62
     7
100
AcDbLine
 10
1206.75323091213
 20
1031.132769359825
 30
0.0
 11
1206.785253190483
 21
1031.151683680603
 31
0.0
  0
LINE
  5
58C
330
22
100
AcDbEntity
  8
_2-7_ビス
  6
Continuous
 62
     7
100
AcDbLine
 10
1206.785253190483
 20
1031.151683680603
 30
0.0
 11
1206.81380153813
 21
1031.176424069834
 31
0.0
  0
LINE
  5
58D
330
22
100
AcDbEntity
  8
_2-7_ビス
  6
Continuous
 62
     7
100
AcDbLine
 10
1206.81380153813
 20
1031.176424069834
 30
0.0
 11
1206.838008527975
 21
1031.206238803311
 31
0.0
  0
LINE
  5
58E
330
22
100
AcDbEntity
  8
_2-7_ビス
  6
Continuous
 62
     7
100
AcDbLine
 10
1206.838008527975
 20
1031.206238803311
 30
0.0
 11
1206.85713864288
 21
1031.240221975444
 31
0.0
  0
LINE
  5
58F
330
22
100
AcDbEntity
  8
_2-7_ビス
  6
Continuous
 62
     7
100
AcDbLine
 10
1206.85713864288
 20
1031.240221975444
 30
0.0
 11
1206.870610623985
 21
1031.277341024745
 31
0.0
  0
LINE
  5
590
330
22
100
AcDbEntity
  8
_2-7_ビス
  6
Continuous
 62
     7
100
AcDbLine
 10
1206.870610623985
 20
1031.277341024745
 30
0.0
 11
1206.878015131959
 21
1031.316468107682
 31
0.0
  0
LINE
  5
591
330
22
100
AcDbEntity
  8
_2-7_ビス
  6
Continuous
 62
     7
100
AcDbLine
 10
1206.878015131959
 20
1031.316468107682
 30
0.0
 11
1206.879127184576
 21
1031.356414367642
 31
0.0
  0
LINE
  5
592
330
22
100
AcDbEntity
  8
_2-7_ビス
  6
Continuous
 62
     7
100
AcDbLine
 10
1206.879127184576
 20
1031.356414367642
 30
0.0
 11
1206.878297433515
 21
1031.367624230466
 31
0.0
  0
LINE
  5
593
330
22
100
AcDbEntity
  8
_2-7_ビス
  6
Continuous
 62
     7
100
AcDbLine
 10
1206.686604730986
 20
1029.553589143865
 30
0.0
 11
1206.686604730986
 21
1029.553589143865
 31
0.0
  0
LINE
  5
594
330
22
100
AcDbEntity
  8
_2-7_ビス
  6
Continuous
 62
     7
100
AcDbLine
 10
1206.686604730986
 20
1029.553589143865
 30
0.0
 11
1206.721127959321
 21
1029.566102694125
 31
0.0
  0
LINE
  5
595
330
22
100
AcDbEntity
  8
_2-7_ビス
  6
Continuous
 62
     7
100
AcDbLine
 10
1206.721127959321
 20
1029.566102694125
 30
0.0
 11
1206.753150237674
 21
1029.585017014903
 31
0.0
  0
LINE
  5
596
330
22
100
AcDbEntity
  8
_2-7_ビス
  6
Continuous
 62
     7
100
AcDbLine
 10
1206.753150237674
 20
1029.585017014903
 30
0.0
 11
1206.781698585322
 21
1029.609757404134
 31
0.0
  0
LINE
  5
597
330
22
100
AcDbEntity
  8
_2-7_ビス
  6
Continuous
 62
     7
100
AcDbLine
 10
1206.781698585322
 20
1029.609757404134
 30
0.0
 11
1206.805905575167
 21
1029.639572137611
 31
0.0
  0
LINE
  5
598
330
22
100
AcDbEntity
  8
_2-7_ビス
  6
Continuous
 62
     7
100
AcDbLine
 10
1206.805905575167
 20
1029.639572137611
 30
0.0
 11
1206.825035690072
 21
1029.673555309744
 31
0.0
  0
LINE
  5
599
330
22
100
AcDbEntity
  8
_2-7_ビス
  6
Continuous
 62
     7
100
AcDbLine
 10
1206.825035690072
 20
1029.673555309744
 30
0.0
 11
1206.838507671176
 21
1029.710674359045
 31
0.0
  0
LINE
  5
59A
330
22
100
AcDbEntity
  8
_2-7_ビス
  6
Continuous
 62
     7
100
AcDbLine
 10
1206.838507671176
 20
1029.710674359045
 30
0.0
 11
1206.845912179151
 21
1029.749801441982
 31
0.0
  0
LINE
  5
59B
330
22
100
AcDbEntity
  8
_2-7_ビス
  6
Continuous
 62
     7
100
AcDbLine
 10
1206.845912179151
 20
1029.749801441982
 30
0.0
 11
1206.847024231768
 21
1029.789747701941
 31
0.0
  0
LINE
  5
59C
330
22
100
AcDbEntity
  8
_2-7_ビス
  6
Continuous
 62
     7
100
AcDbLine
 10
1206.847024231768
 20
1029.789747701941
 30
0.0
 11
1206.846194480707
 21
1029.800957564765
 31
0.0
  0
LINE
  5
59D
330
22
100
AcDbEntity
  8
_2-7_ビス
  6
Continuous
 62
     7
100
AcDbLine
 10
1206.664289799957
 20
1027.986922478167
 30
0.0
 11
1206.664289799957
 21
1027.986922478167
 31
0.0
  0
LINE
  5
59E
330
22
100
AcDbEntity
  8
_2-7_ビス
  6
Continuous
 62
     7
100
AcDbLine
 10
1206.664289799957
 20
1027.986922478167
 30
0.0
 11
1206.698813028292
 21
1027.999436028426
 31
0.0
  0
LINE
  5
59F
330
22
100
AcDbEntity
  8
_2-7_ビス
  6
Continuous
 62
     7
100
AcDbLine
 10
1206.698813028292
 20
1027.999436028426
 30
0.0
 11
1206.730835306645
 21
1028.018350349204
 31
0.0
  0
LINE
  5
5A0
330
22
100
AcDbEntity
  8
_2-7_ビス
  6
Continuous
 62
     7
100
AcDbLine
 10
1206.730835306645
 20
1028.018350349204
 30
0.0
 11
1206.759383654292
 21
1028.043090738435
 31
0.0
  0
LINE
  5
5A1
330
22
100
AcDbEntity
  8
_2-7_ビス
  6
Continuous
 62
     7
100
AcDbLine
 10
1206.759383654292
 20
1028.043090738435
 30
0.0
 11
1206.783590644137
 21
1028.072905471912
 31
0.0
  0
LINE
  5
5A2
330
22
100
AcDbEntity
  8
_2-7_ビス
  6
Continuous
 62
     7
100
AcDbLine
 10
1206.783590644137
 20
1028.072905471912
 30
0.0
 11
1206.802720759042
 21
1028.106888644045
 31
0.0
  0
LINE
  5
5A3
330
22
100
AcDbEntity
  8
_2-7_ビス
  6
Continuous
 62
     7
100
AcDbLine
 10
1206.802720759042
 20
1028.106888644045
 30
0.0
 11
1206.816192740147
 21
1028.144007693346
 31
0.0
  0
LINE
  5
5A4
330
22
100
AcDbEntity
  8
_2-7_ビス
  6
Continuous
 62
     7
100
AcDbLine
 10
1206.816192740147
 20
1028.144007693346
 30
0.0
 11
1206.823597248122
 21
1028.183134776283
 31
0.0
  0
LINE
  5
5A5
330
22
100
AcDbEntity
  8
_2-7_ビス
  6
Continuous
 62
     7
100
AcDbLine
 10
1206.823597248122
 20
1028.183134776283
 30
0.0
 11
1206.824709300738
 21
1028.223081036243
 31
0.0
  0
LINE
  5
5A6
330
22
100
AcDbEntity
  8
_2-7_ビス
  6
Continuous
 62
     7
100
AcDbLine
 10
1206.824709300738
 20
1028.223081036243
 30
0.0
 11
1206.823879549677
 21
1028.234290899066
 31
0.0
  0
LINE
  5
5A7
330
22
100
AcDbEntity
  8
_2-7_ビス
  6
Continuous
 62
     7
100
AcDbLine
 10
1206.673472984889
 20
1026.420255812466
 30
0.0
 11
1206.673472984889
 21
1026.420255812466
 31
0.0
  0
LINE
  5
5A8
330
22
100
AcDbEntity
  8
_2-7_ビス
  6
Continuous
 62
     7
100
AcDbLine
 10
1206.673472984889
 20
1026.420255812466
 30
0.0
 11
1206.700618920828
 21
1026.425351631315
 31
0.0
  0
LINE
  5
5A9
330
22
100
AcDbEntity
  8
_2-7_ビス
  6
Continuous
 62
     7
100
AcDbLine
 10
1206.700618920828
 20
1026.425351631315
 30
0.0
 11
1206.726547585059
 21
1026.435552503127
 31
0.0
  0
LINE
  5
5AA
330
22
100
AcDbEntity
  8
_2-7_ビス
  6
Continuous
 62
     7
100
AcDbLine
 10
1206.726547585059
 20
1026.435552503127
 30
0.0
 11
1206.750471148242
 21
1026.450548479573
 31
0.0
  0
LINE
  5
5AB
330
22
100
AcDbEntity
  8
_2-7_ビス
  6
Continuous
 62
     7
100
AcDbLine
 10
1206.750471148242
 20
1026.450548479573
 30
0.0
 11
1206.771662705014
 21
1026.469883915498
 31
0.0
  0
LINE
  5
5AC
330
22
100
AcDbEntity
  8
_2-7_ビス
  6
Continuous
 62
     7
100
AcDbLine
 10
1206.771662705014
 20
1026.469883915498
 30
0.0
 11
1206.789478360646
 21
1026.492971313466
 31
0.0
  0
LINE
  5
5AD
330
22
100
AcDbEntity
  8
_2-7_ビス
  6
Continuous
 62
     7
100
AcDbLine
 10
1206.789478360646
 20
1026.492971313466
 30
0.0
 11
1206.803376795457
 21
1026.519109174571
 31
0.0
  0
LINE
  5
5AE
330
22
100
AcDbEntity
  8
_2-7_ビス
  6
Continuous
 62
     7
100
AcDbLine
 10
1206.803376795457
 20
1026.519109174571
 30
0.0
 11
1206.812935712539
 21
1026.547503313131
 31
0.0
  0
LINE
  5
5AF
330
22
100
AcDbEntity
  8
_2-7_ビス
  6
Continuous
 62
     7
100
AcDbLine
 10
1206.812935712539
 20
1026.547503313131
 30
0.0
 11
1206.817864669031
 21
1026.577290987614
 31
0.0
  0
LINE
  5
5B0
330
22
100
AcDbEntity
  8
_2-7_ビス
  6
Continuous
 62
     7
100
AcDbLine
 10
1206.817864669031
 20
1026.577290987614
 30
0.0
 11
1206.818013901087
 21
1026.607567114603
 31
0.0
  0
LINE
  5
5B1
330
22
100
AcDbEntity
  8
_2-7_ビス
  6
Continuous
 62
     7
100
AcDbLine
 10
1206.818013901087
 20
1026.607567114603
 30
0.0
 11
1206.813378874366
 21
1026.637411769302
 31
0.0
  0
LINE
  5
5B2
330
22
100
AcDbEntity
  8
_2-7_ビス
  6
Continuous
 62
     7
100
AcDbLine
 10
1206.813378874366
 20
1026.637411769302
 30
0.0
 11
1206.804100421808
 21
1026.665918136978
 31
0.0
  0
LINE
  5
5B3
330
22
100
AcDbEntity
  8
_2-7_ビス
  6
Continuous
 62
     7
100
AcDbLine
 10
1206.804100421808
 20
1026.665918136978
 30
0.0
 11
1206.7904604645
 21
1026.692220066074
 31
0.0
  0
LINE
  5
5B4
330
22
100
AcDbEntity
  8
_2-7_ビス
  6
Continuous
 62
     7
100
AcDbLine
 10
1206.7904604645
 20
1026.692220066074
 30
0.0
 11
1206.790376970743
 21
1026.692352554336
 31
0.0
  0
LINE
  5
5B5
330
22
100
AcDbEntity
  8
_2-7_ビス
  6
Continuous
 62
     7
100
AcDbLine
 10
1206.370364234889
 20
1034.253589140966
 30
0.0
 11
1206.370364234889
 21
1034.253589140966
 31
0.0
  0
LINE
  5
5B6
330
22
100
AcDbEntity
  8
_2-7_ビス
  6
Continuous
 62
     7
100
AcDbLine
 10
1206.370364234889
 20
1034.253589140966
 30
0.0
 11
1206.454690065683
 21
1034.265849097614
 31
0.0
  0
LINE
  5
5B7
330
22
100
AcDbEntity
  8
_2-7_ビス
  6
Continuous
 62
     7
100
AcDbLine
 10
1206.454690065683
 20
1034.265849097614
 30
0.0
 11
1206.535798387141
 21
1034.294021564321
 31
0.0
  0
LINE
  5
5B8
330
22
100
AcDbEntity
  8
_2-7_ビス
  6
Continuous
 62
     7
100
AcDbLine
 10
1206.535798387141
 20
1034.294021564321
 30
0.0
 11
1206.611224763959
 21
1034.337250534942
 31
0.0
  0
LINE
  5
5B9
330
22
100
AcDbEntity
  8
_2-7_ビス
  6
Continuous
 62
     7
100
AcDbLine
 10
1206.611224763959
 20
1034.337250534942
 30
0.0
 11
1206.678677403845
 21
1034.394222519081
 31
0.0
  0
LINE
  5
5BA
330
22
100
AcDbEntity
  8
_2-7_ビス
  6
Continuous
 62
     7
100
AcDbLine
 10
1206.678677403845
 20
1034.394222519081
 30
0.0
 11
1206.736106792469
 21
1034.463206451827
 31
0.0
  0
LINE
  5
5BB
330
22
100
AcDbEntity
  8
_2-7_ビス
  6
Continuous
 62
     7
100
AcDbLine
 10
1206.736106792469
 20
1034.463206451827
 30
0.0
 11
1206.781767966917
 21
1034.542106291294
 31
0.0
  0
LINE
  5
5BC
330
22
100
AcDbEntity
  8
_2-7_ビス
  6
Continuous
 62
     7
100
AcDbLine
 10
1206.781767966917
 20
1034.542106291294
 30
0.0
 11
1206.81427353551
 21
1034.628524705782
 31
0.0
  0
LINE
  5
5BD
330
22
100
AcDbEntity
  8
_2-7_ビス
  6
Continuous
 62
     7
100
AcDbLine
 10
1206.81427353551
 20
1034.628524705782
 30
0.0
 11
1206.832635832995
 21
1034.719835915498
 31
0.0
  0
LINE
  5
5BE
330
22
100
AcDbEntity
  8
_2-7_ビス
  6
Continuous
 62
     7
100
AcDbLine
 10
1206.832635832995
 20
1034.719835915498
 30
0.0
 11
1206.836296930255
 21
1034.81326547554
 31
0.0
  0
LINE
  5
5BF
330
22
100
AcDbEntity
  8
_2-7_ビス
  6
Continuous
 62
     7
100
AcDbLine
 10
1206.836296930255
 20
1034.81326547554
 30
0.0
 11
1206.825145586701
 21
1034.905974576005
 31
0.0
  0
LINE
  5
5C0
330
22
100
AcDbEntity
  8
_2-7_ビス
  6
Continuous
 62
     7
100
AcDbLine
 10
1206.825145586701
 20
1034.905974576005
 30
0.0
 11
1206.799520630266
 21
1034.995146297787
 31
0.0
  0
LINE
  5
5C1
330
22
100
AcDbEntity
  8
_2-7_ビス
  6
Continuous
 62
     7
100
AcDbLine
 10
1206.799520630266
 20
1034.995146297787
 30
0.0
 11
1206.760200662282
 21
1035.078071203243
 31
0.0
  0
LINE
  5
5C2
330
22
100
AcDbEntity
  8
_2-7_ビス
  6
Continuous
 62
     7
100
AcDbLine
 10
1206.760200662282
 20
1035.078071203243
 30
0.0
 11
1206.708380400082
 21
1035.152229661084
 31
0.0
  0
LINE
  5
5C3
330
22
100
AcDbEntity
  8
_2-7_ビス
  6
Continuous
 62
     7
100
AcDbLine
 10
1206.708380400082
 20
1035.152229661084
 30
0.0
 11
1206.645634376109
 21
1035.215368404093
 31
0.0
  0
LINE
  5
5C4
330
22
100
AcDbEntity
  8
_2-7_ビス
  6
Continuous
 62
     7
100
AcDbLine
 10
1206.645634376109
 20
1035.215368404093
 30
0.0
 11
1206.573869096551
 21
1035.265568993514
 31
0.0
  0
LINE
  5
5C5
330
22
100
AcDbEntity
  8
_2-7_ビス
  6
Continuous
 62
     7
100
AcDbLine
 10
1206.573869096551
 20
1035.265568993514
 30
0.0
 11
1206.495265113111
 21
1035.30130610984
 31
0.0
  0
LINE
  5
5C6
330
22
100
AcDbEntity
  8
_2-7_ビス
  6
Continuous
 62
     7
100
AcDbLine
 10
1206.495265113111
 20
1035.30130610984
 30
0.0
 11
1206.412210768052
 21
1035.321493898875
 31
0.0
  0
LINE
  5
5C7
330
22
100
AcDbEntity
  8
_2-7_ビス
  6
Continuous
 62
     7
100
AcDbLine
 10
1206.412210768052
 20
1035.321493898875
 30
0.0
 11
1206.370364234889
 21
1035.325518964866
 31
0.0
  0
LINE
  5
5C8
330
22
100
AcDbEntity
  8
_2-7_ビス
  6
Continuous
 62
     7
100
AcDbLine
 10
1206.370364234889
 20
1042.086922469466
 30
0.0
 11
1206.370364234889
 21
1042.086922469466
 31
0.0
  0
LINE
  5
5C9
330
22
100
AcDbEntity
  8
_2-7_ビス
  6
Continuous
 62
     7
100
AcDbLine
 10
1206.370364234889
 20
1042.086922469466
 30
0.0
 11
1206.454690065683
 21
1042.099182426114
 31
0.0
  0
LINE
  5
5CA
330
22
100
AcDbEntity
  8
_2-7_ビス
  6
Continuous
 62
     7
100
AcDbLine
 10
1206.454690065683
 20
1042.099182426114
 30
0.0
 11
1206.535798387141
 21
1042.127354892821
 31
0.0
  0
LINE
  5
5CB
330
22
100
AcDbEntity
  8
_2-7_ビス
  6
Continuous
 62
     7
100
AcDbLine
 10
1206.535798387141
 20
1042.127354892821
 30
0.0
 11
1206.611224763959
 21
1042.170583863443
 31
0.0
  0
LINE
  5
5CC
330
22
100
AcDbEntity
  8
_2-7_ビス
  6
Continuous
 62
     7
100
AcDbLine
 10
1206.611224763959
 20
1042.170583863443
 30
0.0
 11
1206.678677403845
 21
1042.227555847581
 31
0.0
  0
LINE
  5
5CD
330
22
100
AcDbEntity
  8
_2-7_ビス
  6
Continuous
 62
     7
100
AcDbLine
 10
1206.678677403845
 20
1042.227555847581
 30
0.0
 11
1206.736106792469
 21
1042.296539780328
 31
0.0
  0
LINE
  5
5CE
330
22
100
AcDbEntity
  8
_2-7_ビス
  6
Continuous
 62
     7
100
AcDbLine
 10
1206.736106792469
 20
1042.296539780328
 30
0.0
 11
1206.781767966917
 21
1042.375439619794
 31
0.0
  0
LINE
  5
5CF
330
22
100
AcDbEntity
  8
_2-7_ビス
  6
Continuous
 62
     7
100
AcDbLine
 10
1206.781767966917
 20
1042.375439619794
 30
0.0
 11
1206.81427353551
 21
1042.461858034282
 31
0.0
  0
LINE
  5
5D0
330
22
100
AcDbEntity
  8
_2-7_ビス
  6
Continuous
 62
     7
100
AcDbLine
 10
1206.81427353551
 20
1042.461858034282
 30
0.0
 11
1206.832635832995
 21
1042.553169243998
 31
0.0
  0
LINE
  5
5D1
330
22
100
AcDbEntity
  8
_2-7_ビス
  6
Continuous
 62
     7
100
AcDbLine
 10
1206.832635832995
 20
1042.553169243998
 30
0.0
 11
1206.836296930255
 21
1042.64659880404
 31
0.0
  0
LINE
  5
5D2
330
22
100
AcDbEntity
  8
_2-7_ビス
  6
Continuous
 62
     7
100
AcDbLine
 10
1206.836296930255
 20
1042.64659880404
 30
0.0
 11
1206.825145586701
 21
1042.739307904505
 31
0.0
  0
LINE
  5
5D3
330
22
100
AcDbEntity
  8
_2-7_ビス
  6
Continuous
 62
     7
100
AcDbLine
 10
1206.825145586701
 20
1042.739307904505
 30
0.0
 11
1206.799520630266
 21
1042.828479626287
 31
0.0
  0
LINE
  5
5D4
330
22
100
AcDbEntity
  8
_2-7_ビス
  6
Continuous
 62
     7
100
AcDbLine
 10
1206.799520630266
 20
1042.828479626287
 30
0.0
 11
1206.760200662282
 21
1042.911404531744
 31
0.0
  0
LINE
  5
5D5
330
22
100
AcDbEntity
  8
_2-7_ビス
  6
Continuous
 62
     7
100
AcDbLine
 10
1206.760200662282
 20
1042.911404531744
 30
0.0
 11
1206.708380400082
 21
1042.985562989585
 31
0.0
  0
LINE
  5
5D6
330
22
100
AcDbEntity
  8
_2-7_ビス
  6
Continuous
 62
     7
100
AcDbLine
 10
1206.708380400082
 20
1042.985562989585
 30
0.0
 11
1206.645634376109
 21
1043.048701732593
 31
0.0
  0
LINE
  5
5D7
330
22
100
AcDbEntity
  8
_2-7_ビス
  6
Continuous
 62
     7
100
AcDbLine
 10
1206.645634376109
 20
1043.048701732593
 30
0.0
 11
1206.573869096551
 21
1043.098902322014
 31
0.0
  0
LINE
  5
5D8
330
22
100
AcDbEntity
  8
_2-7_ビス
  6
Continuous
 62
     7
100
AcDbLine
 10
1206.573869096551
 20
1043.098902322014
 30
0.0
 11
1206.495265113111
 21
1043.13463943834
 31
0.0
  0
LINE
  5
5D9
330
22
100
AcDbEntity
  8
_2-7_ビス
  6
Continuous
 62
     7
100
AcDbLine
 10
1206.495265113111
 20
1043.13463943834
 30
0.0
 11
1206.412210768052
 21
1043.154827227376
 31
0.0
  0
LINE
  5
5DA
330
22
100
AcDbEntity
  8
_2-7_ビス
  6
Continuous
 62
     7
100
AcDbLine
 10
1206.412210768052
 20
1043.154827227376
 30
0.0
 11
1206.370364234889
 21
1043.158852293366
 31
0.0
  0
LINE
  5
5DB
330
22
100
AcDbEntity
  8
_2-7_ビス
  6
Continuous
 62
     7
100
AcDbLine
 10
1206.745856378778
 20
1023.699203182566
 30
0.0
 11
1206.745856378778
 21
1023.699203182566
 31
0.0
  0
LINE
  5
5DC
330
22
100
AcDbEntity
  8
_2-7_ビス
  6
Continuous
 62
     7
100
AcDbLine
 10
1206.745856378778
 20
1023.699203182566
 30
0.0
 11
1206.740452454353
 21
1023.838458804481
 31
0.0
  0
LINE
  5
5DD
330
22
100
AcDbEntity
  8
_2-7_ビス
  6
Continuous
 62
     7
100
AcDbLine
 10
1206.740452454353
 20
1023.838458804481
 30
0.0
 11
1206.713135766333
 21
1023.974567149564
 31
0.0
  0
LINE
  5
5DE
330
22
100
AcDbEntity
  8
_2-7_ビス
  6
Continuous
 62
     7
100
AcDbLine
 10
1206.713135766333
 20
1023.974567149564
 30
0.0
 11
1206.69558104569
 21
1024.029027743766
 31
0.0
  0
LINE
  5
5DF
330
22
100
AcDbEntity
  8
_2-7_ビス
  6
Continuous
 62
     7
100
AcDbLine
 10
1207.836761984888
 20
1021.699875725013
 30
0.0
 11
1207.836761984888
 21
1021.699875725013
 31
0.0
  0
LINE
  5
5E0
330
22
100
AcDbEntity
  8
_2-7_ビス
  6
Continuous
 62
     7
100
AcDbLine
 10
1207.836761984888
 20
1021.699875725013
 30
0.0
 11
1207.833940160055
 21
1021.755715919558
 31
0.0
  0
LINE
  5
5E1
330
22
100
AcDbEntity
  8
_2-7_ビス
  6
Continuous
 62
     7
100
AcDbLine
 10
1207.833940160055
 20
1021.755715919558
 30
0.0
 11
1207.822341472567
 21
1021.810169057413
 31
0.0
  0
LINE
  5
5E2
330
22
100
AcDbEntity
  8
_2-7_ビス
  6
Continuous
 62
     7
100
AcDbLine
 10
1207.822341472567
 20
1021.810169057413
 30
0.0
 11
1207.802318342672
 21
1021.861580607541
 31
0.0
  0
LINE
  5
5E3
330
22
100
AcDbEntity
  8
_2-7_ビス
  6
Continuous
 62
     7
100
AcDbLine
 10
1207.802318342672
 20
1021.861580607541
 30
0.0
 11
1207.774479163041
 21
1021.908388456006
 31
0.0
  0
LINE
  5
5E4
330
22
100
AcDbEntity
  8
_2-7_ビス
  6
Continuous
 62
     7
100
AcDbLine
 10
1207.774479163041
 20
1021.908388456006
 30
0.0
 11
1207.73966981306
 21
1021.949170370019
 31
0.0
  0
LINE
  5
5E5
330
22
100
AcDbEntity
  8
_2-7_ビス
  6
Continuous
 62
     7
100
AcDbLine
 10
1207.73966981306
 20
1021.949170370019
 30
0.0
 11
1207.698947957212
 21
1021.982687211759
 31
0.0
  0
LINE
  5
5E6
330
22
100
AcDbEntity
  8
_2-7_ビス
  6
Continuous
 62
     7
100
AcDbLine
 10
1207.698947957212
 20
1021.982687211759
 30
0.0
 11
1207.653550908483
 21
1022.00792058895
 31
0.0
  0
LINE
  5
5E7
330
22
100
AcDbEntity
  8
_2-7_ビス
  6
Continuous
 62
     7
100
AcDbLine
 10
1207.653550908483
 20
1022.00792058895
 30
0.0
 11
1207.604858033226
 21
1022.024103798194
 31
0.0
  0
LINE
  5
5E8
330
22
100
AcDbEntity
  8
_2-7_ビス
  6
Continuous
 62
     7
100
AcDbLine
 10
1207.604858033226
 20
1022.024103798194
 30
0.0
 11
1207.554348839815
 21
1022.030745120869
 31
0.0
  0
LINE
  5
5E9
330
22
100
AcDbEntity
  8
_2-7_ビス
  6
Continuous
 62
     7
100
AcDbLine
 10
1207.554348839815
 20
1022.030745120869
 30
0.0
 11
1207.503558024533
 21
1022.027642763745
 31
0.0
  0
LINE
  5
5EA
330
22
100
AcDbEntity
  8
_2-7_ビス
  6
Continuous
 62
     7
100
AcDbLine
 10
1207.503558024533
 20
1022.027642763745
 30
0.0
 11
1207.454028840603
 21
1022.014890990374
 31
0.0
  0
LINE
  5
5EB
330
22
100
AcDbEntity
  8
_2-7_ビス
  6
Continuous
 62
     7
100
AcDbLine
 10
1207.454028840603
 20
1022.014890990374
 30
0.0
 11
1207.407266207212
 21
1021.992877256935
 31
0.0
  0
LINE
  5
5EC
330
22
100
AcDbEntity
  8
_2-7_ビス
  6
Continuous
 62
     7
100
AcDbLine
 10
1207.407266207212
 20
1021.992877256935
 30
0.0
 11
1207.364690983316
 21
1021.962270439582
 31
0.0
  0
LINE
  5
5ED
330
22
100
AcDbEntity
  8
_2-7_ビス
  6
Continuous
 62
     7
100
AcDbLine
 10
1207.364690983316
 20
1021.962270439582
 30
0.0
 11
1207.327596795548
 21
1021.924000510971
 31
0.0
  0
LINE
  5
5EE
330
22
100
AcDbEntity
  8
_2-7_ビス
  6
Continuous
 62
     7
100
AcDbLine
 10
1207.327596795548
 20
1021.924000510971
 30
0.0
 11
1207.297110732031
 21
1021.879230283518
 31
0.0
  0
LINE
  5
5EF
330
22
100
AcDbEntity
  8
_2-7_ビス
  6
Continuous
 62
     7
100
AcDbLine
 10
1207.297110732031
 20
1021.879230283518
 30
0.0
 11
1207.274159096381
 21
1021.829320077928
 31
0.0
  0
LINE
  5
5F0
330
22
100
AcDbEntity
  8
_2-7_ビス
  6
Continuous
 62
     7
100
AcDbLine
 10
1207.274159096381
 20
1021.829320077928
 30
0.0
 11
1207.259439262431
 21
1021.775786390544
 31
0.0
  0
LINE
  5
5F1
330
22
100
AcDbEntity
  8
_2-7_ビス
  6
Continuous
 62
     7
100
AcDbLine
 10
1207.259439262431
 20
1021.775786390544
 30
0.0
 11
1207.253398484888
 21
1021.720255815366
 31
0.0
  0
LINE
  5
5F2
330
22
100
AcDbEntity
  8
_2-7_ビス
  6
Continuous
 62
     7
100
AcDbLine
 10
1207.253398484888
 20
1021.720255815366
 30
0.0
 11
1207.253398484888
 21
1021.720255815366
 31
0.0
  0
TEXT
  5
5F3
330
22
100
AcDbEntity
  8
_2-A_MOJI
 62
     7
100
AcDbText
 10
1201.225281937719
 20
1248.072292305005
 30
0.0
 40
15.0
  1
プルーフシーラー
100
AcDbText
  0
TEXT
  5
5F4
330
22
100
AcDbEntity
  8
_2-A_MOJI
 62
     7
100
AcDbText
 10
1201.225281937719
 20
1273.072292305005
 30
0.0
 40
15.0
  1
塩ビシート 接着工法
100
AcDbText
  0
LINE
  5
5F5
330
22
100
AcDbEntity
  8
_2-A_MOJI
  6
Continuous
 62
     7
100
AcDbLine
 10
1191.225281937719
 20
1255.572292305005
 30
0.0
 11
1163.232178980671
 21
1255.572292305005
 31
0.0
  0
LINE
  5
5F6
330
22
100
AcDbEntity
  8
_2-A_MOJI
  6
Continuous
 62
     7
100
AcDbLine
 10
1059.606443877018
 20
1076.087254133803
 30
0.0
 11
1163.232178980671
 21
1255.572292305005
 31
0.0
  0
LINE
  5
5F7
330
22
100
AcDbEntity
  8
_2-A_MOJI
  6
Continuous
 62
     7
100
AcDbLine
 10
1191.225281937719
 20
1280.572292305005
 30
0.0
 11
1142.293723041752
 21
1280.572292305005
 31
0.0
  0
LINE
  5
5F8
330
22
100
AcDbEntity
  8
_2-A_MOJI
  6
Continuous
 62
     7
100
AcDbLine
 10
1017.897161339782
 20
1065.111127150321
 30
0.0
 11
1142.293723041752
 21
1280.572292305005
 31
0.0
  0
LINE
  5
5F9
330
22
100
AcDbEntity
  8
_2-A_MOJI
  6
Continuous
 62
     7
100
AcDbLine
 10
1284.586894975491
 20
1205.572292305005
 30
0.0
 11
1253.994186192713
 21
1205.572292305005
 31
0.0
  0
LINE
  5
5FA
330
22
100
AcDbEntity
  8
_2-A_MOJI
  6
Continuous
 62
     7
100
AcDbLine
 10
1176.790292499509
 20
1071.851225886229
 30
0.0
 11
1253.994186192713
 21
1205.572292305005
 31
0.0
  0
TEXT
  5
5FB
330
22
100
AcDbEntity
  8
_2-A_MOJI
 62
     7
100
AcDbText
 10
1294.586894975494
 20
1178.072292305005
 30
0.0
 40
15.0
  1
ＵＤ－１Ｎ
100
AcDbText
  0
TEXT
  5
5FC
330
22
100
AcDbEntity
  8
_2-A_MOJI
 62
     7
100
AcDbText
 10
1294.586894975494
 20
1198.072292305005
 30
0.0
 40
15.0
  1
ＵＤ－１ＰＶまたは、
100
AcDbText
  0
LINE
  5
5FD
330
22
100
AcDbEntity
  8
_F-7_
  6
Continuous
 62
     1
100
AcDbLine
 10
661.9466208676056
 20
132.7834136847667
 30
0.0
 11
1461.946620867603
 21
132.7834136847667
 31
0.0
  0
LINE
  5
5FE
330
22
100
AcDbEntity
  8
ADD_LINE
  6
DOT
 62
   136
100
AcDbLine
 10
661.9466208676056
 20
152.7834136847667
 30
0.0
 11
1461.946620867603
 21
152.7834136847667
 31
0.0
  0
LINE
  5
5FF
330
22
100
AcDbEntity
  8
_F-5_
  6
Continuous
 62
     6
100
AcDbLine
 10
661.9466208676056
 20
172.7834136847667
 30
0.0
 11
1461.946620867603
 21
172.7834136847667
 31
0.0
  0
LINE
  5
600
330
22
100
AcDbEntity
  8
ADD_LINE
  6
DOT
 62
   136
100
AcDbLine
 10
681.9466208676057
 20
172.7834136847667
 30
0.0
 11
681.9466208676057
 21
132.7834136847667
 31
0.0
  0
LINE
  5
601
330
22
100
AcDbEntity
  8
ADD_LINE
  6
DOT
 62
   136
100
AcDbLine
 10
816.9466208676057
 20
172.7834136847667
 30
0.0
 11
816.9466208676057
 21
132.7834136847667
 31
0.0
  0
TEXT
  5
602
330
22
100
AcDbEntity
  8
_F-A_
 62
     7
100
AcDbText
 10
816.9466208676057
 20
142.7834136847667
 30
0.0
 40
17.5
  1
下地：ＲＣ
100
AcDbText
  0
LINE
  5
603
330
22
100
AcDbEntity
  8
_F-5_
  6
Continuous
 62
     6
100
AcDbLine
 10
801.9466208676057
 20
172.7834136847667
 30
0.0
 11
801.9466208676057
 21
132.7834136847667
 31
0.0
  0
LINE
  5
604
330
22
100
AcDbEntity
  8
_F-5_
  6
Continuous
 62
     6
100
AcDbLine
 10
799.4466208676056
 20
172.7834136847667
 30
0.0
 11
799.4466208676056
 21
132.7834136847667
 31
0.0
  0
TEXT
  5
605
330
22
100
AcDbEntity
  8
_F-A_
 62
     7
100
AcDbText
 10
681.9466208676057
 20
142.7834136847667
 30
0.0
 40
20.0
  1
２１０仕様
100
AcDbText
  0
LINE
  5
606
330
22
100
AcDbEntity
  8
ADD_LINE
  6
DOT
 62
   136
100
AcDbLine
 10
1346.946620867603
 20
172.7834136847667
 30
0.0
 11
1346.946620867603
 21
132.7834136847667
 31
0.0
  0
LINE
  5
607
330
22
100
AcDbEntity
  8
_F-2_
  6
Continuous
 62
     7
100
AcDbLine
 10
1331.946620867603
 20
172.7834136847667
 30
0.0
 11
1331.946620867603
 21
132.7834136847667
 31
0.0
  0
LINE
  5
608
330
22
100
AcDbEntity
  8
ADD_LINE
  6
DOT
 62
   136
100
AcDbLine
 10
1241.946620867603
 20
172.7834136847667
 30
0.0
 11
1241.946620867603
 21
132.7834136847667
 31
0.0
  0
LINE
  5
609
330
22
100
AcDbEntity
  8
_F-2_
  6
Continuous
 62
     7
100
AcDbLine
 10
1226.946620867603
 20
172.7834136847667
 30
0.0
 11
1226.946620867603
 21
132.7834136847667
 31
0.0
  0
TEXT
  5
60A
330
22
100
AcDbEntity
  8
_F-A_
 62
     7
100
AcDbText
 10
1346.946620867603
 20
142.7834136847667
 30
0.0
 40
15.0
  1
図番
100
AcDbText
  0
TEXT
  5
60B
330
22
100
AcDbEntity
  8
_F-A_
 62
     7
100
AcDbText
 10
1241.946620867603
 20
142.7834136847667
 30
0.0
 40
15.0
  1
Ｓ＝１：５
100
AcDbText
  0
LINE
  5
60C
330
22
100
AcDbEntity
  8
_F-7_
  6
Continuous
 62
     1
100
AcDbLine
 10
661.9466208676056
 20
722.7834136847667
 30
0.0
 11
661.9466208676056
 21
132.7834136847667
 31
0.0
  0
LINE
  5
60D
330
22
100
AcDbEntity
  8
_F-7_
  6
Continuous
 62
     1
100
AcDbLine
 10
661.9466208676056
 20
722.7834136847667
 30
0.0
 11
1461.946620867603
 21
722.7834136847667
 31
0.0
  0
LINE
  5
60E
330
22
100
AcDbEntity
  8
_F-7_
  6
Continuous
 62
     1
100
AcDbLine
 10
1461.946620867603
 20
722.7834136847667
 30
0.0
 11
1461.946620867603
 21
132.7834136847667
 31
0.0
  0
LINE
  5
60F
330
22
100
AcDbEntity
  8
_0-3_
  6
Continuous
 62
     3
100
AcDbLine
 10
740.724520941691
 20
471.1986856728191
 30
0.0
 11
1066.99542185669
 21
558.6227100867831
 31
0.0
  0
ARC
  5
610
330
22
100
AcDbEntity
  8
_0-3_
  6
Continuous
 62
     3
100
AcDbCircle
 10
1050.12321492045
 20
513.6860904003356
 30
0.0
 40
26.04813850565934
100
AcDbArc
 50
3.069255559494497
 51
176.9307444405055
  0
LINE
  5
611
330
22
100
AcDbEntity
  8
_0-1_
  6
Continuous
 62
     4
100
AcDbLine
 10
1065.224824868509
 20
527.7769519158125
 30
0.0
 11
1065.163742857023
 21
527.7769519158125
 31
0.0
  0
LINE
  5
612
330
22
100
AcDbEntity
  8
_0-1_
  6
Continuous
 62
     4
100
AcDbLine
 10
1035.021697872789
 20
527.7769519158125
 30
0.0
 11
1035.082733434074
 21
527.7769519158125
 31
0.0
  0
ARC
  5
613
330
22
100
AcDbEntity
  8
_0-1_
  6
Continuous
 62
     4
100
AcDbCircle
 10
1065.163742857023
 20
527.0270599056226
 30
0.0
 40
0.7500001066993622
100
AcDbArc
 50
90.0
 51
183.0127868652344
  0
ARC
  5
614
330
22
100
AcDbEntity
  8
_0-1_
  6
Continuous
 62
     4
100
AcDbCircle
 10
1065.224824868509
 20
526.2769820946352
 30
0.0
 40
1.500000213398724
100
AcDbArc
 50
4.014175415039063
 51
90.0
  0
ARC
  5
615
330
22
100
AcDbEntity
  8
_0-1_
  6
Continuous
 62
     4
100
AcDbCircle
 10
1035.082733434074
 20
527.0270599056226
 30
0.0
 40
0.7500001066993622
100
AcDbArc
 50
356.9871978759766
 51
90.00000000000005
  0
ARC
  5
616
330
22
100
AcDbEntity
  8
_0-1_
  6
Continuous
 62
     4
100
AcDbCircle
 10
1035.021697872789
 20
526.2769820946352
 30
0.0
 40
1.500000213398724
100
AcDbArc
 50
90.0
 51
175.9858093261718
  0
LINE
  5
617
330
22
100
AcDbEntity
  8
_0-1_
  6
Continuous
 62
     4
100
AcDbLine
 10
1035.831696440289
 20
526.9874843362043
 30
0.0
 11
1034.313779236319
 21
498.1470574606976
 31
0.0
  0
LINE
  5
618
330
22
100
AcDbEntity
  8
_0-1_
  6
Continuous
 62
     4
100
AcDbLine
 10
1033.525351167119
 20
526.3819595440287
 30
0.0
 11
1031.587259383921
 21
498.7647936075347
 31
0.0
  0
LINE
  5
619
330
22
100
AcDbEntity
  8
_0-1_
  6
Continuous
 62
     4
100
AcDbLine
 10
1064.414779850812
 20
526.9874843362043
 30
0.0
 11
1065.932752801617
 21
498.1470774658203
 31
0.0
  0
LINE
  5
61A
330
22
100
AcDbEntity
  8
_0-1_
  6
Continuous
 62
     4
100
AcDbLine
 10
1066.721125123978
 20
526.3819595440287
 30
0.0
 11
1068.659216069467
 21
498.7648055445896
 31
0.0
  0
LINE
  5
61B
330
22
100
AcDbEntity
  8
_0-1_
  6
Continuous
 62
     4
100
AcDbLine
 10
1068.659216069465
 20
498.7648055445883
 30
0.0
 11
1068.659216069465
 21
498.7648055445883
 31
0.0
  0
LINE
  5
61C
330
22
100
AcDbEntity
  8
_0-1_
  6
Continuous
 62
     4
100
AcDbLine
 10
1068.659216069465
 20
498.7648055445883
 30
0.0
 11
1065.932752801618
 21
498.14707746582
 31
0.0
  0
LINE
  5
61D
330
22
100
AcDbEntity
  8
_0-1_
  6
Continuous
 62
     4
100
AcDbLine
 10
1060.192649965769
 20
497.2990403682011
 30
0.0
 11
1060.192649965769
 21
497.2990403682011
 31
0.0
  0
LINE
  5
61E
330
22
100
AcDbEntity
  8
_0-1_
  6
Continuous
 62
     4
100
AcDbLine
 10
1060.192649965769
 20
497.2990403682011
 30
0.0
 11
1055.952200875795
 21
496.9522220392422
 31
0.0
  0
LINE
  5
61F
330
22
100
AcDbEntity
  8
_0-1_
  6
Continuous
 62
     4
100
AcDbLine
 10
1055.952200875795
 20
496.9522220392422
 30
0.0
 11
1053.837335796336
 21
496.8520982525505
 31
0.0
  0
LINE
  5
620
330
22
100
AcDbEntity
  8
_0-1_
  6
Continuous
 62
     4
100
AcDbLine
 10
1046.409200212537
 20
496.8520943712068
 30
0.0
 11
1046.409200212537
 21
496.8520943712068
 31
0.0
  0
LINE
  5
621
330
22
100
AcDbEntity
  8
_0-1_
  6
Continuous
 62
     4
100
AcDbLine
 10
1046.409200212537
 20
496.8520943712068
 30
0.0
 11
1042.066888608202
 21
497.1088601219513
 31
0.0
  0
LINE
  5
622
330
22
100
AcDbEntity
  8
_0-1_
  6
Continuous
 62
     4
100
AcDbLine
 10
1042.066888608202
 20
497.1088601219513
 30
0.0
 11
1040.053826152139
 21
497.2990354321354
 31
0.0
  0
LINE
  5
623
330
22
100
AcDbEntity
  8
_0-1_
  6
Continuous
 62
     4
100
AcDbLine
 10
1034.313779236319
 20
498.1470574606974
 30
0.0
 11
1034.313779236319
 21
498.1470574606974
 31
0.0
  0
LINE
  5
624
330
22
100
AcDbEntity
  8
_0-1_
  6
Continuous
 62
     4
100
AcDbLine
 10
1034.313779236319
 20
498.1470574606974
 30
0.0
 11
1031.587259383923
 21
498.7647936075352
 31
0.0
  0
LINE
  5
625
330
22
100
AcDbEntity
  8
_0-1_
  6
Continuous
 62
     4
100
AcDbLine
 10
1033.783532654844
 20
486.4512445983196
 30
0.0
 11
1033.783532654844
 21
486.4512445983196
 31
0.0
  0
LINE
  5
626
330
22
100
AcDbEntity
  8
_0-1_
  6
Continuous
 62
     4
100
AcDbLine
 10
1033.783532654844
 20
486.4512445983196
 30
0.0
 11
1030.87823328526
 21
487.1751421736306
 31
0.0
  0
LINE
  5
627
330
22
100
AcDbEntity
  8
_0-1_
  6
Continuous
 62
     4
100
AcDbLine
 10
1046.299337142396
 20
484.8979902587949
 30
0.0
 11
1046.299337142396
 21
484.8979902587949
 31
0.0
  0
LINE
  5
628
330
22
100
AcDbEntity
  8
_0-1_
  6
Continuous
 62
     4
100
AcDbLine
 10
1046.299337142396
 20
484.8979902587949
 30
0.0
 11
1041.159979055845
 21
485.2787506236828
 31
0.0
  0
LINE
  5
629
330
22
100
AcDbEntity
  8
_0-1_
  6
Continuous
 62
     4
100
AcDbLine
 10
1041.159979055845
 20
485.2787506236828
 30
0.0
 11
1039.702416046509
 21
485.4470706586871
 31
0.0
  0
LINE
  5
62A
330
22
100
AcDbEntity
  8
_0-1_
  6
Continuous
 62
     4
100
AcDbLine
 10
1060.543967508294
 20
485.4470648614559
 30
0.0
 11
1060.543967508294
 21
485.4470648614559
 31
0.0
  0
LINE
  5
62B
330
22
100
AcDbEntity
  8
_0-1_
  6
Continuous
 62
     4
100
AcDbLine
 10
1060.543967508294
 20
485.4470648614559
 30
0.0
 11
1055.468340856201
 21
484.9776061683386
 31
0.0
  0
LINE
  5
62C
330
22
100
AcDbEntity
  8
_0-1_
  6
Continuous
 62
     4
100
AcDbLine
 10
1055.468340856201
 20
484.9776061683386
 30
0.0
 11
1053.94704626617
 21
484.8979882398288
 31
0.0
  0
LINE
  5
62D
330
22
100
AcDbEntity
  8
_0-3_
  6
Continuous
 62
     3
100
AcDbLine
 10
1033.25100798421
 20
302.3084396337623
 30
0.0
 11
1359.521908899117
 21
389.7324640476904
 31
0.0
  0
LINE
  5
62E
330
22
100
AcDbEntity
  8
_0-3_
  6
Continuous
 62
     3
100
AcDbLine
 10
1033.25100798421
 20
302.3084396337623
 30
0.0
 11
740.724520941691
 21
471.1986856728191
 31
0.0
  0
LINE
  5
62F
330
22
100
AcDbEntity
  8
_0-3_
  6
Continuous
 62
     3
100
AcDbLine
 10
1359.521908899117
 20
389.7324640476904
 30
0.0
 11
1066.99542185669
 21
558.6227100867831
 31
0.0
  0
LINE
  5
630
330
22
100
AcDbEntity
  8
_0-3_
  6
Continuous
 62
     3
100
AcDbLine
 10
1355.165937945469
 20
388.5652851484071
 30
0.0
 11
1066.99542185669
 21
554.9406101848336
 31
0.0
  0
LINE
  5
631
330
22
100
AcDbEntity
  8
_0-3_
  6
Continuous
 62
     3
100
AcDbLine
 10
1066.99542185669
 20
558.6227100867831
 30
0.0
 11
1066.99542185669
 21
554.9406101848336
 31
0.0
  0
LINE
  5
632
330
22
100
AcDbEntity
  8
_0-3_
  6
Continuous
 62
     3
100
AcDbLine
 10
745.0804918953349
 20
468.6837646701514
 30
0.0
 11
1066.99542185669
 21
554.9406101848336
 31
0.0
  0
LINE
  5
633
330
22
100
AcDbEntity
  8
_0-1_
  6
DASHED1
 62
     4
100
AcDbLine
 10
1029.814417496551
 20
276.2049433029665
 30
0.0
 11
677.705106074608
 21
479.4953490366009
 31
0.0
  0
LINE
  5
634
330
22
100
AcDbEntity
  8
_0-1_
  6
DASHED1
 62
     4
100
AcDbLine
 10
1422.541218159881
 20
381.4357723867693
 30
0.0
 11
1029.814417496551
 21
276.2049433029665
 31
0.0
  0
LINE
  5
635
330
22
100
AcDbEntity
  8
_0-1_
  6
DASHED1
 62
     4
100
AcDbLine
 10
1422.541218159881
 20
381.4357723867693
 30
0.0
 11
1070.431906737921
 21
584.7261781203984
 31
0.0
  0
LINE
  5
636
330
22
100
AcDbEntity
  8
_0-1_
  6
DASHED1
 62
     4
100
AcDbLine
 10
1070.431906737921
 20
584.7261781203984
 30
0.0
 11
677.705106074608
 21
479.4953490366009
 31
0.0
  0
LINE
  5
637
330
22
100
AcDbEntity
  8
_0-1_
  6
Continuous
 62
     4
100
AcDbLine
 10
1069.368156385232
 20
487.1751308520262
 30
0.0
 11
1069.368156385232
 21
487.1751308520262
 31
0.0
  0
LINE
  5
638
330
22
100
AcDbEntity
  8
_0-1_
  6
Continuous
 62
     4
100
AcDbLine
 10
1069.368156385232
 20
487.1751308520262
 30
0.0
 11
1066.462845069931
 21
486.451233172989
 31
0.0
  0
LINE
  5
639
330
22
100
AcDbEntity
  8
_0-1_
  6
Continuous
 62
     4
100
AcDbLine
 10
1075.164433664029
 20
489.355179494274
 30
0.0
 11
1075.164433664029
 21
489.355179494274
 31
0.0
  0
LINE
  5
63A
330
22
100
AcDbEntity
  8
_0-1_
  6
Continuous
 62
     4
100
AcDbLine
 10
1075.164433664029
 20
489.355179494274
 30
0.0
 11
1073.33783449833
 21
488.524410835494
 31
0.0
  0
LINE
  5
63B
330
22
100
AcDbEntity
  8
_0-1_
  6
Continuous
 62
     4
100
AcDbLine
 10
1026.90859534257
 20
488.524410835494
 30
0.0
 11
1026.90859534257
 21
488.524410835494
 31
0.0
  0
LINE
  5
63C
330
22
100
AcDbEntity
  8
_0-1_
  6
Continuous
 62
     4
100
AcDbLine
 10
1026.90859534257
 20
488.524410835494
 30
0.0
 11
1025.081996176871
 21
489.355179494274
 31
0.0
  0
LINE
  5
63D
330
22
100
AcDbEntity
  8
_0-1_
  6
Continuous
 62
     4
100
AcDbLine
 10
1055.336840793984
 20
533.4100295715211
 30
0.0
 11
1054.849113706086
 21
533.4100295715211
 31
0.0
  0
LINE
  5
63E
330
22
100
AcDbEntity
  8
_0-1_
  6
Continuous
 62
     4
100
AcDbLine
 10
1044.578277987954
 20
533.4100295715211
 30
0.0
 11
1045.06600507585
 21
533.4100295715211
 31
0.0
  0
ARC
  5
63F
330
22
100
AcDbEntity
  8
_0-1_
  6
Continuous
 62
     4
100
AcDbCircle
 10
1054.849113706086
 20
531.910059750344
 30
0.0
 40
1.500000213398724
100
AcDbArc
 50
90.0
 51
180.6282043457031
  0
ARC
  5
640
330
22
100
AcDbEntity
  8
_0-1_
  6
Continuous
 62
     4
100
AcDbCircle
 10
1055.336840793984
 20
529.6600121181756
 30
0.0
 40
3.750000397412243
100
AcDbArc
 50
2.009552001953125
 51
90.0
  0
ARC
  5
641
330
22
100
AcDbEntity
  8
_0-1_
  6
Continuous
 62
     4
100
AcDbCircle
 10
1045.06600507585
 20
531.910059750344
 30
0.0
 40
1.500000213398724
100
AcDbArc
 50
359.3717803955078
 51
90.00000000000005
  0
ARC
  5
642
330
22
100
AcDbEntity
  8
_0-1_
  6
Continuous
 62
     4
100
AcDbCircle
 10
1044.578277987954
 20
529.6600121181756
 30
0.0
 40
3.750000397412243
100
AcDbArc
 50
90.0
 51
177.9904327392578
  0
LINE
  5
643
330
22
100
AcDbEntity
  8
_0-1_
  6
Continuous
 62
     4
100
AcDbLine
 10
1040.830583044552
 20
529.7915590813135
 30
0.0
 11
1040.053826152139
 21
497.2990354321353
 31
0.0
  0
LINE
  5
644
330
22
100
AcDbEntity
  8
_0-1_
  6
Continuous
 62
     4
100
AcDbLine
 10
1046.565928446829
 20
531.8937092803492
 30
0.0
 11
1046.409200212537
 21
496.8520943712065
 31
0.0
  0
LINE
  5
645
330
22
100
AcDbEntity
  8
_0-1_
  6
Continuous
 62
     4
100
AcDbLine
 10
1053.349190335106
 20
531.8937092803492
 30
0.0
 11
1053.837335796336
 21
496.8520982525502
 31
0.0
  0
LINE
  5
646
330
22
100
AcDbEntity
  8
_0-1_
  6
Continuous
 62
     4
100
AcDbLine
 10
1059.084535737386
 20
529.7915590813135
 30
0.0
 11
1060.192649965768
 21
497.2990403682001
 31
0.0
  0
LINE
  5
647
330
22
100
AcDbEntity
  8
_0-1_
  6
Continuous
 62
     4
100
AcDbLine
 10
1077.578119533153
 20
503.1682659191023
 30
0.0
 11
1077.578119533153
 21
503.1682659191023
 31
0.0
  0
LINE
  5
648
330
22
100
AcDbEntity
  8
_0-1_
  6
Continuous
 62
     4
100
AcDbLine
 10
1077.578119533153
 20
503.1682659191023
 30
0.0
 11
1077.161017841251
 21
501.7380176728977
 31
0.0
  0
LINE
  5
649
330
22
100
AcDbEntity
  8
_0-1_
  6
Continuous
 62
     4
100
AcDbLine
 10
1077.161017841251
 20
501.7380176728977
 30
0.0
 11
1075.922386189389
 21
500.3512267959134
 31
0.0
  0
LINE
  5
64A
330
22
100
AcDbEntity
  8
_0-1_
  6
Continuous
 62
     4
100
AcDbLine
 10
1075.922386189389
 20
500.3512267959134
 30
0.0
 11
1073.89985977353
 21
499.0500302271967
 31
0.0
  0
LINE
  5
64B
330
22
100
AcDbEntity
  8
_0-1_
  6
Continuous
 62
     4
100
AcDbLine
 10
1073.89985977353
 20
499.0500302271967
 30
0.0
 11
1071.154892035373
 21
497.8739641660506
 31
0.0
  0
LINE
  5
64C
330
22
100
AcDbEntity
  8
_0-1_
  6
Continuous
 62
     4
100
AcDbLine
 10
1071.154892035373
 20
497.8739641660506
 30
0.0
 11
1067.770887430621
 21
496.8587627846253
 31
0.0
  0
LINE
  5
64D
330
22
100
AcDbEntity
  8
_0-1_
  6
Continuous
 62
     4
100
AcDbLine
 10
1067.770887430621
 20
496.8587627846253
 30
0.0
 11
1063.850667226802
 21
496.0352724631783
 31
0.0
  0
LINE
  5
64E
330
22
100
AcDbEntity
  8
_0-1_
  6
Continuous
 62
     4
100
AcDbLine
 10
1063.850667226802
 20
496.0352724631783
 30
0.0
 11
1059.513345331079
 21
495.4285145384206
 31
0.0
  0
LINE
  5
64F
330
22
100
AcDbEntity
  8
_0-1_
  6
Continuous
 62
     4
100
AcDbLine
 10
1059.513345331079
 20
495.4285145384206
 30
0.0
 11
1054.890709074465
 21
495.0569250428619
 31
0.0
  0
LINE
  5
650
330
22
100
AcDbEntity
  8
_0-1_
  6
Continuous
 62
     4
100
AcDbLine
 10
1054.890709074465
 20
495.0569250428619
 30
0.0
 11
1050.12321492045
 21
494.9317945352912
 31
0.0
  0
LINE
  5
651
330
22
100
AcDbEntity
  8
_0-1_
  6
Continuous
 62
     4
100
AcDbLine
 10
1050.12321492045
 20
494.9317945352912
 30
0.0
 11
1045.355720766434
 21
495.0569250428619
 31
0.0
  0
LINE
  5
652
330
22
100
AcDbEntity
  8
_0-1_
  6
Continuous
 62
     4
100
AcDbLine
 10
1045.355720766434
 20
495.0569250428619
 30
0.0
 11
1040.73308450982
 21
495.4285145384206
 31
0.0
  0
LINE
  5
653
330
22
100
AcDbEntity
  8
_0-1_
  6
Continuous
 62
     4
100
AcDbLine
 10
1040.73308450982
 20
495.4285145384206
 30
0.0
 11
1036.395762614098
 21
496.0352724631783
 31
0.0
  0
LINE
  5
654
330
22
100
AcDbEntity
  8
_0-1_
  6
Continuous
 62
     4
100
AcDbLine
 10
1036.395762614098
 20
496.0352724631783
 30
0.0
 11
1032.475542410278
 21
496.8587627846253
 31
0.0
  0
LINE
  5
655
330
22
100
AcDbEntity
  8
_0-1_
  6
Continuous
 62
     4
100
AcDbLine
 10
1032.475542410278
 20
496.8587627846253
 30
0.0
 11
1029.091537805526
 21
497.8739641660506
 31
0.0
  0
LINE
  5
656
330
22
100
AcDbEntity
  8
_0-1_
  6
Continuous
 62
     4
100
AcDbLine
 10
1029.091537805526
 20
497.8739641660506
 30
0.0
 11
1026.346570067369
 21
499.0500302271967
 31
0.0
  0
LINE
  5
657
330
22
100
AcDbEntity
  8
_0-1_
  6
Continuous
 62
     4
100
AcDbLine
 10
1026.346570067369
 20
499.0500302271967
 30
0.0
 11
1024.324043651511
 21
500.3512267959134
 31
0.0
  0
LINE
  5
658
330
22
100
AcDbEntity
  8
_0-1_
  6
Continuous
 62
     4
100
AcDbLine
 10
1024.324043651511
 20
500.3512267959134
 30
0.0
 11
1023.085411999648
 21
501.7380176728976
 31
0.0
  0
LINE
  5
659
330
22
100
AcDbEntity
  8
_0-1_
  6
Continuous
 62
     4
100
AcDbLine
 10
1023.085411999648
 20
501.7380176728976
 30
0.0
 11
1022.668310307746
 21
503.1682659191023
 31
0.0
  0
LINE
  5
65A
330
22
100
AcDbEntity
  8
_0-1_
  6
Continuous
 62
     4
100
AcDbLine
 10
1022.668310307746
 20
503.1682659191023
 30
0.0
 11
1022.668310307746
 21
503.1682659191142
 31
0.0
  0
LINE
  5
65B
330
22
100
AcDbEntity
  8
_0-1_
  6
Continuous
 62
     4
100
AcDbLine
 10
1078.558035122227
 20
495.0850213744565
 30
0.0
 11
1078.558035122227
 21
495.0850213744565
 31
0.0
  0
LINE
  5
65C
330
22
100
AcDbEntity
  8
_0-1_
  6
Continuous
 62
     4
100
AcDbLine
 10
1078.558035122227
 20
495.0850213744565
 30
0.0
 11
1078.126046310668
 21
493.6037249613589
 31
0.0
  0
LINE
  5
65D
330
22
100
AcDbEntity
  8
_0-1_
  6
Continuous
 62
     4
100
AcDbLine
 10
1078.126046310668
 20
493.6037249613589
 30
0.0
 11
1076.843205637434
 21
492.167436990201
 31
0.0
  0
LINE
  5
65E
330
22
100
AcDbEntity
  8
_0-1_
  6
Continuous
 62
     4
100
AcDbLine
 10
1076.843205637434
 20
492.167436990201
 30
0.0
 11
1074.748491567232
 21
490.8197983441898
 31
0.0
  0
LINE
  5
65F
330
22
100
AcDbEntity
  8
_0-1_
  6
Continuous
 62
     4
100
AcDbLine
 10
1074.748491567232
 20
490.8197983441898
 30
0.0
 11
1071.905550927108
 21
489.6017563416463
 31
0.0
  0
LINE
  5
660
330
22
100
AcDbEntity
  8
_0-1_
  6
Continuous
 62
     4
100
AcDbLine
 10
1071.905550927108
 20
489.6017563416463
 30
0.0
 11
1068.400765029817
 21
488.5503205724588
 31
0.0
  0
LINE
  5
661
330
22
100
AcDbEntity
  8
_0-1_
  6
Continuous
 62
     4
100
AcDbLine
 10
1068.400765029817
 20
488.5503205724588
 30
0.0
 11
1064.340625021338
 21
487.6974383804218
 31
0.0
  0
LINE
  5
662
330
22
100
AcDbEntity
  8
_0-1_
  6
Continuous
 62
     4
100
AcDbLine
 10
1064.340625021338
 20
487.6974383804218
 30
0.0
 11
1059.848496201301
 21
487.0690241593613
 31
0.0
  0
LINE
  5
663
330
22
100
AcDbEntity
  8
_0-1_
  6
Continuous
 62
     4
100
AcDbLine
 10
1059.848496201301
 20
487.0690241593613
 30
0.0
 11
1055.060869630775
 21
486.684171957391
 31
0.0
  0
LINE
  5
664
330
22
100
AcDbEntity
  8
_0-1_
  6
Continuous
 62
     4
100
AcDbLine
 10
1055.060869630775
 20
486.684171957391
 30
0.0
 11
1050.12321492045
 21
486.5545753139233
 31
0.0
  0
LINE
  5
665
330
22
100
AcDbEntity
  8
_0-1_
  6
Continuous
 62
     4
100
AcDbLine
 10
1050.12321492045
 20
486.5545753139233
 30
0.0
 11
1045.185560210124
 21
486.684171957391
 31
0.0
  0
LINE
  5
666
330
22
100
AcDbEntity
  8
_0-1_
  6
Continuous
 62
     4
100
AcDbLine
 10
1045.185560210124
 20
486.684171957391
 30
0.0
 11
1040.397933639598
 21
487.0690241593613
 31
0.0
  0
LINE
  5
667
330
22
100
AcDbEntity
  8
_0-1_
  6
Continuous
 62
     4
100
AcDbLine
 10
1040.397933639598
 20
487.0690241593613
 30
0.0
 11
1035.905804819561
 21
487.6974383804218
 31
0.0
  0
LINE
  5
668
330
22
100
AcDbEntity
  8
_0-1_
  6
Continuous
 62
     4
100
AcDbLine
 10
1035.905804819561
 20
487.6974383804218
 30
0.0
 11
1031.845664811083
 21
488.5503205724588
 31
0.0
  0
LINE
  5
669
330
22
100
AcDbEntity
  8
_0-1_
  6
Continuous
 62
     4
100
AcDbLine
 10
1031.845664811083
 20
488.5503205724588
 30
0.0
 11
1028.340878913791
 21
489.6017563416463
 31
0.0
  0
LINE
  5
66A
330
22
100
AcDbEntity
  8
_0-1_
  6
Continuous
 62
     4
100
AcDbLine
 10
1028.340878913791
 20
489.6017563416463
 30
0.0
 11
1025.497938273668
 21
490.8197983441898
 31
0.0
  0
LINE
  5
66B
330
22
100
AcDbEntity
  8
_0-1_
  6
Continuous
 62
     4
100
AcDbLine
 10
1025.497938273668
 20
490.8197983441898
 30
0.0
 11
1023.403224203466
 21
492.167436990201
 31
0.0
  0
LINE
  5
66C
330
22
100
AcDbEntity
  8
_0-1_
  6
Continuous
 62
     4
100
AcDbLine
 10
1023.403224203466
 20
492.167436990201
 30
0.0
 11
1022.120383530232
 21
493.6037249613588
 31
0.0
  0
LINE
  5
66D
330
22
100
AcDbEntity
  8
_0-1_
  6
Continuous
 62
     4
100
AcDbLine
 10
1022.120383530232
 20
493.6037249613588
 30
0.0
 11
1021.688394718673
 21
495.0850213744496
 31
0.0
  0
LINE
  5
66E
330
22
100
AcDbEntity
  8
_0-3_
  6
Continuous
 62
     3
100
AcDbLine
 10
1015.927237282496
 20
447.5616990228082
 30
0.0
 11
1024.112441302179
 21
515.0807858470568
 31
0.0
  0
LINE
  5
66F
330
22
100
AcDbEntity
  8
_0-1_
  6
Continuous
 62
     4
100
AcDbLine
 10
1020.841444993605
 20
443.0554424149784
 30
0.0
 11
1025.08199617687
 21
489.3551794942737
 31
0.0
  0
LINE
  5
670
330
22
100
AcDbEntity
  8
_0-1_
  6
Continuous
 62
     4
100
AcDbLine
 10
1022.617188552914
 20
441.3581029707945
 30
0.0
 11
1026.90859534257
 21
488.5244108354942
 31
0.0
  0
LINE
  5
671
330
22
100
AcDbEntity
  8
_0-1_
  6
Continuous
 62
     4
100
AcDbLine
 10
1020.841444993604
 20
443.0554424149784
 30
0.0
 11
1020.841444993604
 21
443.0554424149784
 31
0.0
  0
LINE
  5
672
330
22
100
AcDbEntity
  8
_0-1_
  6
Continuous
 62
     4
100
AcDbLine
 10
1020.841444993604
 20
443.0554424149784
 30
0.0
 11
1022.617188552914
 21
441.3581029707944
 31
0.0
  0
LINE
  5
673
330
22
100
AcDbEntity
  8
_0-1_
  6
Continuous
 62
     4
100
AcDbLine
 10
1028.095950691815
 20
438.1676356027116
 30
0.0
 11
1030.87823328526
 21
487.1751421736308
 31
0.0
  0
LINE
  5
674
330
22
100
AcDbEntity
  8
_0-1_
  6
Continuous
 62
     4
100
AcDbLine
 10
1028.095950691815
 20
438.167635602712
 30
0.0
 11
1028.095950691815
 21
438.167635602712
 31
0.0
  0
LINE
  5
675
330
22
100
AcDbEntity
  8
_0-1_
  6
Continuous
 62
     4
100
AcDbLine
 10
1028.095950691815
 20
438.167635602712
 30
0.0
 11
1031.670275838158
 21
436.83754777333
 31
0.0
  0
LINE
  5
676
330
22
100
AcDbEntity
  8
_0-1_
  6
Continuous
 62
     4
100
AcDbLine
 10
1031.670275838158
 20
436.8375477733303
 30
0.0
 11
1033.783532654845
 21
486.45124459832
 31
0.0
  0
LINE
  5
677
330
22
100
AcDbEntity
  8
_0-1_
  6
Continuous
 62
     4
100
AcDbLine
 10
1038.280787940038
 20
435.2253649215476
 30
0.0
 11
1039.702416046509
 21
485.4470706586869
 31
0.0
  0
LINE
  5
678
330
22
100
AcDbEntity
  8
_0-1_
  6
Continuous
 62
     4
100
AcDbLine
 10
1038.280787940038
 20
435.225364921548
 30
0.0
 11
1038.280787940038
 21
435.225364921548
 31
0.0
  0
LINE
  5
679
330
22
100
AcDbEntity
  8
_0-1_
  6
Continuous
 62
     4
100
AcDbLine
 10
1038.280787940038
 20
435.225364921548
 30
0.0
 11
1043.489594462606
 21
434.5197262122797
 31
0.0
  0
LINE
  5
67A
330
22
100
AcDbEntity
  8
_0-1_
  6
Continuous
 62
     4
100
AcDbLine
 10
1043.489594462606
 20
434.5197262122797
 30
0.0
 11
1045.851973751239
 21
434.3370804176733
 31
0.0
  0
LINE
  5
67B
330
22
100
AcDbEntity
  8
_0-1_
  6
Continuous
 62
     4
100
AcDbLine
 10
1045.851973751239
 20
434.3370804176731
 30
0.0
 11
1046.299337142396
 21
484.897990258795
 31
0.0
  0
LINE
  5
67C
330
22
100
AcDbEntity
  8
_0-1_
  6
Continuous
 62
     4
100
AcDbLine
 10
1054.394409664176
 20
434.3370776248923
 30
0.0
 11
1053.94704626617
 21
484.8979882398294
 31
0.0
  0
LINE
  5
67D
330
22
100
AcDbEntity
  8
_0-1_
  6
Continuous
 62
     4
100
AcDbLine
 10
1054.394409664176
 20
434.3370776248924
 30
0.0
 11
1054.394409664176
 21
434.3370776248924
 31
0.0
  0
LINE
  5
67E
330
22
100
AcDbEntity
  8
_0-1_
  6
Continuous
 62
     4
100
AcDbLine
 10
1054.394409664176
 20
434.3370776248924
 30
0.0
 11
1059.711761657145
 21
434.866410000863
 31
0.0
  0
LINE
  5
67F
330
22
100
AcDbEntity
  8
_0-1_
  6
Continuous
 62
     4
100
AcDbLine
 10
1059.711761657145
 20
434.866410000863
 30
0.0
 11
1061.965595684194
 21
435.2253566714769
 31
0.0
  0
LINE
  5
680
330
22
100
AcDbEntity
  8
_0-1_
  6
Continuous
 62
     4
100
AcDbLine
 10
1061.965595684195
 20
435.2253566714762
 30
0.0
 11
1060.543967508294
 21
485.4470648614562
 31
0.0
  0
LINE
  5
681
330
22
100
AcDbEntity
  8
_0-1_
  6
Continuous
 62
     4
100
AcDbLine
 10
1068.576066698238
 20
436.8375199399292
 30
0.0
 11
1066.462845069931
 21
486.451233172989
 31
0.0
  0
LINE
  5
682
330
22
100
AcDbEntity
  8
_0-1_
  6
Continuous
 62
     4
100
AcDbLine
 10
1068.576066698238
 20
436.8375199399292
 30
0.0
 11
1068.576066698238
 21
436.8375199399292
 31
0.0
  0
LINE
  5
683
330
22
100
AcDbEntity
  8
_0-1_
  6
Continuous
 62
     4
100
AcDbLine
 10
1068.576066698238
 20
436.8375199399292
 30
0.0
 11
1072.150473962947
 21
438.1676333584291
 31
0.0
  0
LINE
  5
684
330
22
100
AcDbEntity
  8
_0-1_
  6
Continuous
 62
     4
100
AcDbLine
 10
1072.150473962946
 20
438.1676333584294
 30
0.0
 11
1069.368156385232
 21
487.1751308520248
 31
0.0
  0
LINE
  5
685
330
22
100
AcDbEntity
  8
_0-1_
  6
Continuous
 62
     4
100
AcDbLine
 10
1077.629241287985
 20
441.3581029707945
 30
0.0
 11
1073.337834498329
 21
488.5244108354942
 31
0.0
  0
LINE
  5
686
330
22
100
AcDbEntity
  8
_0-1_
  6
Continuous
 62
     4
100
AcDbLine
 10
1077.629241287986
 20
441.3581029707944
 30
0.0
 11
1077.629241287986
 21
441.3581029707944
 31
0.0
  0
LINE
  5
687
330
22
100
AcDbEntity
  8
_0-1_
  6
Continuous
 62
     4
100
AcDbLine
 10
1077.629241287986
 20
441.3581029707944
 30
0.0
 11
1079.404984847295
 21
443.0554424149784
 31
0.0
  0
LINE
  5
688
330
22
100
AcDbEntity
  8
_0-1_
  6
Continuous
 62
     4
100
AcDbLine
 10
1079.404984847295
 20
443.0554424149784
 30
0.0
 11
1075.16443366403
 21
489.3551794942737
 31
0.0
  0
LINE
  5
689
330
22
100
AcDbEntity
  8
_0-3_
  6
Continuous
 62
     3
100
AcDbLine
 10
1083.994941185765
 20
450.2364224053151
 30
0.0
 11
1076.13398853872
 21
515.0807858470568
 31
0.0
  0
LINE
  5
68A
330
22
100
AcDbEntity
  8
_0-2_
  6
DASHED2
 62
     7
100
AcDbLine
 10
1375.471850222252
 20
509.4576643936575
 30
0.0
 11
1375.471850222252
 21
509.4576643936575
 31
0.0
  0
LINE
  5
68B
330
22
100
AcDbEntity
  8
_0-2_
  6
DASHED2
 62
     7
100
AcDbLine
 10
1375.471850222252
 20
509.4576643936575
 30
0.0
 11
1374.552279799808
 21
512.9024191914306
 31
0.0
  0
LINE
  5
68C
330
22
100
AcDbEntity
  8
_0-2_
  6
DASHED2
 62
     7
100
AcDbLine
 10
1374.552279799808
 20
512.9024191914306
 30
0.0
 11
1372.450328932059
 21
516.2149995594567
 31
0.0
  0
LINE
  5
68D
330
22
100
AcDbEntity
  8
_0-2_
  6
DASHED2
 62
     7
100
AcDbLine
 10
1372.450328932059
 20
516.2149995594567
 30
0.0
 11
1369.229864332483
 21
519.2947544195
 31
0.0
  0
LINE
  5
68E
330
22
100
AcDbEntity
  8
_0-2_
  6
DASHED2
 62
     7
100
AcDbLine
 10
1369.229864332483
 20
519.2947544195
 30
0.0
 11
1364.988738188305
 21
522.0481069785689
 31
0.0
  0
LINE
  5
68F
330
22
100
AcDbEntity
  8
_0-2_
  6
DASHED2
 62
     7
100
AcDbLine
 10
1364.988738188305
 20
522.0481069785689
 30
0.0
 11
1359.855814971302
 21
524.3913980124199
 31
0.0
  0
LINE
  5
690
330
22
100
AcDbEntity
  8
_0-2_
  6
DASHED2
 62
     7
100
AcDbLine
 10
1359.855814971302
 20
524.3913980124199
 30
0.0
 11
1353.987055956037
 21
526.253427808752
 31
0.0
  0
LINE
  5
691
330
22
100
AcDbEntity
  8
_0-2_
  6
DASHED2
 62
     7
100
AcDbLine
 10
1353.987055956037
 20
526.253427808752
 30
0.0
 11
1347.560780415456
 21
527.5776195344361
 31
0.0
  0
LINE
  5
692
330
22
100
AcDbEntity
  8
_0-2_
  6
DASHED2
 62
     7
100
AcDbLine
 10
1347.560780415456
 20
527.5776195344361
 30
0.0
 11
1340.772247480005
 21
528.3237382939606
 31
0.0
  0
LINE
  5
693
330
22
100
AcDbEntity
  8
_0-2_
  6
DASHED2
 62
     7
100
AcDbLine
 10
1340.772247480005
 20
528.3237382939606
 30
0.0
 11
1333.827723287765
 21
528.4691136463717
 31
0.0
  0
LINE
  5
694
330
22
100
AcDbEntity
  8
_0-2_
  6
DASHED2
 62
     7
100
AcDbLine
 10
1333.827723287765
 20
528.4691136463717
 30
0.0
 11
1326.938213692218
 21
528.0093284351498
 31
0.0
  0
LINE
  5
695
330
22
100
AcDbEntity
  8
_0-2_
  6
DASHED2
 62
     7
100
AcDbLine
 10
1326.938213692218
 20
528.0093284351498
 30
0.0
 11
1320.313052956166
 21
526.9583530012754
 31
0.0
  0
LINE
  5
696
330
22
100
AcDbEntity
  8
_0-2_
  6
DASHED2
 62
     7
100
AcDbLine
 10
1320.313052956166
 20
526.9583530012754
 30
0.0
 11
1314.153543236079
 21
525.3481207014877
 31
0.0
  0
LINE
  5
697
330
22
100
AcDbEntity
  8
_0-2_
  6
DASHED2
 62
     7
100
AcDbLine
 10
1314.153543236079
 20
525.3481207014877
 30
0.0
 11
1308.646838117942
 21
523.2275576293984
 31
0.0
  0
LINE
  5
698
330
22
100
AcDbEntity
  8
_0-2_
  6
DASHED2
 62
     7
100
AcDbLine
 10
1308.646838117942
 20
523.2275576293984
 30
0.0
 11
1303.960256050239
 21
520.6610960208968
 31
0.0
  0
LINE
  5
699
330
22
100
AcDbEntity
  8
_0-2_
  6
DASHED2
 62
     7
100
AcDbLine
 10
1303.960256050239
 20
520.6610960208968
 30
0.0
 11
1300.236196457575
 21
517.7267165132645
 31
0.0
  0
LINE
  5
69A
330
22
100
AcDbEntity
  8
_0-2_
  6
DASHED2
 62
     7
100
AcDbLine
 10
1300.236196457575
 20
517.7267165132645
 30
0.0
 11
1297.587813006207
 21
514.5135787429738
 31
0.0
  0
LINE
  5
69B
330
22
100
AcDbEntity
  8
_0-2_
  6
DASHED2
 62
     7
100
AcDbLine
 10
1297.587813006207
 20
514.5135787429738
 30
0.0
 11
1296.095575487158
 21
511.1193122752482
 31
0.0
  0
LINE
  5
69C
330
22
100
AcDbEntity
  8
_0-2_
  6
DASHED2
 62
     7
100
AcDbLine
 10
1296.095575487158
 20
511.1193122752482
 30
0.0
 11
1295.804824782336
 21
507.6470501791283
 31
0.0
  0
LINE
  5
69D
330
22
100
AcDbEntity
  8
_0-2_
  6
DASHED2
 62
     7
100
AcDbLine
 10
1295.804824782336
 20
507.6470501791283
 30
0.0
 11
1296.72439520478
 21
504.2022953813551
 31
0.0
  0
LINE
  5
69E
330
22
100
AcDbEntity
  8
_0-2_
  6
DASHED2
 62
     7
100
AcDbLine
 10
1296.72439520478
 20
504.2022953813551
 30
0.0
 11
1298.826346072529
 21
500.8897150133289
 31
0.0
  0
LINE
  5
69F
330
22
100
AcDbEntity
  8
_0-2_
  6
DASHED2
 62
     7
100
AcDbLine
 10
1298.826346072529
 20
500.8897150133289
 30
0.0
 11
1302.046810672104
 21
497.8099601532857
 31
0.0
  0
LINE
  5
6A0
330
22
100
AcDbEntity
  8
_0-2_
  6
DASHED2
 62
     7
100
AcDbLine
 10
1302.046810672104
 20
497.8099601532857
 30
0.0
 11
1306.287936816283
 21
495.0566075942169
 31
0.0
  0
LINE
  5
6A1
330
22
100
AcDbEntity
  8
_0-2_
  6
DASHED2
 62
     7
100
AcDbLine
 10
1306.287936816283
 20
495.0566075942169
 30
0.0
 11
1311.420860033286
 21
492.7133165603656
 31
0.0
  0
LINE
  5
6A2
330
22
100
AcDbEntity
  8
_0-2_
  6
DASHED2
 62
     7
100
AcDbLine
 10
1311.420860033286
 20
492.7133165603656
 30
0.0
 11
1317.289619048551
 21
490.8512867640336
 31
0.0
  0
LINE
  5
6A3
330
22
100
AcDbEntity
  8
_0-2_
  6
DASHED2
 62
     7
100
AcDbLine
 10
1317.289619048551
 20
490.8512867640336
 30
0.0
 11
1323.715894589132
 21
489.5270950383496
 31
0.0
  0
LINE
  5
6A4
330
22
100
AcDbEntity
  8
_0-2_
  6
DASHED2
 62
     7
100
AcDbLine
 10
1323.715894589132
 20
489.5270950383496
 30
0.0
 11
1330.504427524583
 21
488.780976278825
 31
0.0
  0
LINE
  5
6A5
330
22
100
AcDbEntity
  8
_0-2_
  6
DASHED2
 62
     7
100
AcDbLine
 10
1330.504427524583
 20
488.780976278825
 30
0.0
 11
1337.448951716823
 21
488.635600926414
 31
0.0
  0
LINE
  5
6A6
330
22
100
AcDbEntity
  8
_0-2_
  6
DASHED2
 62
     7
100
AcDbLine
 10
1337.448951716823
 20
488.635600926414
 30
0.0
 11
1344.33846131237
 21
489.0953861376358
 31
0.0
  0
LINE
  5
6A7
330
22
100
AcDbEntity
  8
_0-2_
  6
DASHED2
 62
     7
100
AcDbLine
 10
1344.33846131237
 20
489.0953861376358
 30
0.0
 11
1350.963622048421
 21
490.1463615715102
 31
0.0
  0
LINE
  5
6A8
330
22
100
AcDbEntity
  8
_0-2_
  6
DASHED2
 62
     7
100
AcDbLine
 10
1350.963622048421
 20
490.1463615715102
 30
0.0
 11
1357.123131768508
 21
491.756593871298
 31
0.0
  0
LINE
  5
6A9
330
22
100
AcDbEntity
  8
_0-2_
  6
DASHED2
 62
     7
100
AcDbLine
 10
1357.123131768508
 20
491.756593871298
 30
0.0
 11
1362.629836886646
 21
493.8771569433872
 31
0.0
  0
LINE
  5
6AA
330
22
100
AcDbEntity
  8
_0-2_
  6
DASHED2
 62
     7
100
AcDbLine
 10
1362.629836886646
 20
493.8771569433872
 30
0.0
 11
1367.316418954348
 21
496.4436185518889
 31
0.0
  0
LINE
  5
6AB
330
22
100
AcDbEntity
  8
_0-2_
  6
DASHED2
 62
     7
100
AcDbLine
 10
1367.316418954348
 20
496.4436185518889
 30
0.0
 11
1371.040478547012
 21
499.3779980595209
 31
0.0
  0
LINE
  5
6AC
330
22
100
AcDbEntity
  8
_0-2_
  6
DASHED2
 62
     7
100
AcDbLine
 10
1371.040478547012
 20
499.3779980595209
 30
0.0
 11
1373.68886199838
 21
502.5911358298119
 31
0.0
  0
LINE
  5
6AD
330
22
100
AcDbEntity
  8
_0-2_
  6
DASHED2
 62
     7
100
AcDbLine
 10
1373.68886199838
 20
502.5911358298119
 30
0.0
 11
1375.181099517429
 21
505.9854022975374
 31
0.0
  0
LINE
  5
6AE
330
22
100
AcDbEntity
  8
_0-2_
  6
DASHED2
 62
     7
100
AcDbLine
 10
1375.181099517429
 20
505.9854022975374
 30
0.0
 11
1375.471850222252
 21
509.4576643936573
 31
0.0
  0
LINE
  5
6AF
330
22
100
AcDbEntity
  8
_0-2_
  6
DASHED2
 62
     7
100
AcDbLine
 10
1375.471850222252
 20
509.4576643936573
 30
0.0
 11
1375.471850222252
 21
509.4576643936573
 31
0.0
  0
LINE
  5
6B0
330
22
100
AcDbEntity
  8
_0-2_
  6
DASHED2
 62
     7
100
AcDbLine
 10
1346.300877387262
 20
283.3705181059912
 30
0.0
 11
1346.300877387262
 21
283.3705181059912
 31
0.0
  0
LINE
  5
6B1
330
22
100
AcDbEntity
  8
_0-2_
  6
DASHED2
 62
     7
100
AcDbLine
 10
1346.300877387262
 20
283.3705181059912
 30
0.0
 11
1345.381306964818
 21
286.8152729037644
 31
0.0
  0
LINE
  5
6B2
330
22
100
AcDbEntity
  8
_0-2_
  6
DASHED2
 62
     7
100
AcDbLine
 10
1345.381306964818
 20
286.8152729037644
 30
0.0
 11
1343.279356097069
 21
290.1278532717906
 31
0.0
  0
LINE
  5
6B3
330
22
100
AcDbEntity
  8
_0-2_
  6
DASHED2
 62
     7
100
AcDbLine
 10
1343.279356097069
 20
290.1278532717906
 30
0.0
 11
1340.058891497494
 21
293.2076081318338
 31
0.0
  0
LINE
  5
6B4
330
22
100
AcDbEntity
  8
_0-2_
  6
DASHED2
 62
     7
100
AcDbLine
 10
1340.058891497494
 20
293.2076081318338
 30
0.0
 11
1335.817765353315
 21
295.9609606909028
 31
0.0
  0
LINE
  5
6B5
330
22
100
AcDbEntity
  8
_0-2_
  6
DASHED2
 62
     7
100
AcDbLine
 10
1335.817765353315
 20
295.9609606909028
 30
0.0
 11
1330.684842136312
 21
298.3042517247538
 31
0.0
  0
LINE
  5
6B6
330
22
100
AcDbEntity
  8
_0-2_
  6
DASHED2
 62
     7
100
AcDbLine
 10
1330.684842136312
 20
298.3042517247538
 30
0.0
 11
1324.816083121048
 21
300.1662815210859
 31
0.0
  0
LINE
  5
6B7
330
22
100
AcDbEntity
  8
_0-2_
  6
DASHED2
 62
     7
100
AcDbLine
 10
1324.816083121048
 20
300.1662815210859
 30
0.0
 11
1318.389807580466
 21
301.49047324677
 31
0.0
  0
LINE
  5
6B8
330
22
100
AcDbEntity
  8
_0-2_
  6
DASHED2
 62
     7
100
AcDbLine
 10
1318.389807580466
 20
301.49047324677
 30
0.0
 11
1311.601274645015
 21
302.2365920062946
 31
0.0
  0
LINE
  5
6B9
330
22
100
AcDbEntity
  8
_0-2_
  6
DASHED2
 62
     7
100
AcDbLine
 10
1311.601274645015
 20
302.2365920062946
 30
0.0
 11
1304.656750452776
 21
302.3819673587055
 31
0.0
  0
LINE
  5
6BA
330
22
100
AcDbEntity
  8
_0-2_
  6
DASHED2
 62
     7
100
AcDbLine
 10
1304.656750452776
 20
302.3819673587055
 30
0.0
 11
1297.767240857229
 21
301.9221821474837
 31
0.0
  0
LINE
  5
6BB
330
22
100
AcDbEntity
  8
_0-2_
  6
DASHED2
 62
     7
100
AcDbLine
 10
1297.767240857229
 20
301.9221821474837
 30
0.0
 11
1291.142080121176
 21
300.8712067136093
 31
0.0
  0
LINE
  5
6BC
330
22
100
AcDbEntity
  8
_0-2_
  6
DASHED2
 62
     7
100
AcDbLine
 10
1291.142080121176
 20
300.8712067136093
 30
0.0
 11
1284.98257040109
 21
299.2609744138214
 31
0.0
  0
LINE
  5
6BD
330
22
100
AcDbEntity
  8
_0-2_
  6
DASHED2
 62
     7
100
AcDbLine
 10
1284.98257040109
 20
299.2609744138214
 30
0.0
 11
1279.475865282952
 21
297.1404113417323
 31
0.0
  0
LINE
  5
6BE
330
22
100
AcDbEntity
  8
_0-2_
  6
DASHED2
 62
     7
100
AcDbLine
 10
1279.475865282952
 20
297.1404113417323
 30
0.0
 11
1274.78928321525
 21
294.5739497332306
 31
0.0
  0
LINE
  5
6BF
330
22
100
AcDbEntity
  8
_0-2_
  6
DASHED2
 62
     7
100
AcDbLine
 10
1274.78928321525
 20
294.5739497332306
 30
0.0
 11
1271.065223622586
 21
291.6395702255984
 31
0.0
  0
LINE
  5
6C0
330
22
100
AcDbEntity
  8
_0-2_
  6
DASHED2
 62
     7
100
AcDbLine
 10
1271.065223622586
 20
291.6395702255984
 30
0.0
 11
1268.416840171218
 21
288.4264324553076
 31
0.0
  0
LINE
  5
6C1
330
22
100
AcDbEntity
  8
_0-2_
  6
DASHED2
 62
     7
100
AcDbLine
 10
1268.416840171218
 20
288.4264324553076
 30
0.0
 11
1266.924602652168
 21
285.0321659875821
 31
0.0
  0
LINE
  5
6C2
330
22
100
AcDbEntity
  8
_0-2_
  6
DASHED2
 62
     7
100
AcDbLine
 10
1266.924602652168
 20
285.0321659875821
 30
0.0
 11
1266.633851947347
 21
281.5599038914622
 31
0.0
  0
LINE
  5
6C3
330
22
100
AcDbEntity
  8
_0-2_
  6
DASHED2
 62
     7
100
AcDbLine
 10
1266.633851947347
 20
281.5599038914622
 30
0.0
 11
1267.55342236979
 21
278.115149093689
 31
0.0
  0
LINE
  5
6C4
330
22
100
AcDbEntity
  8
_0-2_
  6
DASHED2
 62
     7
100
AcDbLine
 10
1267.55342236979
 20
278.115149093689
 30
0.0
 11
1269.655373237539
 21
274.8025687256628
 31
0.0
  0
LINE
  5
6C5
330
22
100
AcDbEntity
  8
_0-2_
  6
DASHED2
 62
     7
100
AcDbLine
 10
1269.655373237539
 20
274.8025687256628
 30
0.0
 11
1272.875837837114
 21
271.7228138656196
 31
0.0
  0
LINE
  5
6C6
330
22
100
AcDbEntity
  8
_0-2_
  6
DASHED2
 62
     7
100
AcDbLine
 10
1272.875837837114
 20
271.7228138656196
 30
0.0
 11
1277.116963981293
 21
268.9694613065506
 31
0.0
  0
LINE
  5
6C7
330
22
100
AcDbEntity
  8
_0-2_
  6
DASHED2
 62
     7
100
AcDbLine
 10
1277.116963981293
 20
268.9694613065506
 30
0.0
 11
1282.249887198297
 21
266.6261702726995
 31
0.0
  0
LINE
  5
6C8
330
22
100
AcDbEntity
  8
_0-2_
  6
DASHED2
 62
     7
100
AcDbLine
 10
1282.249887198297
 20
266.6261702726995
 30
0.0
 11
1288.118646213561
 21
264.7641404763674
 31
0.0
  0
LINE
  5
6C9
330
22
100
AcDbEntity
  8
_0-2_
  6
DASHED2
 62
     7
100
AcDbLine
 10
1288.118646213561
 20
264.7641404763674
 30
0.0
 11
1294.544921754142
 21
263.4399487506834
 31
0.0
  0
LINE
  5
6CA
330
22
100
AcDbEntity
  8
_0-2_
  6
DASHED2
 62
     7
100
AcDbLine
 10
1294.544921754142
 20
263.4399487506834
 30
0.0
 11
1301.333454689593
 21
262.6938299911588
 31
0.0
  0
LINE
  5
6CB
330
22
100
AcDbEntity
  8
_0-2_
  6
DASHED2
 62
     7
100
AcDbLine
 10
1301.333454689593
 20
262.6938299911588
 30
0.0
 11
1308.277978881833
 21
262.5484546387477
 31
0.0
  0
LINE
  5
6CC
330
22
100
AcDbEntity
  8
_0-2_
  6
DASHED2
 62
     7
100
AcDbLine
 10
1308.277978881833
 20
262.5484546387477
 30
0.0
 11
1315.16748847738
 21
263.0082398499697
 31
0.0
  0
LINE
  5
6CD
330
22
100
AcDbEntity
  8
_0-2_
  6
DASHED2
 62
     7
100
AcDbLine
 10
1315.16748847738
 20
263.0082398499697
 30
0.0
 11
1321.792649213432
 21
264.059215283844
 31
0.0
  0
LINE
  5
6CE
330
22
100
AcDbEntity
  8
_0-2_
  6
DASHED2
 62
     7
100
AcDbLine
 10
1321.792649213432
 20
264.059215283844
 30
0.0
 11
1327.952158933518
 21
265.6694475836318
 31
0.0
  0
LINE
  5
6CF
330
22
100
AcDbEntity
  8
_0-2_
  6
DASHED2
 62
     7
100
AcDbLine
 10
1327.952158933518
 20
265.6694475836318
 30
0.0
 11
1333.458864051657
 21
267.790010655721
 31
0.0
  0
LINE
  5
6D0
330
22
100
AcDbEntity
  8
_0-2_
  6
DASHED2
 62
     7
100
AcDbLine
 10
1333.458864051657
 20
267.790010655721
 30
0.0
 11
1338.145446119359
 21
270.3564722642227
 31
0.0
  0
LINE
  5
6D1
330
22
100
AcDbEntity
  8
_0-2_
  6
DASHED2
 62
     7
100
AcDbLine
 10
1338.145446119359
 20
270.3564722642227
 30
0.0
 11
1341.869505712023
 21
273.2908517718548
 31
0.0
  0
LINE
  5
6D2
330
22
100
AcDbEntity
  8
_0-2_
  6
DASHED2
 62
     7
100
AcDbLine
 10
1341.869505712023
 20
273.2908517718548
 30
0.0
 11
1344.517889163391
 21
276.5039895421457
 31
0.0
  0
LINE
  5
6D3
330
22
100
AcDbEntity
  8
_0-2_
  6
DASHED2
 62
     7
100
AcDbLine
 10
1344.517889163391
 20
276.5039895421457
 30
0.0
 11
1346.01012668244
 21
279.8982560098711
 31
0.0
  0
LINE
  5
6D4
330
22
100
AcDbEntity
  8
_0-2_
  6
DASHED2
 62
     7
100
AcDbLine
 10
1346.01012668244
 20
279.8982560098711
 30
0.0
 11
1346.300877387262
 21
283.3705181059912
 31
0.0
  0
LINE
  5
6D5
330
22
100
AcDbEntity
  8
_0-2_
  6
DASHED2
 62
     7
100
AcDbLine
 10
1346.300877387262
 20
283.3705181059912
 30
0.0
 11
1346.300877387262
 21
283.3705181059912
 31
0.0
  0
LINE
  5
6D6
330
22
100
AcDbEntity
  8
_0-2_
  6
DASHED2
 62
     7
100
AcDbLine
 10
804.0419801323361
 20
354.7602562685909
 30
0.0
 11
804.0419801323361
 21
354.7602562685909
 31
0.0
  0
LINE
  5
6D7
330
22
100
AcDbEntity
  8
_0-2_
  6
DASHED2
 62
     7
100
AcDbLine
 10
804.0419801323361
 20
354.7602562685909
 30
0.0
 11
803.1224097098924
 21
358.2050110663642
 31
0.0
  0
LINE
  5
6D8
330
22
100
AcDbEntity
  8
_0-2_
  6
DASHED2
 62
     7
100
AcDbLine
 10
803.1224097098924
 20
358.2050110663642
 30
0.0
 11
801.0204588421435
 21
361.5175914343904
 31
0.0
  0
LINE
  5
6D9
330
22
100
AcDbEntity
  8
_0-2_
  6
DASHED2
 62
     7
100
AcDbLine
 10
801.0204588421435
 20
361.5175914343904
 30
0.0
 11
797.799994242568
 21
364.5973462944336
 31
0.0
  0
LINE
  5
6DA
330
22
100
AcDbEntity
  8
_0-2_
  6
DASHED2
 62
     7
100
AcDbLine
 10
797.799994242568
 20
364.5973462944336
 30
0.0
 11
793.5588680983896
 21
367.3506988535026
 31
0.0
  0
LINE
  5
6DB
330
22
100
AcDbEntity
  8
_0-2_
  6
DASHED2
 62
     7
100
AcDbLine
 10
793.5588680983896
 20
367.3506988535026
 30
0.0
 11
788.4259448813862
 21
369.6939898873536
 31
0.0
  0
LINE
  5
6DC
330
22
100
AcDbEntity
  8
_0-2_
  6
DASHED2
 62
     7
100
AcDbLine
 10
788.4259448813862
 20
369.6939898873536
 30
0.0
 11
782.5571858661218
 21
371.5560196836857
 31
0.0
  0
LINE
  5
6DD
330
22
100
AcDbEntity
  8
_0-2_
  6
DASHED2
 62
     7
100
AcDbLine
 10
782.5571858661218
 20
371.5560196836857
 30
0.0
 11
776.1309103255403
 21
372.8802114093697
 31
0.0
  0
LINE
  5
6DE
330
22
100
AcDbEntity
  8
_0-2_
  6
DASHED2
 62
     7
100
AcDbLine
 10
776.1309103255403
 20
372.8802114093697
 30
0.0
 11
769.3423773900892
 21
373.6263301688943
 31
0.0
  0
LINE
  5
6DF
330
22
100
AcDbEntity
  8
_0-2_
  6
DASHED2
 62
     7
100
AcDbLine
 10
769.3423773900892
 20
373.6263301688943
 30
0.0
 11
762.3978531978492
 21
373.7717055213053
 31
0.0
  0
LINE
  5
6E0
330
22
100
AcDbEntity
  8
_0-2_
  6
DASHED2
 62
     7
100
AcDbLine
 10
762.3978531978492
 20
373.7717055213053
 30
0.0
 11
755.5083436023028
 21
373.3119203100835
 31
0.0
  0
LINE
  5
6E1
330
22
100
AcDbEntity
  8
_0-2_
  6
DASHED2
 62
     7
100
AcDbLine
 10
755.5083436023028
 20
373.3119203100835
 30
0.0
 11
748.8831828662504
 21
372.260944876209
 31
0.0
  0
LINE
  5
6E2
330
22
100
AcDbEntity
  8
_0-2_
  6
DASHED2
 62
     7
100
AcDbLine
 10
748.8831828662504
 20
372.260944876209
 30
0.0
 11
742.723673146164
 21
370.6507125764212
 31
0.0
  0
LINE
  5
6E3
330
22
100
AcDbEntity
  8
_0-2_
  6
DASHED2
 62
     7
100
AcDbLine
 10
742.723673146164
 20
370.6507125764212
 30
0.0
 11
737.2169680280262
 21
368.530149504332
 31
0.0
  0
LINE
  5
6E4
330
22
100
AcDbEntity
  8
_0-2_
  6
DASHED2
 62
     7
100
AcDbLine
 10
737.2169680280262
 20
368.530149504332
 30
0.0
 11
732.530385960324
 21
365.9636878958303
 31
0.0
  0
LINE
  5
6E5
330
22
100
AcDbEntity
  8
_0-2_
  6
DASHED2
 62
     7
100
AcDbLine
 10
732.530385960324
 20
365.9636878958303
 30
0.0
 11
728.8063263676599
 21
363.0293083881982
 31
0.0
  0
LINE
  5
6E6
330
22
100
AcDbEntity
  8
_0-2_
  6
DASHED2
 62
     7
100
AcDbLine
 10
728.8063263676599
 20
363.0293083881982
 30
0.0
 11
726.1579429162916
 21
359.8161706179074
 31
0.0
  0
LINE
  5
6E7
330
22
100
AcDbEntity
  8
_0-2_
  6
DASHED2
 62
     7
100
AcDbLine
 10
726.1579429162916
 20
359.8161706179074
 30
0.0
 11
724.6657053972428
 21
356.4219041501819
 31
0.0
  0
LINE
  5
6E8
330
22
100
AcDbEntity
  8
_0-2_
  6
DASHED2
 62
     7
100
AcDbLine
 10
724.6657053972428
 20
356.4219041501819
 30
0.0
 11
724.3749546924206
 21
352.949642054062
 31
0.0
  0
LINE
  5
6E9
330
22
100
AcDbEntity
  8
_0-2_
  6
DASHED2
 62
     7
100
AcDbLine
 10
724.3749546924206
 20
352.949642054062
 30
0.0
 11
725.2945251148643
 21
349.5048872562888
 31
0.0
  0
LINE
  5
6EA
330
22
100
AcDbEntity
  8
_0-2_
  6
DASHED2
 62
     7
100
AcDbLine
 10
725.2945251148643
 20
349.5048872562888
 30
0.0
 11
727.3964759826132
 21
346.1923068882625
 31
0.0
  0
LINE
  5
6EB
330
22
100
AcDbEntity
  8
_0-2_
  6
DASHED2
 62
     7
100
AcDbLine
 10
727.3964759826132
 20
346.1923068882625
 30
0.0
 11
730.616940582189
 21
343.1125520282193
 31
0.0
  0
LINE
  5
6EC
330
22
100
AcDbEntity
  8
_0-2_
  6
DASHED2
 62
     7
100
AcDbLine
 10
730.616940582189
 20
343.1125520282193
 30
0.0
 11
734.858066726367
 21
340.3591994691504
 31
0.0
  0
LINE
  5
6ED
330
22
100
AcDbEntity
  8
_0-2_
  6
DASHED2
 62
     7
100
AcDbLine
 10
734.858066726367
 20
340.3591994691504
 30
0.0
 11
739.9909899433705
 21
338.0159084352992
 31
0.0
  0
LINE
  5
6EE
330
22
100
AcDbEntity
  8
_0-2_
  6
DASHED2
 62
     7
100
AcDbLine
 10
739.9909899433705
 20
338.0159084352992
 30
0.0
 11
745.8597489586349
 21
336.1538786389672
 31
0.0
  0
LINE
  5
6EF
330
22
100
AcDbEntity
  8
_0-2_
  6
DASHED2
 62
     7
100
AcDbLine
 10
745.8597489586349
 20
336.1538786389672
 30
0.0
 11
752.2860244992163
 21
334.8296869132832
 31
0.0
  0
LINE
  5
6F0
330
22
100
AcDbEntity
  8
_0-2_
  6
DASHED2
 62
     7
100
AcDbLine
 10
752.2860244992163
 20
334.8296869132832
 30
0.0
 11
759.0745574346676
 21
334.0835681537586
 31
0.0
  0
LINE
  5
6F1
330
22
100
AcDbEntity
  8
_0-2_
  6
DASHED2
 62
     7
100
AcDbLine
 10
759.0745574346676
 20
334.0835681537586
 30
0.0
 11
766.0190816269073
 21
333.9381928013476
 31
0.0
  0
LINE
  5
6F2
330
22
100
AcDbEntity
  8
_0-2_
  6
DASHED2
 62
     7
100
AcDbLine
 10
766.0190816269073
 20
333.9381928013476
 30
0.0
 11
772.9085912224538
 21
334.3979780125694
 31
0.0
  0
LINE
  5
6F3
330
22
100
AcDbEntity
  8
_0-2_
  6
DASHED2
 62
     7
100
AcDbLine
 10
772.9085912224538
 20
334.3979780125694
 30
0.0
 11
779.5337519585062
 21
335.4489534464438
 31
0.0
  0
LINE
  5
6F4
330
22
100
AcDbEntity
  8
_0-2_
  6
DASHED2
 62
     7
100
AcDbLine
 10
779.5337519585062
 20
335.4489534464438
 30
0.0
 11
785.6932616785926
 21
337.0591857462317
 31
0.0
  0
LINE
  5
6F5
330
22
100
AcDbEntity
  8
_0-2_
  6
DASHED2
 62
     7
100
AcDbLine
 10
785.6932616785926
 20
337.0591857462317
 30
0.0
 11
791.1999667967304
 21
339.1797488183208
 31
0.0
  0
LINE
  5
6F6
330
22
100
AcDbEntity
  8
_0-2_
  6
DASHED2
 62
     7
100
AcDbLine
 10
791.1999667967304
 20
339.1797488183208
 30
0.0
 11
795.8865488644327
 21
341.7462104268225
 31
0.0
  0
LINE
  5
6F7
330
22
100
AcDbEntity
  8
_0-2_
  6
DASHED2
 62
     7
100
AcDbLine
 10
795.8865488644327
 20
341.7462104268225
 30
0.0
 11
799.6106084570972
 21
344.6805899344546
 31
0.0
  0
LINE
  5
6F8
330
22
100
AcDbEntity
  8
_0-2_
  6
DASHED2
 62
     7
100
AcDbLine
 10
799.6106084570972
 20
344.6805899344546
 30
0.0
 11
802.258991908465
 21
347.8937277047454
 31
0.0
  0
LINE
  5
6F9
330
22
100
AcDbEntity
  8
_0-2_
  6
DASHED2
 62
     7
100
AcDbLine
 10
802.258991908465
 20
347.8937277047454
 30
0.0
 11
803.7512294275142
 21
351.2879941724709
 31
0.0
  0
LINE
  5
6FA
330
22
100
AcDbEntity
  8
_0-2_
  6
DASHED2
 62
     7
100
AcDbLine
 10
803.7512294275142
 20
351.2879941724709
 30
0.0
 11
804.0419801323364
 21
354.7602562685909
 31
0.0
  0
LINE
  5
6FB
330
22
100
AcDbEntity
  8
_0-2_
  6
DASHED2
 62
     7
100
AcDbLine
 10
804.0419801323364
 20
354.7602562685909
 30
0.0
 11
804.0419801323361
 21
354.7602562685909
 31
0.0
  0
LINE
  5
6FC
330
22
100
AcDbEntity
  8
_0-2_
  6
DASHED2
 62
     7
100
AcDbLine
 10
833.6125778935429
 20
579.3712458290748
 30
0.0
 11
833.6125778935429
 21
579.3712458290748
 31
0.0
  0
LINE
  5
6FD
330
22
100
AcDbEntity
  8
_0-2_
  6
DASHED2
 62
     7
100
AcDbLine
 10
833.6125778935429
 20
579.3712458290748
 30
0.0
 11
832.6930074710992
 21
582.8160006268478
 31
0.0
  0
LINE
  5
6FE
330
22
100
AcDbEntity
  8
_0-2_
  6
DASHED2
 62
     7
100
AcDbLine
 10
832.6930074710992
 20
582.8160006268478
 30
0.0
 11
830.5910566033503
 21
586.1285809948741
 31
0.0
  0
LINE
  5
6FF
330
22
100
AcDbEntity
  8
_0-2_
  6
DASHED2
 62
     7
100
AcDbLine
 10
830.5910566033503
 20
586.1285809948741
 30
0.0
 11
827.3705920037746
 21
589.2083358549172
 31
0.0
  0
LINE
  5
700
330
22
100
AcDbEntity
  8
_0-2_
  6
DASHED2
 62
     7
100
AcDbLine
 10
827.3705920037746
 20
589.2083358549172
 30
0.0
 11
823.1294658595965
 21
591.9616884139863
 31
0.0
  0
LINE
  5
701
330
22
100
AcDbEntity
  8
_0-2_
  6
DASHED2
 62
     7
100
AcDbLine
 10
823.1294658595965
 20
591.9616884139863
 30
0.0
 11
817.9965426425928
 21
594.3049794478374
 31
0.0
  0
LINE
  5
702
330
22
100
AcDbEntity
  8
_0-2_
  6
DASHED2
 62
     7
100
AcDbLine
 10
817.9965426425928
 20
594.3049794478374
 30
0.0
 11
812.1277836273286
 21
596.1670092441694
 31
0.0
  0
LINE
  5
703
330
22
100
AcDbEntity
  8
_0-2_
  6
DASHED2
 62
     7
100
AcDbLine
 10
812.1277836273286
 20
596.1670092441694
 30
0.0
 11
805.701508086747
 21
597.4912009698535
 31
0.0
  0
LINE
  5
704
330
22
100
AcDbEntity
  8
_0-2_
  6
DASHED2
 62
     7
100
AcDbLine
 10
805.701508086747
 20
597.4912009698535
 30
0.0
 11
798.9129751512958
 21
598.237319729378
 31
0.0
  0
LINE
  5
705
330
22
100
AcDbEntity
  8
_0-2_
  6
DASHED2
 62
     7
100
AcDbLine
 10
798.9129751512958
 20
598.237319729378
 30
0.0
 11
791.9684509590561
 21
598.382695081789
 31
0.0
  0
LINE
  5
706
330
22
100
AcDbEntity
  8
_0-2_
  6
DASHED2
 62
     7
100
AcDbLine
 10
791.9684509590561
 20
598.382695081789
 30
0.0
 11
785.0789413635096
 21
597.9229098705672
 31
0.0
  0
LINE
  5
707
330
22
100
AcDbEntity
  8
_0-2_
  6
DASHED2
 62
     7
100
AcDbLine
 10
785.0789413635096
 20
597.9229098705672
 30
0.0
 11
778.4537806274572
 21
596.8719344366927
 31
0.0
  0
LINE
  5
708
330
22
100
AcDbEntity
  8
_0-2_
  6
DASHED2
 62
     7
100
AcDbLine
 10
778.4537806274572
 20
596.8719344366927
 30
0.0
 11
772.2942709073708
 21
595.2617021369048
 31
0.0
  0
LINE
  5
709
330
22
100
AcDbEntity
  8
_0-2_
  6
DASHED2
 62
     7
100
AcDbLine
 10
772.2942709073708
 20
595.2617021369048
 30
0.0
 11
766.7875657892331
 21
593.1411390648158
 31
0.0
  0
LINE
  5
70A
330
22
100
AcDbEntity
  8
_0-2_
  6
DASHED2
 62
     7
100
AcDbLine
 10
766.7875657892331
 20
593.1411390648158
 30
0.0
 11
762.1009837215309
 21
590.5746774563141
 31
0.0
  0
LINE
  5
70B
330
22
100
AcDbEntity
  8
_0-2_
  6
DASHED2
 62
     7
100
AcDbLine
 10
762.1009837215309
 20
590.5746774563141
 30
0.0
 11
758.3769241288664
 21
587.6402979486819
 31
0.0
  0
LINE
  5
70C
330
22
100
AcDbEntity
  8
_0-2_
  6
DASHED2
 62
     7
100
AcDbLine
 10
758.3769241288664
 20
587.6402979486819
 30
0.0
 11
755.7285406774983
 21
584.427160178391
 31
0.0
  0
LINE
  5
70D
330
22
100
AcDbEntity
  8
_0-2_
  6
DASHED2
 62
     7
100
AcDbLine
 10
755.7285406774983
 20
584.427160178391
 30
0.0
 11
754.2363031584495
 21
581.0328937106655
 31
0.0
  0
LINE
  5
70E
330
22
100
AcDbEntity
  8
_0-2_
  6
DASHED2
 62
     7
100
AcDbLine
 10
754.2363031584495
 20
581.0328937106655
 30
0.0
 11
753.9455524536273
 21
577.5606316145456
 31
0.0
  0
LINE
  5
70F
330
22
100
AcDbEntity
  8
_0-2_
  6
DASHED2
 62
     7
100
AcDbLine
 10
753.9455524536273
 20
577.5606316145456
 30
0.0
 11
754.865122876071
 21
574.1158768167726
 31
0.0
  0
LINE
  5
710
330
22
100
AcDbEntity
  8
_0-2_
  6
DASHED2
 62
     7
100
AcDbLine
 10
754.865122876071
 20
574.1158768167726
 30
0.0
 11
756.9670737438199
 21
570.8032964487463
 31
0.0
  0
LINE
  5
711
330
22
100
AcDbEntity
  8
_0-2_
  6
DASHED2
 62
     7
100
AcDbLine
 10
756.9670737438199
 20
570.8032964487463
 30
0.0
 11
760.1875383433955
 21
567.723541588703
 31
0.0
  0
LINE
  5
712
330
22
100
AcDbEntity
  8
_0-2_
  6
DASHED2
 62
     7
100
AcDbLine
 10
760.1875383433955
 20
567.723541588703
 30
0.0
 11
764.4286644875736
 21
564.970189029634
 31
0.0
  0
LINE
  5
713
330
22
100
AcDbEntity
  8
_0-2_
  6
DASHED2
 62
     7
100
AcDbLine
 10
764.4286644875736
 20
564.970189029634
 30
0.0
 11
769.5615877045772
 21
562.626897995783
 31
0.0
  0
LINE
  5
714
330
22
100
AcDbEntity
  8
_0-2_
  6
DASHED2
 62
     7
100
AcDbLine
 10
769.5615877045772
 20
562.626897995783
 30
0.0
 11
775.4303467198415
 21
560.7648681994509
 31
0.0
  0
LINE
  5
715
330
22
100
AcDbEntity
  8
_0-2_
  6
DASHED2
 62
     7
100
AcDbLine
 10
775.4303467198415
 20
560.7648681994509
 30
0.0
 11
781.8566222604232
 21
559.4406764737668
 31
0.0
  0
LINE
  5
716
330
22
100
AcDbEntity
  8
_0-2_
  6
DASHED2
 62
     7
100
AcDbLine
 10
781.8566222604232
 20
559.4406764737668
 30
0.0
 11
788.6451551958741
 21
558.6945577142423
 31
0.0
  0
LINE
  5
717
330
22
100
AcDbEntity
  8
_0-2_
  6
DASHED2
 62
     7
100
AcDbLine
 10
788.6451551958741
 20
558.6945577142423
 30
0.0
 11
795.5896793881138
 21
558.5491823618313
 31
0.0
  0
LINE
  5
718
330
22
100
AcDbEntity
  8
_0-2_
  6
DASHED2
 62
     7
100
AcDbLine
 10
795.5896793881138
 20
558.5491823618313
 30
0.0
 11
802.4791889836606
 21
559.0089675730531
 31
0.0
  0
LINE
  5
719
330
22
100
AcDbEntity
  8
_0-2_
  6
DASHED2
 62
     7
100
AcDbLine
 10
802.4791889836606
 20
559.0089675730531
 30
0.0
 11
809.1043497197128
 21
560.0599430069273
 31
0.0
  0
LINE
  5
71A
330
22
100
AcDbEntity
  8
_0-2_
  6
DASHED2
 62
     7
100
AcDbLine
 10
809.1043497197128
 20
560.0599430069273
 30
0.0
 11
815.2638594397993
 21
561.6701753067153
 31
0.0
  0
LINE
  5
71B
330
22
100
AcDbEntity
  8
_0-2_
  6
DASHED2
 62
     7
100
AcDbLine
 10
815.2638594397993
 20
561.6701753067153
 30
0.0
 11
820.7705645579375
 21
563.7907383788045
 31
0.0
  0
LINE
  5
71C
330
22
100
AcDbEntity
  8
_0-2_
  6
DASHED2
 62
     7
100
AcDbLine
 10
820.7705645579375
 20
563.7907383788045
 30
0.0
 11
825.4571466256395
 21
566.3571999873062
 31
0.0
  0
LINE
  5
71D
330
22
100
AcDbEntity
  8
_0-2_
  6
DASHED2
 62
     7
100
AcDbLine
 10
825.4571466256395
 20
566.3571999873062
 30
0.0
 11
829.1812062183037
 21
569.2915794949383
 31
0.0
  0
LINE
  5
71E
330
22
100
AcDbEntity
  8
_0-2_
  6
DASHED2
 62
     7
100
AcDbLine
 10
829.1812062183037
 20
569.2915794949383
 30
0.0
 11
831.8295896696717
 21
572.5047172652292
 31
0.0
  0
LINE
  5
71F
330
22
100
AcDbEntity
  8
_0-2_
  6
DASHED2
 62
     7
100
AcDbLine
 10
831.8295896696717
 20
572.5047172652292
 30
0.0
 11
833.3218271887206
 21
575.8989837329546
 31
0.0
  0
LINE
  5
720
330
22
100
AcDbEntity
  8
_0-2_
  6
DASHED2
 62
     7
100
AcDbLine
 10
833.3218271887206
 20
575.8989837329546
 30
0.0
 11
833.6125778935429
 21
579.3712458290745
 31
0.0
  0
LINE
  5
721
330
22
100
AcDbEntity
  8
_0-2_
  6
DASHED2
 62
     7
100
AcDbLine
 10
833.6125778935429
 20
579.3712458290745
 30
0.0
 11
833.6125778935429
 21
579.3712458290748
 31
0.0
  0
LINE
  5
722
330
22
100
AcDbEntity
  8
_2-A_MOJI
  6
Continuous
 62
     7
100
AcDbLine
 10
857.4015201865746
 20
627.7882545508794
 30
0.0
 11
829.2587613825743
 21
627.7882545508794
 31
0.0
  0
LINE
  5
723
330
22
100
AcDbEntity
  8
_2-A_MOJI
  6
Continuous
 62
     7
100
AcDbLine
 10
808.6236507735851
 20
592.0471945563081
 30
0.0
 11
829.2587613825743
 21
627.7882545508794
 31
0.0
  0
TEXT
  5
724
330
22
100
AcDbEntity
  8
_2-A_MOJI
 62
     7
100
AcDbText
 10
867.4015201865746
 20
600.2882545508794
 30
0.0
 40
15.0
  1
ＵＤ－１Ｎ
100
AcDbText
  0
TEXT
  5
725
330
22
100
AcDbEntity
  8
_2-A_MOJI
 62
     7
100
AcDbText
 10
867.4015201865746
 20
620.2882545508794
 30
0.0
 40
15.0
  1
ＵＤ－１ＰＶまたは、
100
AcDbText
  0
LINE
  5
726
330
22
100
AcDbEntity
  8
_F-2_
  6
Continuous
 62
     7
100
AcDbLine
 10
936.9466208676056
 20
172.7834136847667
 30
0.0
 11
936.9466208676056
 21
132.7834136847667
 31
0.0
  0
LINE
  5
727
330
22
100
AcDbEntity
  8
ADD_LINE
  6
DOT
 62
   136
100
AcDbLine
 10
951.9466208676057
 20
172.7834136847667
 30
0.0
 11
951.9466208676057
 21
132.7834136847667
 31
0.0
  0
TEXT
  5
728
330
22
100
AcDbEntity
  8
_F-A_
 62
     7
100
AcDbText
 10
951.9466208676057
 20
142.7834136847667
 30
0.0
 40
17.5
  1
部位：ドレイン廻りイメージ図
100
AcDbText
  0
TEXT
  5
729
330
22
100
AcDbEntity
  8
_F-A_
 62
     7
100
AcDbText
 10
1393.36428959171
 20
142.7834136847667
 30
0.0
 40
15.0
  1
４－１３
100
AcDbText
  0
LINE
  5
72A
330
22
100
AcDbEntity
  8
_0-3_
  6
Continuous
 62
     3
100
AcDbLine
 10
1015.927237282497
 20
447.561699022816
 30
0.0
 11
1015.927237282497
 21
447.561699022816
 31
0.0
  0
LINE
  5
72B
330
22
100
AcDbEntity
  8
_0-3_
  6
Continuous
 62
     3
100
AcDbLine
 10
1015.927237282497
 20
447.561699022816
 30
0.0
 11
1016.552988183923
 21
444.5973116963421
 31
0.0
  0
LINE
  5
72C
330
22
100
AcDbEntity
  8
_0-3_
  6
Continuous
 62
     3
100
AcDbLine
 10
1016.552988183923
 20
444.5973116963421
 30
0.0
 11
1018.198753437383
 21
441.7322903261525
 31
0.0
  0
LINE
  5
72D
330
22
100
AcDbEntity
  8
_0-3_
  6
Continuous
 62
     3
100
AcDbLine
 10
1018.198753437383
 20
441.7322903261525
 30
0.0
 11
1020.814527298451
 21
439.0536871368096
 31
0.0
  0
LINE
  5
72E
330
22
100
AcDbEntity
  8
_0-3_
  6
Continuous
 62
     3
100
AcDbLine
 10
1020.814527298451
 20
439.0536871368096
 30
0.0
 11
1024.320830802
 21
436.6428901307831
 31
0.0
  0
LINE
  5
72F
330
22
100
AcDbEntity
  8
_0-3_
  6
Continuous
 62
     3
100
AcDbLine
 10
1024.320830802
 20
436.6428901307831
 30
0.0
 11
1028.611126690353
 21
434.5731501551788
 31
0.0
  0
LINE
  5
730
330
22
100
AcDbEntity
  8
_0-3_
  6
Continuous
 62
     3
100
AcDbLine
 10
1028.611126690353
 20
434.5731501551788
 30
0.0
 11
1033.555056493935
 21
432.9073552118164
 31
0.0
  0
LINE
  5
731
330
22
100
AcDbEntity
  8
_0-3_
  6
Continuous
 62
     3
100
AcDbLine
 10
1033.555056493935
 20
432.9073552118164
 30
0.0
 11
1039.002401407414
 21
431.6961196371174
 31
0.0
  0
LINE
  5
732
330
22
100
AcDbEntity
  8
_0-3_
  6
Continuous
 62
     3
100
AcDbLine
 10
1039.002401407414
 20
431.6961196371174
 30
0.0
 11
1044.787646612084
 21
430.9762462111041
 31
0.0
  0
LINE
  5
733
330
22
100
AcDbEntity
  8
_0-3_
  6
Continuous
 62
     3
100
AcDbLine
 10
1044.787646612084
 20
430.9762462111041
 30
0.0
 11
1050.735010359875
 21
430.7696079235523
 31
0.0
  0
LINE
  5
734
330
22
100
AcDbEntity
  8
_0-3_
  6
Continuous
 62
     3
100
AcDbLine
 10
1050.735010359875
 20
430.7696079235523
 30
0.0
 11
1056.663785012823
 21
431.0824833742652
 31
0.0
  0
LINE
  5
735
330
22
100
AcDbEntity
  8
_0-3_
  6
Continuous
 62
     3
100
AcDbLine
 10
1056.663785012823
 20
431.0824833742652
 30
0.0
 11
1062.393827753203
 21
431.9053660009958
 31
0.0
  0
LINE
  5
736
330
22
100
AcDbEntity
  8
_0-3_
  6
Continuous
 62
     3
100
AcDbLine
 10
1062.393827753203
 20
431.9053660009958
 30
0.0
 11
1067.751034131888
 21
433.2132529315292
 31
0.0
  0
LINE
  5
737
330
22
100
AcDbEntity
  8
_0-3_
  6
Continuous
 62
     3
100
AcDbLine
 10
1067.751034131888
 20
433.2132529315292
 30
0.0
 11
1072.572628143942
 21
434.9664046833042
 31
0.0
  0
LINE
  5
738
330
22
100
AcDbEntity
  8
_0-3_
  6
Continuous
 62
     3
100
AcDbLine
 10
1072.572628143942
 20
434.9664046833042
 30
0.0
 11
1076.71210809515
 21
437.1115526274804
 31
0.0
  0
LINE
  5
739
330
22
100
AcDbEntity
  8
_0-3_
  6
Continuous
 62
     3
100
AcDbLine
 10
1076.71210809515
 20
437.1115526274804
 30
0.0
 11
1080.043697981874
 21
439.5835175292716
 31
0.0
  0
LINE
  5
73A
330
22
100
AcDbEntity
  8
_0-3_
  6
Continuous
 62
     3
100
AcDbLine
 10
1080.043697981874
 20
439.5835175292716
 30
0.0
 11
1082.466169131272
 21
442.3071899860111
 31
0.0
  0
LINE
  5
73B
330
22
100
AcDbEntity
  8
_0-3_
  6
Continuous
 62
     3
100
AcDbLine
 10
1082.466169131272
 20
442.3071899860111
 30
0.0
 11
1083.905915983299
 21
445.199812588346
 31
0.0
  0
LINE
  5
73C
330
22
100
AcDbEntity
  8
_0-3_
  6
Continuous
 62
     3
100
AcDbLine
 10
1083.905915983299
 20
445.199812588346
 30
0.0
 11
1084.319192558403
 21
448.1734944622416
 31
0.0
  0
LINE
  5
73D
330
22
100
AcDbEntity
  8
_0-3_
  6
Continuous
 62
     3
100
AcDbLine
 10
1084.319192558403
 20
448.1734944622416
 30
0.0
 11
1083.994941185765
 21
450.2364224053104
 31
0.0
  0
LINE
  5
73E
330
22
100
AcDbEntity
  8
_0-1_
  6
Continuous
 62
     4
100
AcDbLine
 10
1017.374892842495
 20
459.5032928074161
 30
0.0
 11
1017.374892842495
 21
459.5032928074161
 31
0.0
  0
LINE
  5
73F
330
22
100
AcDbEntity
  8
_0-1_
  6
Continuous
 62
     4
100
AcDbLine
 10
1017.374892842495
 20
459.5032928074161
 30
0.0
 11
1008.637390077892
 21
456.2559696563854
 31
0.0
  0
LINE
  5
740
330
22
100
AcDbEntity
  8
_0-1_
  6
Continuous
 62
     4
100
AcDbLine
 10
1008.637390077892
 20
456.2559696563854
 30
0.0
 11
1001.160413108291
 21
452.2993549244978
 31
0.0
  0
LINE
  5
741
330
22
100
AcDbEntity
  8
_0-1_
  6
Continuous
 62
     4
100
AcDbLine
 10
1001.160413108291
 20
452.2993549244978
 30
0.0
 11
995.1711460953783
 21
447.7536683482382
 31
0.0
  0
LINE
  5
742
330
22
100
AcDbEntity
  8
_0-1_
  6
Continuous
 62
     4
100
AcDbLine
 10
995.1711460953783
 20
447.7536683482382
 30
0.0
 11
990.8515698866263
 21
442.7570283139976
 31
0.0
  0
LINE
  5
743
330
22
100
AcDbEntity
  8
_0-1_
  6
Continuous
 62
     4
100
AcDbLine
 10
990.8515698866263
 20
442.7570283139976
 30
0.0
 11
988.3329326193276
 21
437.4612552007948
 31
0.0
  0
LINE
  5
744
330
22
100
AcDbEntity
  8
_0-1_
  6
Continuous
 62
     4
100
AcDbLine
 10
988.3329326193276
 20
437.4612552007948
 30
0.0
 11
987.6917618123567
 21
432.0272583948837
 31
0.0
  0
LINE
  5
745
330
22
100
AcDbEntity
  8
_0-1_
  6
Continuous
 62
     4
100
AcDbLine
 10
987.6917618123567
 20
432.0272583948837
 30
0.0
 11
988.9475391162356
 21
426.6201471394771
 31
0.0
  0
LINE
  5
746
330
22
100
AcDbEntity
  8
_0-1_
  6
Continuous
 62
     4
100
AcDbLine
 10
988.9475391162356
 20
426.6201471394771
 30
0.0
 11
992.0621083730393
 21
421.4042137739402
 31
0.0
  0
LINE
  5
747
330
22
100
AcDbEntity
  8
_0-1_
  6
Continuous
 62
     4
100
AcDbLine
 10
992.0621083730393
 20
421.4042137739402
 30
0.0
 11
996.9408349719486
 21
416.537941794195
 31
0.0
  0
LINE
  5
748
330
22
100
AcDbEntity
  8
_0-1_
  6
Continuous
 62
     4
100
AcDbLine
 10
996.9408349719486
 20
416.537941794195
 30
0.0
 11
1003.43548127401
 21
412.1691904118938
 31
0.0
  0
LINE
  5
749
330
22
100
AcDbEntity
  8
_0-1_
  6
Continuous
 62
     4
100
AcDbLine
 10
1003.43548127401
 20
412.1691904118938
 30
0.0
 11
1011.348710737785
 21
408.4307019270928
 31
0.0
  0
LINE
  5
74A
330
22
100
AcDbEntity
  8
_0-1_
  6
Continuous
 62
     4
100
AcDbLine
 10
1011.348710737785
 20
408.4307019270928
 30
0.0
 11
1020.440083890304
 21
405.4360684206366
 31
0.0
  0
LINE
  5
74B
330
22
100
AcDbEntity
  8
_0-1_
  6
Continuous
 62
     4
100
AcDbLine
 10
1020.440083890304
 20
405.4360684206366
 30
0.0
 11
1030.433363958786
 21
403.2762803162607
 31
0.0
  0
LINE
  5
74C
330
22
100
AcDbEntity
  8
_0-1_
  6
Continuous
 62
     4
100
AcDbLine
 10
1030.433363958786
 20
403.2762803162607
 30
0.0
 11
1041.024910185191
 21
402.0169616826112
 31
0.0
  0
LINE
  5
74D
330
22
100
AcDbEntity
  8
_0-1_
  6
Continuous
 62
     4
100
AcDbLine
 10
1041.024910185191
 20
402.0169616826112
 30
0.0
 11
1051.892903797013
 21
401.6963762791257
 31
0.0
  0
LINE
  5
74E
330
22
100
AcDbEntity
  8
_0-1_
  6
Continuous
 62
     4
100
AcDbLine
 10
1051.892903797013
 20
401.6963762791257
 30
0.0
 11
1062.707126307826
 21
402.3242649310652
 31
0.0
  0
LINE
  5
74F
330
22
100
AcDbEntity
  8
_0-1_
  6
Continuous
 62
     4
100
AcDbLine
 10
1062.707126307826
 20
402.3242649310652
 30
0.0
 11
1073.138993038901
 21
403.8815495594671
 31
0.0
  0
LINE
  5
750
330
22
100
AcDbEntity
  8
_0-1_
  6
Continuous
 62
     4
100
AcDbLine
 10
1073.138993038901
 20
403.8815495594671
 30
0.0
 11
1082.871536998391
 21
406.3209128589218
 31
0.0
  0
LINE
  5
751
330
22
100
AcDbEntity
  8
_0-1_
  6
Continuous
 62
     4
100
AcDbLine
 10
1082.871536998391
 20
406.3209128589218
 30
0.0
 11
1091.609039762993
 21
409.5682360099524
 31
0.0
  0
LINE
  5
752
330
22
100
AcDbEntity
  8
_0-1_
  6
Continuous
 62
     4
100
AcDbLine
 10
1091.609039762993
 20
409.5682360099524
 30
0.0
 11
1099.086016732595
 21
413.52485074184
 31
0.0
  0
LINE
  5
753
330
22
100
AcDbEntity
  8
_0-1_
  6
Continuous
 62
     4
100
AcDbLine
 10
1099.086016732595
 20
413.52485074184
 30
0.0
 11
1105.075283745508
 21
418.0705373180997
 31
0.0
  0
LINE
  5
754
330
22
100
AcDbEntity
  8
_0-1_
  6
Continuous
 62
     4
100
AcDbLine
 10
1105.075283745508
 20
418.0705373180997
 30
0.0
 11
1109.39485995426
 21
423.0671773523402
 31
0.0
  0
LINE
  5
755
330
22
100
AcDbEntity
  8
_0-1_
  6
Continuous
 62
     4
100
AcDbLine
 10
1109.39485995426
 20
423.0671773523402
 30
0.0
 11
1111.913497221558
 21
428.3629504655432
 31
0.0
  0
LINE
  5
756
330
22
100
AcDbEntity
  8
_0-1_
  6
Continuous
 62
     4
100
AcDbLine
 10
1111.913497221558
 20
428.3629504655432
 30
0.0
 11
1112.554668028529
 21
433.796947271454
 31
0.0
  0
LINE
  5
757
330
22
100
AcDbEntity
  8
_0-1_
  6
Continuous
 62
     4
100
AcDbLine
 10
1112.554668028529
 20
433.796947271454
 30
0.0
 11
1111.298890724651
 21
439.2040585268608
 31
0.0
  0
LINE
  5
758
330
22
100
AcDbEntity
  8
_0-1_
  6
Continuous
 62
     4
100
AcDbLine
 10
1111.298890724651
 20
439.2040585268608
 30
0.0
 11
1108.184321467847
 21
444.4199918923977
 31
0.0
  0
LINE
  5
759
330
22
100
AcDbEntity
  8
_0-1_
  6
Continuous
 62
     4
100
AcDbLine
 10
1108.184321467847
 20
444.4199918923977
 30
0.0
 11
1103.305594868938
 21
449.2862638721428
 31
0.0
  0
LINE
  5
75A
330
22
100
AcDbEntity
  8
_0-1_
  6
Continuous
 62
     4
100
AcDbLine
 10
1103.305594868938
 20
449.2862638721428
 30
0.0
 11
1096.810948566876
 21
453.655015254444
 31
0.0
  0
LINE
  5
75B
330
22
100
AcDbEntity
  8
_0-1_
  6
Continuous
 62
     4
100
AcDbLine
 10
1096.810948566876
 20
453.655015254444
 30
0.0
 11
1088.897719103101
 21
457.3935037392449
 31
0.0
  0
LINE
  5
75C
330
22
100
AcDbEntity
  8
_0-1_
  6
Continuous
 62
     4
100
AcDbLine
 10
1088.897719103101
 20
457.3935037392449
 30
0.0
 11
1082.871536998405
 21
459.5032928074119
 31
0.0
  0
LINE
  5
75D
330
22
100
AcDbEntity
  8
_0-3_
  6
Continuous
 62
     3
100
AcDbLine
 10
1017.884874519184
 20
463.7100904662544
 30
0.0
 11
1017.884874519184
 21
463.7100904662544
 31
0.0
  0
LINE
  5
75E
330
22
100
AcDbEntity
  8
_0-3_
  6
Continuous
 62
     3
100
AcDbLine
 10
1017.884874519184
 20
463.7100904662544
 30
0.0
 11
1005.232498908632
 21
460.3361314339568
 31
0.0
  0
LINE
  5
75F
330
22
100
AcDbEntity
  8
_0-3_
  6
Continuous
 62
     3
100
AcDbLine
 10
1005.232498908632
 20
460.3361314339568
 30
0.0
 11
993.9441049883001
 21
455.9148994366396
 31
0.0
  0
LINE
  5
760
330
22
100
AcDbEntity
  8
_0-3_
  6
Continuous
 62
     3
100
AcDbLine
 10
993.9441049883001
 20
455.9148994366396
 30
0.0
 11
984.3626848952551
 21
450.5807313712899
 31
0.0
  0
LINE
  5
761
330
22
100
AcDbEntity
  8
_0-3_
  6
Continuous
 62
     3
100
AcDbLine
 10
984.3626848952551
 20
450.5807313712899
 30
0.0
 11
976.7793652305915
 21
444.4957032353541
 31
0.0
  0
LINE
  5
762
330
22
100
AcDbEntity
  8
_0-3_
  6
Continuous
 62
     3
100
AcDbLine
 10
976.7793652305915
 20
444.4957032353541
 30
0.0
 11
971.4245613249756
 21
437.84470552957
 31
0.0
  0
LINE
  5
763
330
22
100
AcDbEntity
  8
_0-3_
  6
Continuous
 62
     3
100
AcDbLine
 10
971.4245613249756
 20
437.84470552957
 30
0.0
 11
968.4609761854176
 21
430.8298254536603
 31
0.0
  0
LINE
  5
764
330
22
100
AcDbEntity
  8
_0-3_
  6
Continuous
 62
     3
100
AcDbLine
 10
968.4609761854176
 20
430.8298254536603
 30
0.0
 11
967.9786568467367
 21
423.6642065890309
 31
0.0
  0
LINE
  5
765
330
22
100
AcDbEntity
  8
_0-3_
  6
Continuous
 62
     3
100
AcDbLine
 10
967.9786568467367
 20
423.6642065890309
 30
0.0
 11
969.9922583379734
 21
416.5655726389057
 31
0.0
  0
LINE
  5
766
330
22
100
AcDbEntity
  8
_0-3_
  6
Continuous
 62
     3
100
AcDbLine
 10
969.9922583379734
 20
416.5655726389057
 30
0.0
 11
974.4405983967478
 21
409.7496120037771
 31
0.0
  0
LINE
  5
767
330
22
100
AcDbEntity
  8
_0-3_
  6
Continuous
 62
     3
100
AcDbLine
 10
974.4405983967478
 20
409.7496120037771
 30
0.0
 11
981.1885164613428
 21
403.4234241985009
 31
0.0
  0
LINE
  5
768
330
22
100
AcDbEntity
  8
_0-3_
  6
Continuous
 62
     3
100
AcDbLine
 10
981.1885164613428
 20
403.4234241985009
 30
0.0
 11
990.0309804559773
 21
397.7792272383351
 31
0.0
  0
LINE
  5
769
330
22
100
AcDbEntity
  8
_0-3_
  6
Continuous
 62
     3
100
AcDbLine
 10
990.0309804559773
 20
397.7792272383351
 30
0.0
 11
1000.699316586676
 21
392.9885171918127
 31
0.0
  0
LINE
  5
76A
330
22
100
AcDbEntity
  8
_0-3_
  6
Continuous
 62
     3
100
AcDbLine
 10
1000.699316586676
 20
392.9885171918127
 30
0.0
 11
1012.869372858548
 21
389.1968573594809
 31
0.0
  0
LINE
  5
76B
330
22
100
AcDbEntity
  8
_0-3_
  6
Continuous
 62
     3
100
AcDbLine
 10
1012.869372858548
 20
389.1968573594809
 30
0.0
 11
1026.171368270116
 21
386.5194554066729
 31
0.0
  0
LINE
  5
76C
330
22
100
AcDbEntity
  8
_0-3_
  6
Continuous
 62
     3
100
AcDbLine
 10
1026.171368270116
 20
386.5194554066729
 30
0.0
 11
1040.201128421936
 21
385.0376628368938
 31
0.0
  0
LINE
  5
76D
330
22
100
AcDbEntity
  8
_0-3_
  6
Continuous
 62
     3
100
AcDbLine
 10
1040.201128421936
 20
385.0376628368938
 30
0.0
 11
1054.532366151194
 21
384.7965031675535
 31
0.0
  0
LINE
  5
76E
330
22
100
AcDbEntity
  8
_0-3_
  6
Continuous
 62
     3
100
AcDbLine
 10
1054.532366151194
 20
384.7965031675535
 30
0.0
 11
1068.729634051444
 21
385.8033039131718
 31
0.0
  0
LINE
  5
76F
330
22
100
AcDbEntity
  8
_0-3_
  6
Continuous
 62
     3
100
AcDbLine
 10
1068.729634051444
 20
385.8033039131718
 30
0.0
 11
1082.361555321702
 21
388.027473942559
 31
0.0
  0
LINE
  5
770
330
22
100
AcDbEntity
  8
_0-3_
  6
Continuous
 62
     3
100
AcDbLine
 10
1082.361555321702
 20
388.027473942559
 30
0.0
 11
1095.013930932254
 21
391.4014329748566
 31
0.0
  0
LINE
  5
771
330
22
100
AcDbEntity
  8
_0-3_
  6
Continuous
 62
     3
100
AcDbLine
 10
1095.013930932254
 20
391.4014329748566
 30
0.0
 11
1106.302324852586
 21
395.8226649721737
 31
0.0
  0
LINE
  5
772
330
22
100
AcDbEntity
  8
_0-3_
  6
Continuous
 62
     3
100
AcDbLine
 10
1106.302324852586
 20
395.8226649721737
 30
0.0
 11
1115.883744945631
 21
401.1568330375232
 31
0.0
  0
LINE
  5
773
330
22
100
AcDbEntity
  8
_0-3_
  6
Continuous
 62
     3
100
AcDbLine
 10
1115.883744945631
 20
401.1568330375232
 30
0.0
 11
1123.467064610294
 21
407.241861173459
 31
0.0
  0
LINE
  5
774
330
22
100
AcDbEntity
  8
_0-3_
  6
Continuous
 62
     3
100
AcDbLine
 10
1123.467064610294
 20
407.241861173459
 30
0.0
 11
1128.82186851591
 21
413.8928588792432
 31
0.0
  0
LINE
  5
775
330
22
100
AcDbEntity
  8
_0-3_
  6
Continuous
 62
     3
100
AcDbLine
 10
1128.82186851591
 20
413.8928588792432
 30
0.0
 11
1131.785453655469
 21
420.9077389551529
 31
0.0
  0
LINE
  5
776
330
22
100
AcDbEntity
  8
_0-3_
  6
Continuous
 62
     3
100
AcDbLine
 10
1131.785453655469
 20
420.9077389551529
 30
0.0
 11
1132.267772994149
 21
428.0733578197823
 31
0.0
  0
LINE
  5
777
330
22
100
AcDbEntity
  8
_0-3_
  6
Continuous
 62
     3
100
AcDbLine
 10
1132.267772994149
 20
428.0733578197823
 30
0.0
 11
1130.254171502913
 21
435.1719917699074
 31
0.0
  0
LINE
  5
778
330
22
100
AcDbEntity
  8
_0-3_
  6
Continuous
 62
     3
100
AcDbLine
 10
1130.254171502913
 20
435.1719917699074
 30
0.0
 11
1125.805831444138
 21
441.987952405036
 31
0.0
  0
LINE
  5
779
330
22
100
AcDbEntity
  8
_0-3_
  6
Continuous
 62
     3
100
AcDbLine
 10
1125.805831444138
 20
441.987952405036
 30
0.0
 11
1119.057913379543
 21
448.3141402103122
 31
0.0
  0
LINE
  5
77A
330
22
100
AcDbEntity
  8
_0-3_
  6
Continuous
 62
     3
100
AcDbLine
 10
1119.057913379543
 20
448.3141402103122
 30
0.0
 11
1110.215449384909
 21
453.9583371704781
 31
0.0
  0
LINE
  5
77B
330
22
100
AcDbEntity
  8
_0-3_
  6
Continuous
 62
     3
100
AcDbLine
 10
1110.215449384909
 20
453.9583371704781
 30
0.0
 11
1099.54711325421
 21
458.7490472170006
 31
0.0
  0
LINE
  5
77C
330
22
100
AcDbEntity
  8
_0-3_
  6
Continuous
 62
     3
100
AcDbLine
 10
1099.54711325421
 20
458.7490472170006
 30
0.0
 11
1087.377056982338
 21
462.5407070493323
 31
0.0
  0
LINE
  5
77D
330
22
100
AcDbEntity
  8
_0-3_
  6
Continuous
 62
     3
100
AcDbLine
 10
1087.377056982338
 20
462.5407070493323
 30
0.0
 11
1082.361555321716
 21
463.7100904662514
 31
0.0
  0
LINE
  5
77E
330
22
100
AcDbEntity
  8
_0-1_
  6
Continuous
 62
     4
100
AcDbLine
 10
1019.196606624336
 20
474.530462650619
 30
0.0
 11
1019.196606624336
 21
474.530462650619
 31
0.0
  0
LINE
  5
77F
330
22
100
AcDbEntity
  8
_0-1_
  6
Continuous
 62
     4
100
AcDbLine
 10
1019.196606624336
 20
474.530462650619
 30
0.0
 11
1004.362876368283
 21
471.1758434058
 31
0.0
  0
LINE
  5
780
330
22
100
AcDbEntity
  8
_0-1_
  6
Continuous
 62
     4
100
AcDbLine
 10
1004.362876368283
 20
471.1758434058
 30
0.0
 11
990.9195508432897
 21
466.5842632516151
 31
0.0
  0
LINE
  5
781
330
22
100
AcDbEntity
  8
_0-1_
  6
Continuous
 62
     4
100
AcDbLine
 10
990.9195508432897
 20
466.5842632516151
 30
0.0
 11
979.2750986927805
 21
460.8952350275977
 31
0.0
  0
LINE
  5
782
330
22
100
AcDbEntity
  8
_0-1_
  6
Continuous
 62
     4
100
AcDbLine
 10
979.2750986927805
 20
460.8952350275977
 30
0.0
 11
969.783330702972
 21
454.2816169775473
 31
0.0
  0
LINE
  5
783
330
22
100
AcDbEntity
  8
_0-1_
  6
Continuous
 62
     4
100
AcDbLine
 10
969.783330702972
 20
454.2816169775473
 30
0.0
 11
962.7326494411684
 21
446.9443605392623
 31
0.0
  0
LINE
  5
784
330
22
100
AcDbEntity
  8
_0-1_
  6
Continuous
 62
     4
100
AcDbLine
 10
962.7326494411684
 20
446.9443605392623
 30
0.0
 11
958.3372862896926
 21
439.1064045367892
 31
0.0
  0
LINE
  5
785
330
22
100
AcDbEntity
  8
_0-1_
  6
Continuous
 62
     4
100
AcDbLine
 10
958.3372862896926
 20
439.1064045367892
 30
0.0
 11
956.7307921337407
 21
431.0059012970661
 31
0.0
  0
LINE
  5
786
330
22
100
AcDbEntity
  8
_0-1_
  6
Continuous
 62
     4
100
AcDbLine
 10
956.7307921337407
 20
431.0059012970661
 30
0.0
 11
957.9619794853169
 21
422.8889805119795
 31
0.0
  0
LINE
  5
787
330
22
100
AcDbEntity
  8
_0-1_
  6
Continuous
 62
     4
100
AcDbLine
 10
957.9619794853169
 20
422.8889805119795
 30
0.0
 11
961.9934393397539
 21
415.0022707122241
 31
0.0
  0
LINE
  5
788
330
22
100
AcDbEntity
  8
_0-1_
  6
Continuous
 62
     4
100
AcDbLine
 10
961.9934393397539
 20
415.0022707122241
 30
0.0
 11
968.7026778293919
 21
407.5854055841979
 31
0.0
  0
LINE
  5
789
330
22
100
AcDbEntity
  8
_0-1_
  6
Continuous
 62
     4
100
AcDbLine
 10
968.7026778293919
 20
407.5854055841979
 30
0.0
 11
977.8858381377615
 21
400.8637428217009
 31
0.0
  0
LINE
  5
78A
330
22
100
AcDbEntity
  8
_0-1_
  6
Continuous
 62
     4
100
AcDbLine
 10
977.8858381377615
 20
400.8637428217009
 30
0.0
 11
989.263894585796
 21
395.0415167464464
 31
0.0
  0
LINE
  5
78B
330
22
100
AcDbEntity
  8
_0-1_
  6
Continuous
 62
     4
100
AcDbLine
 10
989.263894585796
 20
395.0415167464464
 30
0.0
 11
1002.491130685897
 21
390.2956327515422
 31
0.0
  0
LINE
  5
78C
330
22
100
AcDbEntity
  8
_0-1_
  6
Continuous
 62
     4
100
AcDbLine
 10
1002.491130685897
 20
390.2956327515422
 30
0.0
 11
1017.165643562467
 21
386.7702921206404
 31
0.0
  0
LINE
  5
78D
330
22
100
AcDbEntity
  8
_0-1_
  6
Continuous
 62
     4
100
AcDbLine
 10
1017.165643562467
 20
386.7702921206404
 30
0.0
 11
1032.841555567413
 21
384.5726105449023
 31
0.0
  0
LINE
  5
78E
330
22
100
AcDbEntity
  8
_0-1_
  6
Continuous
 62
     4
100
AcDbLine
 10
1032.841555567413
 20
384.5726105449023
 30
0.0
 11
1049.042562046859
 21
383.7693634669267
 31
0.0
  0
LINE
  5
78F
330
22
100
AcDbEntity
  8
_0-1_
  6
Continuous
 62
     4
100
AcDbLine
 10
1049.042562046859
 20
383.7693634669267
 30
0.0
 11
1065.276403617033
 21
384.3849571427148
 31
0.0
  0
LINE
  5
790
330
22
100
AcDbEntity
  8
_0-1_
  6
Continuous
 62
     4
100
AcDbLine
 10
1065.276403617033
 20
384.3849571427148
 30
0.0
 11
1081.049823216543
 21
386.4006870699332
 31
0.0
  0
LINE
  5
791
330
22
100
AcDbEntity
  8
_0-1_
  6
Continuous
 62
     4
100
AcDbLine
 10
1081.049823216543
 20
386.4006870699332
 30
0.0
 11
1095.883553472596
 21
389.755306314752
 31
0.0
  0
LINE
  5
792
330
22
100
AcDbEntity
  8
_0-1_
  6
Continuous
 62
     4
100
AcDbLine
 10
1095.883553472596
 20
389.755306314752
 30
0.0
 11
1109.32687899759
 21
394.3468864689368
 31
0.0
  0
LINE
  5
793
330
22
100
AcDbEntity
  8
_0-1_
  6
Continuous
 62
     4
100
AcDbLine
 10
1109.32687899759
 20
394.3468864689368
 30
0.0
 11
1120.971331148099
 21
400.0359146929543
 31
0.0
  0
LINE
  5
794
330
22
100
AcDbEntity
  8
_0-1_
  6
Continuous
 62
     4
100
AcDbLine
 10
1120.971331148099
 20
400.0359146929543
 30
0.0
 11
1130.463099137907
 21
406.6495327430048
 31
0.0
  0
LINE
  5
795
330
22
100
AcDbEntity
  8
_0-1_
  6
Continuous
 62
     4
100
AcDbLine
 10
1130.463099137907
 20
406.6495327430048
 30
0.0
 11
1137.513780399711
 21
413.9867891812897
 31
0.0
  0
LINE
  5
796
330
22
100
AcDbEntity
  8
_0-1_
  6
Continuous
 62
     4
100
AcDbLine
 10
1137.513780399711
 20
413.9867891812897
 30
0.0
 11
1141.909143551187
 21
421.8247451837628
 31
0.0
  0
LINE
  5
797
330
22
100
AcDbEntity
  8
_0-1_
  6
Continuous
 62
     4
100
AcDbLine
 10
1141.909143551187
 20
421.8247451837628
 30
0.0
 11
1143.515637707139
 21
429.9252484234858
 31
0.0
  0
LINE
  5
798
330
22
100
AcDbEntity
  8
_0-1_
  6
Continuous
 62
     4
100
AcDbLine
 10
1143.515637707139
 20
429.9252484234858
 30
0.0
 11
1142.284450355562
 21
438.0421692085724
 31
0.0
  0
LINE
  5
799
330
22
100
AcDbEntity
  8
_0-1_
  6
Continuous
 62
     4
100
AcDbLine
 10
1142.284450355562
 20
438.0421692085724
 30
0.0
 11
1138.252990501125
 21
445.9288790083278
 31
0.0
  0
LINE
  5
79A
330
22
100
AcDbEntity
  8
_0-1_
  6
Continuous
 62
     4
100
AcDbLine
 10
1138.252990501125
 20
445.9288790083278
 30
0.0
 11
1131.543752011488
 21
453.345744136354
 31
0.0
  0
LINE
  5
79B
330
22
100
AcDbEntity
  8
_0-1_
  6
Continuous
 62
     4
100
AcDbLine
 10
1131.543752011488
 20
453.345744136354
 30
0.0
 11
1122.360591703118
 21
460.067406898851
 31
0.0
  0
LINE
  5
79C
330
22
100
AcDbEntity
  8
_0-1_
  6
Continuous
 62
     4
100
AcDbLine
 10
1122.360591703118
 20
460.067406898851
 30
0.0
 11
1110.982535255083
 21
465.8896329741057
 31
0.0
  0
LINE
  5
79D
330
22
100
AcDbEntity
  8
_0-1_
  6
Continuous
 62
     4
100
AcDbLine
 10
1110.982535255083
 20
465.8896329741057
 30
0.0
 11
1097.755299154982
 21
470.6355169690099
 31
0.0
  0
LINE
  5
79E
330
22
100
AcDbEntity
  8
_0-1_
  6
Continuous
 62
     4
100
AcDbLine
 10
1097.755299154982
 20
470.6355169690099
 30
0.0
 11
1083.080786278412
 21
474.1608575999117
 31
0.0
  0
LINE
  5
79F
330
22
100
AcDbEntity
  8
_0-1_
  6
Continuous
 62
     4
100
AcDbLine
 10
1083.080786278412
 20
474.1608575999117
 30
0.0
 11
1081.049823216564
 21
474.5304626506152
 31
0.0
  0
POINT
  5
7A0
330
22
100
AcDbEntity
  8
_0-B_
 62
     1
100
AcDbPoint
 10
1079.387993228445
 20
551.4678556693417
 30
0.0
  0
LINE
  5
7A1
330
22
100
AcDbEntity
  8
_0-B_
  6
Continuous
 62
     7
100
AcDbLine
 10
1079.387993228445
 20
551.4678556693417
 30
0.0
 11
1112.615890299405
 21
560.3712438556863
 31
0.0
  0
POINT
  5
7A2
330
22
100
AcDbEntity
  8
_0-B_
 62
     1
100
AcDbPoint
 10
1112.615890299405
 20
560.3712438556863
 30
0.0
  0
TEXT
  5
7A3
330
22
100
AcDbEntity
  8
_0-B_
 62
     7
100
AcDbText
 10
1103.036012463735
 20
564.9229551491259
 30
0.0
 40
15.0
  1
40以上
100
AcDbText
  0
TEXT
  5
7A4
330
22
100
AcDbEntity
  8
_2-A_MOJI
 62
     7
100
AcDbText
 10
1263.467688704347
 20
595.2882545508794
 30
0.0
 40
15.0
  1
塩ビシート 接着工法
100
AcDbText
  0
LINE
  5
7A5
330
22
100
AcDbEntity
  8
_2-A_MOJI
  6
Continuous
 62
     7
100
AcDbLine
 10
1253.467688704347
 20
602.7882545508794
 30
0.0
 11
1226.910418363915
 21
602.7882545508794
 31
0.0
  0
LINE
  5
7A6
330
22
100
AcDbEntity
  8
_2-A_MOJI
  6
Continuous
 62
     7
100
AcDbLine
 10
1253.467688704347
 20
627.7882545508794
 30
0.0
 11
1210.026043477753
 21
627.7882545508794
 31
0.0
  0
TEXT
  5
7A7
330
22
100
AcDbEntity
  8
_4-A_
 62
     7
100
AcDbText
 10
1263.467688704347
 20
620.2882545508794
 30
0.0
 40
15.0
  1
塩ビシート 機械的固定工法
100
AcDbText
  0
LINE
  5
7A8
330
22
100
AcDbEntity
  8
_2-A_MOJI
  6
Continuous
 62
     7
100
AcDbLine
 10
1154.882528305228
 20
478.0322894072527
 30
0.0
 11
1226.910418363915
 21
602.7882545508794
 31
0.0
  0
LINE
  5
7A9
330
22
100
AcDbEntity
  8
_2-A_MOJI
  6
Continuous
 62
     7
100
AcDbLine
 10
1174.019017287595
 20
565.4222557600632
 30
0.0
 11
1210.026043477753
 21
627.7882545508794
 31
0.0
  0
ENDSEC
  0
SECTION
  2
OBJECTS
  0
DICTIONARY
  5
C
330
0
100
AcDbDictionary
281
     1
  3
ACAD_COLOR
350
1B
  3
ACAD_GROUP
350
D
  3
ACAD_LAYOUT
350
19
  3
ACAD_MATERIAL
350
1A
  3
ACAD_MLINESTYLE
350
16
  3
ACAD_PLOTSETTINGS
350
18
  3
ACAD_PLOTSTYLENAME
350
E
  3
ACAD_TABLESTYLE
350
1C
  3
ACDBHEADERROUNDTRIPXREC
350
7B1
  3
AcDbVariableDictionary
350
7AC
  0
DICTIONARY
  5
1B
102
{ACAD_REACTORS
330
C
102
}
330
C
100
AcDbDictionary
281
     1
  0
DICTIONARY
  5
D
102
{ACAD_REACTORS
330
C
102
}
330
C
100
AcDbDictionary
281
     1
  0
DICTIONARY
  5
19
102
{ACAD_REACTORS
330
C
102
}
330
C
100
AcDbDictionary
281
     1
  3
Model
350
25
  3
レイアウト1
350
21
  0
DICTIONARY
  5
1A
102
{ACAD_REACTORS
330
C
102
}
330
C
100
AcDbDictionary
281
     1
  0
DICTIONARY
  5
16
102
{ACAD_REACTORS
330
C
102
}
330
C
100
AcDbDictionary
281
     1
  3
Standard
350
17
  0
DICTIONARY
  5
18
102
{ACAD_REACTORS
330
C
102
}
330
C
100
AcDbDictionary
281
     1
  0
ACDBDICTIONARYWDFLT
  5
E
102
{ACAD_REACTORS
330
C
102
}
330
C
100
AcDbDictionary
281
     1
  3
Normal
350
F
100
AcDbDictionaryWithDefault
340
F
  0
DICTIONARY
  5
1C
102
{ACAD_REACTORS
330
C
102
}
330
C
100
AcDbDictionary
281
     1
  3
Standard
350
1D
  0
DICTIONARY
  5
7B1
102
{ACAD_REACTORS
330
C
102
}
330
C
100
AcDbDictionary
281
     1
  0
DICTIONARY
  5
7AC
102
{ACAD_REACTORS
330
C
102
}
330
C
100
AcDbDictionary
281
     1
  3
CTABLESTYLE
350
7AD
  3
DIMASSOC
350
7AE
  3
PROJECTNAME
350
7AF
  0
LAYOUT
  5
25
102
{ACAD_XDICTIONARY
360
7B4
102
}
102
{ACAD_REACTORS
330
19
102
}
330
19
100
AcDbPlotSettings
  1

  2
PC1665
  4

  6

 40
0.0
 41
0.0
 42
0.0
 43
0.0
 44
0.0
 45
0.0
 46
0.0
 47
0.0
 48
0.0
 49
0.0
140
0.0
141
0.0
142
1.0
143
1.0
 70
  1712
 72
     0
 73
     0
 74
     0
  7

 75
     0
147
1.0
148
0.0
149
0.0
100
AcDbLayout
  1
Model
 70
     1
 71
     0
 10
0.0
 20
0.0
 11
12.0
 21
9.0
 12
0.0
 22
0.0
 32
0.0
 14
0.0
 24
0.0
 34
0.0
 15
0.0
 25
0.0
 35
0.0
146
0.0
 13
0.0
 23
0.0
 33
0.0
 16
1.0
 26
0.0
 36
0.0
 17
0.0
 27
1.0
 37
0.0
 76
     0
330
22
  0
LAYOUT
  5
21
102
{ACAD_XDICTIONARY
360
7B2
102
}
102
{ACAD_REACTORS
330
19
102
}
330
19
100
AcDbPlotSettings
  1

  2
PC1665
  4

  6

 40
0.0
 41
0.0
 42
0.0
 43
0.0
 44
0.0
 45
0.0
 46
0.0
 47
0.0
 48
0.0
 49
0.0
140
0.0
141
0.0
142
1.0
143
1.0
 70
   688
 72
     0
 73
     0
 74
     5
  7

 75
    16
147
1.0
148
0.0
149
0.0
100
AcDbLayout
  1
レイアウト1
 70
     1
 71
     1
 10
0.0
 20
0.0
 11
12.0
 21
9.0
 12
0.0
 22
0.0
 32
0.0
 14
1.000000000000000E+20
 24
1.000000000000000E+20
 34
1.000000000000000E+20
 15
-1.000000000000000E+20
 25
-1.000000000000000E+20
 35
-1.000000000000000E+20
146
0.0
 13
0.0
 23
0.0
 33
0.0
 16
1.0
 26
0.0
 36
0.0
 17
0.0
 27
1.0
 37
0.0
 76
     0
330
1E
  0
MLINESTYLE
  5
17
102
{ACAD_REACTORS
330
16
102
}
330
16
100
AcDbMlineStyle
  2
STANDARD
 70
     0
  3

 62
   256
 51
90.0
 52
90.0
 71
     2
 49
0.5
 62
   256
  6
BYLAYER
 49
-0.5
 62
   256
  6
BYLAYER
  0
ACDBPLACEHOLDER
  5
F
102
{ACAD_REACTORS
330
E
102
}
330
E
  0
TABLESTYLE
  5
1D
102
{ACAD_REACTORS
330
1C
102
}
330
1C
100
AcDbTableStyle
  3
Standard
 70
     0
 71
     0
 40
0.06
 41
0.06
280
     0
281
     0
  7
STANDARD
140
0.18
170
     2
 62
     0
 63
     7
283
     0
274
    -2
284
     1
 64
     0
275
    -2
285
     1
 65
     0
276
    -2
286
     1
 66
     0
277
    -2
287
     1
 67
     0
278
    -2
288
     1
 68
     0
279
    -2
289
     1
 69
     0
  7
STANDARD
140
0.25
170
     5
 62
     0
 63
     7
283
     0
274
    -2
284
     1
 64
     0
275
    -2
285
     1
 65
     0
276
    -2
286
     1
 66
     0
277
    -2
287
     1
 67
     0
278
    -2
288
     1
 68
     0
279
    -2
289
     1
 69
     0
  7
STANDARD
140
0.18
170
     5
 62
     0
 63
     7
283
     0
274
    -2
284
     1
 64
     0
275
    -2
285
     1
 65
     0
276
    -2
286
     1
 66
     0
277
    -2
287
     1
 67
     0
278
    -2
288
     1
 68
     0
279
    -2
289
     1
 69
     0
  0
DICTIONARYVAR
  5
7AD
102
{ACAD_REACTORS
330
7AC
102
}
330
7AC
100
DictionaryVariables
280
     0
  1
STANDARD
  0
DICTIONARYVAR
  5
7AE
102
{ACAD_REACTORS
330
7AC
102
}
330
7AC
100
DictionaryVariables
280
     0
  1
1
  0
DICTIONARYVAR
  5
7AF
102
{ACAD_REACTORS
330
7AC
102
}
330
7AC
100
DictionaryVariables
280
     0
  1

  0
DICTIONARY
  5
7B4
330
25
100
AcDbDictionary
280
     1
281
     1
  3
ACAD_XREC_ROUNDTRIP
360
7B5
  0
DICTIONARY
  5
7B2
330
21
100
AcDbDictionary
280
     1
281
     1
  3
ACAD_XREC_ROUNDTRIP
360
7B3
  0
XRECORD
  5
7B5
102
{ACAD_REACTORS
330
7B4
102
}
330
7B4
100
AcDbXrecord
280
     1
102
SHADEPLOT
 70
     0
102
SHADEPLOTRESLEVEL
 70
     2
102
SHADEPLOTCUSTOMDPI
 70
   300
  0
XRECORD
  5
7B3
102
{ACAD_REACTORS
330
7B2
102
}
330
7B2
100
AcDbXrecord
280
     1
102
SHADEPLOT
 70
     0
102
SHADEPLOTRESLEVEL
 70
     2
102
SHADEPLOTCUSTOMDPI
 70
   300
  0
ENDSEC
  0
EOF
